  0
SECTION
  2
HEADER
  9
$ACADVER
  1
AC1009
  9
$INSBASE
 10
0
 20
0
 30
0
  9
$EXTMIN
 10
0
 20
0
  9
$EXTMAX
 10
1682
 20
1188
  9
$LIMMIN
 10
0
 20
0
  9
$LIMMAX
 10
1682
 20
1188
  9
$LTSCALE
 40
2
  0
ENDSEC
  0
SECTION
  2
TABLES
  0
TABLE
  2
LTYPE
 70
     9
  0
LTYPE
  2
CONTINUOUS
 70
    64
  3
実線
 72
    65
 73
     0
 40
0.0
  0
LTYPE
  2
DASHED1
 70
    64
  3
--  --  --  --  --  --  --  --  
 72
    65
 73
     2
 40
2.5
 49
1.25
 49
-1.25
  0
LTYPE
  2
DASHED2
 70
    64
  3
----    ----    ----    ----    
 72
    65
 73
     2
 40
5.0
 49
2.5
 49
-2.5
  0
LTYPE
  2
DASHED3
 70
    64
  3
------  ------  ------  ------  
 72
    65
 73
     2
 40
5.0
 49
3.75
 49
-1.25
  0
LTYPE
  2
CENTER1
 70
    64
  3
----- - ----- - ----- - ----- - 
 72
    65
 73
     4
 40
10.0
 49
6.25
 49
-1.25
 49
1.25
 49
-1.25
  0
LTYPE
  2
CENTER2
 70
    64
  3
----------  --  ----------  --  
 72
    65
 73
     4
 40
20.0
 49
12.5
 49
-2.5
 49
2.5
 49
-2.5
  0
LTYPE
  2
PHANTOM1
 70
    64
  3
--- - - --- - - --- - - --- - - 
 72
    65
 73
     6
 40
10.0
 49
3.25
 49
-1.25
 49
1.25
 49
-1.25
 49
1.25
 49
-1.25
  0
LTYPE
  2
PHANTOM2
 70
    64
  3
--------  -  -  --------  -  -  
 72
    65
 73
     6
 40
20.0
 49
10.0
 49
-2.5
 49
1.25
 49
-2.5
 49
1.25
 49
-2.5
  0
LTYPE
  2
DOT
 70
    64
  3
-   -   -   -   -   -   -   -   
 72
    65
 73
     2
 40
2.5
 49
0.625
 49
-1.875
  0
LTYPE
  2
DUMMY
 70
    64
  3
ダミー
 72
    65
 73
     0
 40
0.0
  0
LTYPE
  2
RAND1
 70
    64
  3
ランダム線1
 72
    65
 73
     4
 40
10.0
 49
1.0
 49
-2.0
 49
3.0
 49
-4.0
  0
LTYPE
  2
RAND2
 70
    64
  3
ランダム線2
 72
    65
 73
     4
 40
14.0
 49
2.0
 49
-3.0
 49
4.0
 49
-5.0
  0
LTYPE
  2
RAND3
 70
    64
  3
ランダム線3
 72
    65
 73
     4
 40
18.0
 49
3.0
 49
-4.0
 49
5.0
 49
-6.0
  0
LTYPE
  2
RAND4
 70
    64
  3
ランダム線4
 72
    65
 73
     4
 40
22.0
 49
4.0
 49
-5.0
 49
6.0
 49
-7.0
  0
LTYPE
  2
RAND5
 70
    64
  3
ランダム線5
 72
    65
 73
     4
 40
26.0
 49
5.0
 49
-6.0
 49
7.0
 49
-8.0
  0
LTYPE
  2
LONG1
 70
    64
  3
----------  --  ----------  --  
 72
    65
 73
     4
 40
40.0
 49
32.5
 49
-2.5
 49
2.5
 49
-2.5
  0
LTYPE
  2
LONG2
 70
    64
  3
--------  -  -  --------  -  -  
 72
    65
 73
     6
 40
40.0
 49
30.0
 49
-2.5
 49
1.25
 49
-2.5
 49
1.25
 49
-2.5
  0
LTYPE
  2
LONG3
 70
    64
  3
+++++++++++++++..+++++++++++++++
 72
    65
 73
     2
 40
40.0
 49
37.5
 49
-2.5
  0
LTYPE
  2
LONG4
 70
    64
  3
+++++++++++++++..+++++++++++++++
 72
    65
 73
     2
 40
80.0
 49
75.0
 49
-5.0
  0
LTYPE
  2
LONG5
 70
    64
  3
----------  --  ----------  --  
 72
    65
 73
     4
 40
60.0
 49
37.5
 49
-7.5
 49
7.5
 49
-7.5
  0
LTYPE
  2
dashed
 70
   64
  3
-------   -------------   ------
 72
   65
 73
    2
 40
7.5
 49
6
 49
-1.5
  0
LTYPE
  2
dashed_spaced
 70
   64
  3
----        --------        ----
 72
   65
 73
    2
 40
12
 49
6
 49
-6
  0
LTYPE
  2
long_dashed_dotted
 70
   64
  3
------------- --- --------------
 72
   65
 73
    4
 40
15.25
 49
12
 49
-1.5
 49
0.25
 49
-1.5
  0
LTYPE
  2
long_dashed_double-dotted
 70
   64
  3
----------- --- --- ------------
 72
   65
 73
    6
 40
17
 49
12
 49
-1.5
 49
0.25
 49
-1.5
 49
0.25
 49
-1.5
  0
LTYPE
  2
long_dashed_triplicate-dotted
 70
   64
  3
--------- --- --- --- ----------
 72
   65
 73
    8
 40
18.75
 49
12
 49
-1.5
 49
0.25
 49
-1.5
 49
0.25
 49
-1.5
 49
0.25
 49
-1.5
  0
LTYPE
  2
dotted
 70
   64
  3
   -       -       -       -    
 72
   65
 73
    2
 40
1.75
 49
0.25
 49
-1.5
  0
LTYPE
  2
chain
 70
   64
  3
-------------- -- --------------
 72
   65
 73
    4
 40
18.5
 49
12
 49
-1.5
 49
3.5
 49
-1.5
  0
LTYPE
  2
chain_double_dash
 70
   64
  3
------------ -- -- -------------
 72
   65
 73
    6
 40
23.5
 49
12
 49
-1.5
 49
3.5
 49
-1.5
 49
3.5
 49
-1.5
  0
LTYPE
  2
dashed_dotted
 70
   64
  3
-----------     -     ----------
 72
   65
 73
    4
 40
9.25
 49
6
 49
-1.5
 49
0.25
 49
-1.5
  0
LTYPE
  2
double-dashed_dotted
 70
   64
  3
------   -----------   -   -----
 72
   65
 73
    6
 40
16.75
 49
6
 49
-1.5
 49
6
 49
-1.5
 49
0.25
 49
-1.5
  0
LTYPE
  2
dashed_double-dotted
 70
   64
  3
---------    -    -    ---------
 72
   65
 73
    6
 40
11
 49
6
 49
-1.5
 49
0.25
 49
-1.5
 49
0.25
 49
-1.5
  0
LTYPE
  2
double-dashed_double-dotted
 70
   64
  3
-----   ---------   -   -   ----
 72
   65
 73
    8
 40
18.5
 49
6
 49
-1.5
 49
6
 49
-1.5
 49
0.25
 49
-1.5
 49
0.25
 49
-1.5
  0
LTYPE
  2
dashed_triplicate-dotted
 70
   64
  3
-------    -    -    -    ------
 72
   65
 73
    8
 40
12.75
 49
6
 49
-1.5
 49
0.25
 49
-1.5
 49
0.25
 49
-1.5
 49
0.25
 49
-1.5
  0
LTYPE
  2
double-dashed_triplicate-dotted
 70
   64
  3
-----  ---------  -  -  -  -----
 72
   65
 73
   10
 40
20.25
 49
6
 49
-1.5
 49
6
 49
-1.5
 49
0.25
 49
-1.5
 49
0.25
 49
-1.5
 49
0.25
 49
-1.5
  0
LTYPE
  2
undefined
 70
   64
  3
--------------------------------
 72
   65
 73
    0
 40
0
  0
ENDTAB
  0
TABLE
  2
STYLE
  5
3
100
AcDbSymbolTable
 70
     1
  0
STYLE
  5
10
100
AcDbSymbolTableRecord
100
AcDbTextStyleTableRecord
  2
STANDARD
 70
     0
 40
0.0
 41
1.0
 50
0.0
 71
     0
 42
0.2
  3
txt
  4
bigfont.shx
  0
STYLE
  5
26
100
AcDbSymbolTableRecord
100
AcDbTextStyleTableRecord
  2
TATEGAKI
 70
    68
 40
0.0
 41
1.0
 50
0.0
 71
     0
 42
1.0
  3
txt
  4
bigfont.shx
  0
ENDTAB
  0
TABLE
  2
LAYER
 70
    4
  0
LAYER
  2
_0-0_FRF74-0711
 70
   64
 62
    7
  6
CONTINUOUS
  0
LAYER
  2
_0-1_
 70
   64
 62
    7
  6
CONTINUOUS
  0
LAYER
  2
_0-2_
 70
   64
 62
    7
  6
CONTINUOUS
  0
LAYER
  2
ADD_LINE
 70
   64
 62
    7
  6
CONTINUOUS
  0
ENDTAB
  0
ENDSEC
  0
SECTION
  2
BLOCKS
  0
ENDSEC
  0
SECTION
  2
ENTITIES
  0
LINE
  8
_0-1_
  6
CONTINUOUS
 62
    4
 10
998.06600365766258
 20
782.55959370849155
 11
895.56599995664351
 21
782.55959370849155
  0
LINE
  8
_0-0_FRF74-0711
  6
CONTINUOUS
 62
    7
 10
886.56600132755034
 20
752.5595943790438
 11
847.56600424817793
 21
752.5595943790438
  0
LINE
  8
_0-2_
  6
CONTINUOUS
 62
    7
 10
1079.8988725370491
 20
503.2673488237719
 11
689.8988725370491
 21
503.2673488237719
  0
LINE
  8
_0-2_
  6
CONTINUOUS
 62
    7
 10
1079.8988725371457
 20
1029.267348823772
 11
689.89887253714551
 21
1029.267348823772
  0
LINE
  8
_0-2_
  6
CONTINUOUS
 62
    7
 10
689.89887253714551
 20
1029.267348823772
 11
689.89887253714551
 21
469.2673488237719
  0
LINE
  8
_0-2_
  6
CONTINUOUS
 62
    7
 10
689.89887253714551
 20
469.2673488237719
 11
1079.8988725371457
 21
469.2673488237719
  0
LINE
  8
_0-2_
  6
CONTINUOUS
 62
    7
 10
1079.8988725371457
 20
469.2673488237719
 11
1079.8988725371457
 21
1029.267348823772
  0
LINE
  8
_0-2_
  6
CONTINUOUS
 62
    7
 10
1079.8988725370491
 20
520.26734882377195
 11
689.8988725370491
 21
520.26734882377195
  0
LINE
  8
_0-2_
  6
CONTINUOUS
 62
    7
 10
1079.8988725371457
 20
486.2673488237719
 11
929.29887253714571
 21
486.2673488237719
  0
LINE
  8
_0-2_
  6
CONTINUOUS
 62
    7
 10
1029.6988725371975
 20
486.2673488237719
 11
1029.6988725371975
 21
503.2673488237719
  0
LINE
  8
_0-2_
  6
CONTINUOUS
 62
    7
 10
979.49887253719749
 20
486.2673488237719
 11
979.49887253719749
 21
503.2673488237719
  0
LINE
  8
_0-2_
  6
CONTINUOUS
 62
    7
 10
929.29887253719744
 20
469.2673488237719
 11
929.29887253719744
 21
520.26734882377195
  0
TEXT
  8
_0-2_
 62
    7
 10
936.36516934588531
 20
473.92519932464324
 40
6
 41
1
 50
0
  1
大洋金物株式会社 ティーフォルム事業部
  0
TEXT
  8
_0-2_
 62
    7
 10
692.03092613020874
 20
496.95829989926438
 40
4.4000000000000004
 41
1
 50
0
  1
仕様
  0
TEXT
  8
_0-2_
 62
    7
 10
692.11008412622641
 20
513.7277384202182
 40
4.4000000000000004
 41
1
 50
0
  1
品名
  0
TEXT
  8
_0-2_
 62
    7
 10
931.58014201817321
 20
514.02354576782386
 40
4.4000000000000004
 41
1
 50
0
  1
品番
  0
TEXT
  8
_0-2_
 62
    7
 10
931.40046929208268
 20
496.85593532261146
 40
4.4000000000000004
 41
1
 50
0
  1
重量
  0
TEXT
  8
_0-2_
 62
    7
 10
981.63419090952073
 20
497.28379304790997
 40
4.4000000000000004
 41
1
 50
0
  1
容量
  0
TEXT
  8
_0-2_
 62
    7
 10
1031.8476186341097
 20
497.19837872271296
 40
4.4000000000000004
 41
1
 50
0
  1
縮尺
  0
TEXT
  8
_0-2_
 62
    4
 10
690.59866426069993
 20
460.90948008418826
 40
5
 41
1
 50
0
  1
120907S
  0
TEXT
  8
_0-2_
 62
    7
 10
942.89541103866486
 20
507.16508785728229
 40
6
 41
1
 50
0
  1
FRF74-0711
  0
LINE
  8
_0-1_
  6
CONTINUOUS
 62
    4
 10
998.06600365766258
 20
856.40969241839184
 11
974.06600365766258
 21
856.40969241839184
  0
LINE
  8
_0-1_
  6
CONTINUOUS
 62
    4
 10
998.06600365766258
 20
856.40969241839184
 11
998.06600365766258
 21
831.40969241839184
  0
POINT
  8
_0-1_
 62
    7
 10
998.06600365766258
 20
856.40969241839184
  0
POINT
  8
_0-1_
 62
    7
 10
998.06600365766258
 20
831.40969241839184
  0
LINE
  8
_0-1_
  6
CONTINUOUS
 62
    4
 10
998.06600365766258
 20
831.40969241839184
 11
974.06600365766258
 21
831.40969241839184
  0
TEXT
  8
_0-1_
 62
    4
 10
997.06600365766258
 20
841.40969241839184
 40
5
 41
1
 50
90
  1
25
  0
LINE
  8
_0-1_
  6
CONTINUOUS
 62
    4
 10
844.56600189379446
 20
812.55959370849155
 11
889.56599995664351
 21
812.55959370849155
  0
POINT
  8
_0-1_
 62
    7
 10
844.56600189379446
 20
812.55959370849155
  0
POINT
  8
_0-1_
 62
    7
 10
889.56599995664351
 20
812.55959370849155
  0
LINE
  8
_0-1_
  6
CONTINUOUS
 62
    4
 10
844.56600189379446
 20
812.55959370849155
 11
844.56600189379446
 21
788.55959370849155
  0
LINE
  8
_0-1_
  6
CONTINUOUS
 62
    4
 10
889.56599995664351
 20
812.55959370849155
 11
889.56599995664351
 21
788.55959370849155
  0
TEXT
  8
_0-1_
 62
    4
 10
864.56600092521899
 20
813.55959370849155
 40
5
 41
1
 50
0
  1
45
  0
LINE
  8
_0-1_
  6
CONTINUOUS
 62
    4
 10
998.06600365766258
 20
782.55959370849155
 11
998.06600365766258
 21
669.05959466216586
  0
POINT
  8
_0-1_
 62
    7
 10
998.06600365766258
 20
782.55959370849155
  0
POINT
  8
_0-1_
 62
    7
 10
998.06600365766258
 20
669.05959466216586
  0
LINE
  8
_0-1_
  6
CONTINUOUS
 62
    4
 10
998.06600365766258
 20
669.05959466216586
 11
964.06599721482985
 21
669.05959466216586
  0
TEXT
  8
_0-1_
 62
    4
 10
997.06600365766258
 20
719.55959418532871
 40
5
 41
1
 50
90
  1
113.5
  0
LINE
  8
_0-1_
  6
CONTINUOUS
 62
    4
 10
981.41115816978538
 20
751.05959370849155
 11
981.41115816978538
 21
669.05959466216586
  0
POINT
  8
_0-1_
 62
    7
 10
981.41115816978538
 20
751.05959370849155
  0
POINT
  8
_0-1_
 62
    7
 10
981.41115816978538
 20
669.05959466216586
  0
LINE
  8
_0-1_
  6
CONTINUOUS
 62
    4
 10
981.41115816978538
 20
751.05959370849155
 11
964.06600365766246
 21
751.05959370849155
  0
LINE
  8
_0-1_
  6
CONTINUOUS
 62
    4
 10
981.41115816978538
 20
669.05959466216586
 11
964.06599721482985
 21
669.05959466216586
  0
TEXT
  8
_0-1_
 62
    4
 10
980.41115816978538
 20
707.55959418532871
 40
5
 41
1
 50
90
  1
82
  0
LINE
  8
_0-1_
  6
CONTINUOUS
 62
    4
 10
766.06600365766246
 20
886.40969241839184
 11
968.06600365766246
 21
886.40969241839184
  0
POINT
  8
_0-1_
 62
    7
 10
766.06600365766246
 20
886.40969241839184
  0
POINT
  8
_0-1_
 62
    7
 10
968.06600365766246
 20
886.40969241839184
  0
LINE
  8
_0-1_
  6
CONTINUOUS
 62
    4
 10
968.06600365766246
 20
886.40969241839184
 11
968.06600365766246
 21
862.40969241839184
  0
TEXT
  8
_0-1_
 62
    4
 10
863.31600365766246
 20
887.40969241839184
 40
5
 41
1
 50
0
  1
202
  0
ARC
  8
_0-0_FRF74-0711
  6
CONTINUOUS
 62
    7
 10
867.06600365766246
 20
836.39112657640135
 40
5.2934037340842082
 50
250.23109483948713
 51
289.76890516051452
  0
LINE
  8
_0-0_FRF74-0711
  6
CONTINUOUS
 62
    7
 10
865.99955282772851
 20
831.40969241839184
 11
866.02703678123225
 21
831.38107842827935
  0
LINE
  8
_0-0_FRF74-0711
  6
CONTINUOUS
 62
    7
 10
866.02703678123225
 20
831.38107842827935
 11
867.41422458860802
 21
831.27786078290922
  0
LINE
  8
_0-0_FRF74-0711
  6
CONTINUOUS
 62
    7
 10
867.41422458860802
 20
831.27786078290922
 11
867.94240702881268
 21
831.40969241839184
  0
LINE
  8
_0-0_FRF74-0711
  6
CONTINUOUS
 62
    7
 10
866.02703678123225
 20
831.40969241839184
 11
866.02703678123225
 21
831.38107842827935
  0
LINE
  8
_0-0_FRF74-0711
  6
CONTINUOUS
 62
    7
 10
867.41422458860802
 20
831.40969241839184
 11
867.41422458860802
 21
831.27786078290922
  0
LINE
  8
_0-0_FRF74-0711
  6
CONTINUOUS
 62
    7
 10
766.06600365766246
 20
831.40969241839173
 11
766.06600365766246
 21
856.40969241839184
  0
LINE
  8
_0-0_FRF74-0711
  6
CONTINUOUS
 62
    7
 10
776.06600365766246
 20
856.40969241839184
 11
766.06600365766246
 21
856.40969241839184
  0
LINE
  8
_0-0_FRF74-0711
  6
CONTINUOUS
 62
    7
 10
776.06600365766246
 20
831.40969241839173
 11
766.06600365766246
 21
831.40969241839173
  0
LINE
  8
_0-0_FRF74-0711
  6
CONTINUOUS
 62
    7
 10
958.06600365766246
 20
856.40969241839184
 11
776.06600365766246
 21
856.40969241839184
  0
LINE
  8
_0-0_FRF74-0711
  6
CONTINUOUS
 62
    7
 10
958.06600365766246
 20
831.40969241839184
 11
776.06600365766246
 21
831.40969241839173
  0
LINE
  8
_0-0_FRF74-0711
  6
CONTINUOUS
 62
    7
 10
968.06600365766246
 20
831.40969241839184
 11
968.06600365766246
 21
856.40969241839184
  0
LINE
  8
_0-0_FRF74-0711
  6
CONTINUOUS
 62
    7
 10
968.06600365766246
 20
856.40969241839184
 11
958.06600365766246
 21
856.40969241839184
  0
LINE
  8
_0-0_FRF74-0711
  6
CONTINUOUS
 62
    7
 10
968.06600365766246
 20
831.40969241839184
 11
958.06600365766246
 21
831.40969241839184
  0
LINE
  8
_0-0_FRF74-0711
  6
CONTINUOUS
 62
    7
 10
889.56599995664351
 20
782.55959370849155
 11
889.56599995664351
 21
752.5595943790438
  0
LINE
  8
_0-0_FRF74-0711
  6
CONTINUOUS
 62
    7
 10
889.56599995664351
 20
752.5595943790438
 11
886.56600132755034
 21
752.5595943790438
  0
LINE
  8
_0-0_FRF74-0711
  6
CONTINUOUS
 62
    7
 10
886.56600132755034
 20
782.55959370849155
 11
889.56599995664351
 21
782.55959370849155
  0
LINE
  8
_0-0_FRF74-0711
  6
CONTINUOUS
 62
    7
 10
886.56600132755034
 20
782.55959370849155
 11
847.56600424817793
 21
782.55959370849155
  0
LINE
  8
_0-0_FRF74-0711
  6
CONTINUOUS
 62
    7
 10
844.56600189379446
 20
752.5595943790438
 11
844.56600189379446
 21
782.55959370849155
  0
LINE
  8
_0-0_FRF74-0711
  6
CONTINUOUS
 62
    7
 10
847.56600424817793
 20
752.5595943790438
 11
844.56600189379446
 21
752.5595943790438
  0
LINE
  8
_0-0_FRF74-0711
  6
CONTINUOUS
 62
    7
 10
844.56600189379446
 20
782.55959370849155
 11
847.56600424817793
 21
782.55959370849155
  0
LINE
  8
_0-0_FRF74-0711
  6
CONTINUOUS
 62
    7
 10
888.06600436738722
 20
751.05959320185207
 11
888.06600436738722
 21
752.5595943790438
  0
LINE
  8
_0-0_FRF74-0711
  6
CONTINUOUS
 62
    7
 10
846.06600493363135
 20
751.05959320185207
 11
846.06600493363135
 21
752.5595943790438
  0
ARC
  8
_0-0_FRF74-0711
  6
CONTINUOUS
 62
    7
 10
776.06600365766246
 20
679.05959370849155
 40
6.0000000000000284
 50
180
 51
270.00000000000108
  0
LINE
  8
_0-0_FRF74-0711
  6
CONTINUOUS
 62
    7
 10
958.06599721482985
 20
673.05959531781696
 11
776.06600463560812
 21
673.05959531781696
  0
ARC
  8
_0-0_FRF74-0711
  6
CONTINUOUS
 62
    7
 10
958.06600365766246
 20
679.05959370849155
 40
6
 50
270.00000000000051
 51
0
  0
LINE
  8
_0-0_FRF74-0711
  6
CONTINUOUS
 62
    7
 10
964.06600937417738
 20
741.05959528801463
 11
964.06600937417738
 21
679.0595925760033
  0
ARC
  8
_0-0_FRF74-0711
  6
CONTINUOUS
 62
    7
 10
958.06600365766246
 20
741.05959370849155
 40
6
 50
0
 51
90
  0
LINE
  8
_0-0_FRF74-0711
  6
CONTINUOUS
 62
    7
 10
847.56600424817793
 20
747.05959254620097
 11
958.06599721482985
 21
747.05959254620097
  0
LINE
  8
_0-0_FRF74-0711
  6
CONTINUOUS
 62
    7
 10
847.56600424817793
 20
751.05959320185207
 11
958.06599721482985
 21
751.05959320185207
  0
LINE
  8
_0-0_FRF74-0711
  6
CONTINUOUS
 62
    7
 10
968.06600257924788
 20
741.05959528801463
 11
968.06600257924788
 21
679.0595925760033
  0
ARC
  8
_0-0_FRF74-0711
  6
CONTINUOUS
 62
    7
 10
958.06600365766246
 20
679.05959370849155
 40
10
 50
270.00000000000068
 51
0
  0
LINE
  8
_0-0_FRF74-0711
  6
CONTINUOUS
 62
    7
 10
958.06599721482985
 20
669.05959466216586
 11
776.06600463560812
 21
669.05959466216586
  0
ARC
  8
_0-0_FRF74-0711
  6
CONTINUOUS
 62
    7
 10
776.06600365766246
 20
679.05959370849155
 40
10
 50
180
 51
270.00000000000097
  0
LINE
  8
_0-0_FRF74-0711
  6
CONTINUOUS
 62
    7
 10
766.06600299648039
 20
679.0595925760033
 11
766.06600299648039
 21
687.05959388730548
  0
LINE
  8
_0-0_FRF74-0711
  6
CONTINUOUS
 62
    7
 10
770.06600365213149
 20
679.0595925760033
 11
770.06600365213149
 21
687.05959388730548
  0
ARC
  8
_0-0_FRF74-0711
  6
CONTINUOUS
 62
    7
 10
958.06600365766246
 20
741.05959370849155
 40
10
 50
0
 51
90
  0
LINE
  8
_0-0_FRF74-0711
  6
CONTINUOUS
 62
    7
 10
844.56600189379446
 20
747.05959254620097
 11
844.56600189379446
 21
751.05959320185207
  0
LINE
  8
_0-0_FRF74-0711
  6
CONTINUOUS
 62
    7
 10
847.56600424817793
 20
747.05959254620097
 11
844.56600189379446
 21
747.05959254620097
  0
LINE
  8
_0-0_FRF74-0711
  6
CONTINUOUS
 62
    7
 10
844.56600189379446
 20
751.05959320185207
 11
847.56600424817793
 21
751.05959320185207
  0
LINE
  8
_0-0_FRF74-0711
  6
CONTINUOUS
 62
    7
 10
766.06600299648039
 20
687.05959388730548
 11
766.06600299648039
 21
690.05959251639865
  0
LINE
  8
_0-0_FRF74-0711
  6
CONTINUOUS
 62
    7
 10
766.06600299648039
 20
690.05959251639865
 11
770.06600365213149
 21
690.05959251639865
  0
LINE
  8
_0-0_FRF74-0711
  6
CONTINUOUS
 62
    7
 10
770.06600365213149
 20
690.05959251639865
 11
770.06600365213149
 21
687.05959388730548
  0
LINE
  8
_0-1_
  6
CONTINUOUS
 62
    4
 10
766.06600299648039
 20
720.05959251639865
 11
770.06600365213149
 21
720.05959251639865
  0
POINT
  8
_0-1_
 62
    7
 10
766.06600299648039
 20
720.05959251639865
  0
POINT
  8
_0-1_
 62
    7
 10
770.06600365213149
 20
720.05959251639865
  0
LINE
  8
_0-1_
  6
CONTINUOUS
 62
    4
 10
766.06600299648039
 20
720.05959251639865
 11
766.06600299648039
 21
696.05959251639865
  0
LINE
  8
_0-1_
  6
CONTINUOUS
 62
    4
 10
770.06600365213149
 20
720.05959251639865
 11
770.06600365213149
 21
696.05959251639865
  0
TEXT
  8
_0-1_
 62
    4
 10
766.81600332430594
 20
721.05959251639865
 40
5
 41
1
 50
0
  1
4
  0
LINE
  8
_0-2_
  6
CONTINUOUS
 62
    7
 10
766.06600365766246
 20
886.40969241839184
 11
766.06600365766246
 21
862.40969241839184
  0
TEXT
  8
_0-2_
 62
    7
 10
704.52645968509307
 20
506.99149662678974
 40
6
 41
1
 50
0
  1
タオルリング　-LANGBERGER,Vico-
  0
TEXT
  8
_0-1_
 62
    7
 10
703.41454545454542
 20
488.1227807486631
 40
6
 41
1
 50
0
  1
クローム
  0
ENDSEC
  0
EOF
