  0
SECTION
  2
HEADER
  9
$ACADVER
  1
AC1021
  9
$ACADMAINTVER
 70
    25
  9
$DWGCODEPAGE
  3
ANSI_932
  9
$LASTSAVEDBY
  1
Shimosaki
  9
$INSBASE
 10
0.0
 20
0.0
 30
0.0
  9
$EXTMIN
 10
1577.566283385414
 20
947.2697085215659
 30
0.0
  9
$EXTMAX
 10
2552.566283385656
 20
2371.197953007166
 30
0.0
  9
$LIMMIN
 10
1540.066283385656
 20
914.333572028338
  9
$LIMMAX
 10
2590.066283385656
 20
2399.333572028338
  9
$ORTHOMODE
 70
     0
  9
$REGENMODE
 70
     1
  9
$FILLMODE
 70
     1
  9
$QTEXTMODE
 70
     0
  9
$MIRRTEXT
 70
     1
  9
$LTSCALE
 40
5.0
  9
$ATTMODE
 70
     1
  9
$TEXTSIZE
 40
0.2
  9
$TRACEWID
 40
0.05
  9
$TEXTSTYLE
  7
STANDARD
  9
$CLAYER
  8
0
  9
$CELTYPE
  6
ByBlock
  9
$CECOLOR
 62
   256
  9
$CELTSCALE
 40
1.0
  9
$DISPSILH
 70
     0
  9
$DIMSCALE
 40
1.0
  9
$DIMASZ
 40
0.18
  9
$DIMEXO
 40
0.0625
  9
$DIMDLI
 40
0.38
  9
$DIMRND
 40
0.0
  9
$DIMDLE
 40
0.0
  9
$DIMEXE
 40
0.18
  9
$DIMTP
 40
0.0
  9
$DIMTM
 40
0.0
  9
$DIMTXT
 40
0.18
  9
$DIMCEN
 40
0.09
  9
$DIMTSZ
 40
0.0
  9
$DIMTOL
 70
     0
  9
$DIMLIM
 70
     0
  9
$DIMTIH
 70
     1
  9
$DIMTOH
 70
     1
  9
$DIMSE1
 70
     0
  9
$DIMSE2
 70
     0
  9
$DIMTAD
 70
     0
  9
$DIMZIN
 70
     0
  9
$DIMBLK
  1

  9
$DIMASO
 70
     1
  9
$DIMSHO
 70
     1
  9
$DIMPOST
  1

  9
$DIMAPOST
  1

  9
$DIMALT
 70
     0
  9
$DIMALTD
 70
     2
  9
$DIMALTF
 40
25.4
  9
$DIMLFAC
 40
1.0
  9
$DIMTOFL
 70
     0
  9
$DIMTVP
 40
0.0
  9
$DIMTIX
 70
     0
  9
$DIMSOXD
 70
     0
  9
$DIMSAH
 70
     0
  9
$DIMBLK1
  1

  9
$DIMBLK2
  1

  9
$DIMSTYLE
  2
Standard
  9
$DIMCLRD
 70
     0
  9
$DIMCLRE
 70
     0
  9
$DIMCLRT
 70
     0
  9
$DIMTFAC
 40
1.0
  9
$DIMGAP
 40
0.09
  9
$DIMJUST
 70
     0
  9
$DIMSD1
 70
     0
  9
$DIMSD2
 70
     0
  9
$DIMTOLJ
 70
     1
  9
$DIMTZIN
 70
     0
  9
$DIMALTZ
 70
     0
  9
$DIMALTTZ
 70
     0
  9
$DIMUPT
 70
     0
  9
$DIMDEC
 70
     4
  9
$DIMTDEC
 70
     4
  9
$DIMALTU
 70
     2
  9
$DIMALTTD
 70
     2
  9
$DIMTXSTY
  7
STANDARD
  9
$DIMAUNIT
 70
     0
  9
$DIMADEC
 70
     0
  9
$DIMALTRND
 40
0.0
  9
$DIMAZIN
 70
     0
  9
$DIMDSEP
 70
    46
  9
$DIMATFIT
 70
     3
  9
$DIMFRAC
 70
     0
  9
$DIMLDRBLK
  1

  9
$DIMLUNIT
 70
     2
  9
$DIMLWD
 70
    -2
  9
$DIMLWE
 70
    -2
  9
$DIMTMOVE
 70
     2
  9
$DIMFXL
 40
1.0
  9
$DIMFXLON
 70
     0
  9
$DIMJOGANG
 40
0.7853981633974483
  9
$DIMTFILL
 70
     0
  9
$DIMTFILLCLR
 70
     0
  9
$DIMARCSYM
 70
     0
  9
$DIMLTYPE
  6

  9
$DIMLTEX1
  6

  9
$DIMLTEX2
  6

  9
$LUNITS
 70
     2
  9
$LUPREC
 70
     4
  9
$SKETCHINC
 40
0.1
  9
$FILLETRAD
 40
0.5
  9
$AUNITS
 70
     0
  9
$AUPREC
 70
     0
  9
$MENU
  1
.
  9
$ELEVATION
 40
0.0
  9
$PELEVATION
 40
0.0
  9
$THICKNESS
 40
0.0
  9
$LIMCHECK
 70
     0
  9
$CHAMFERA
 40
0.0
  9
$CHAMFERB
 40
0.0
  9
$CHAMFERC
 40
0.0
  9
$CHAMFERD
 40
0.0
  9
$SKPOLY
 70
     0
  9
$TDCREATE
 40
2457660.61668353
  9
$TDUCREATE
 40
2457660.24168353
  9
$TDUPDATE
 40
2457660.622077326
  9
$TDUUPDATE
 40
2457660.247077326
  9
$TDINDWG
 40
0.0053922917
  9
$TDUSRTIMER
 40
2457660.24168507
  9
$USRTIMER
 70
     1
  9
$ANGBASE
 50
0.0
  9
$ANGDIR
 70
     0
  9
$PDMODE
 70
     0
  9
$PDSIZE
 40
0.0
  9
$PLINEWID
 40
0.0
  9
$SPLFRAME
 70
     0
  9
$SPLINETYPE
 70
     6
  9
$SPLINESEGS
 70
     8
  9
$HANDSEED
  5
1A3
  9
$SURFTAB1
 70
     6
  9
$SURFTAB2
 70
     6
  9
$SURFTYPE
 70
     6
  9
$SURFU
 70
     6
  9
$SURFV
 70
     6
  9
$UCSBASE
  2

  9
$UCSNAME
  2

  9
$UCSORG
 10
0.0
 20
0.0
 30
0.0
  9
$UCSXDIR
 10
1.0
 20
0.0
 30
0.0
  9
$UCSYDIR
 10
0.0
 20
1.0
 30
0.0
  9
$UCSORTHOREF
  2

  9
$UCSORTHOVIEW
 70
     0
  9
$UCSORGTOP
 10
0.0
 20
0.0
 30
0.0
  9
$UCSORGBOTTOM
 10
0.0
 20
0.0
 30
0.0
  9
$UCSORGLEFT
 10
0.0
 20
0.0
 30
0.0
  9
$UCSORGRIGHT
 10
0.0
 20
0.0
 30
0.0
  9
$UCSORGFRONT
 10
0.0
 20
0.0
 30
0.0
  9
$UCSORGBACK
 10
0.0
 20
0.0
 30
0.0
  9
$PUCSBASE
  2

  9
$PUCSNAME
  2

  9
$PUCSORG
 10
0.0
 20
0.0
 30
0.0
  9
$PUCSXDIR
 10
1.0
 20
0.0
 30
0.0
  9
$PUCSYDIR
 10
0.0
 20
1.0
 30
0.0
  9
$PUCSORTHOREF
  2

  9
$PUCSORTHOVIEW
 70
     0
  9
$PUCSORGTOP
 10
0.0
 20
0.0
 30
0.0
  9
$PUCSORGBOTTOM
 10
0.0
 20
0.0
 30
0.0
  9
$PUCSORGLEFT
 10
0.0
 20
0.0
 30
0.0
  9
$PUCSORGRIGHT
 10
0.0
 20
0.0
 30
0.0
  9
$PUCSORGFRONT
 10
0.0
 20
0.0
 30
0.0
  9
$PUCSORGBACK
 10
0.0
 20
0.0
 30
0.0
  9
$USERI1
 70
     0
  9
$USERI2
 70
     0
  9
$USERI3
 70
     0
  9
$USERI4
 70
     0
  9
$USERI5
 70
     0
  9
$USERR1
 40
0.0
  9
$USERR2
 40
0.0
  9
$USERR3
 40
0.0
  9
$USERR4
 40
0.0
  9
$USERR5
 40
0.0
  9
$WORLDVIEW
 70
     1
  9
$SHADEDGE
 70
     3
  9
$SHADEDIF
 70
    70
  9
$TILEMODE
 70
     1
  9
$MAXACTVP
 70
    64
  9
$PINSBASE
 10
0.0
 20
0.0
 30
0.0
  9
$PLIMCHECK
 70
     0
  9
$PEXTMIN
 10
1.000000000000000E+20
 20
1.000000000000000E+20
 30
1.000000000000000E+20
  9
$PEXTMAX
 10
-1.000000000000000E+20
 20
-1.000000000000000E+20
 30
-1.000000000000000E+20
  9
$PLIMMIN
 10
0.0
 20
0.0
  9
$PLIMMAX
 10
0.0
 20
0.0
  9
$UNITMODE
 70
     0
  9
$VISRETAIN
 70
     1
  9
$PLINEGEN
 70
     0
  9
$PSLTSCALE
 70
     1
  9
$TREEDEPTH
 70
  3020
  9
$CMLSTYLE
  2
Standard
  9
$CMLJUST
 70
     0
  9
$CMLSCALE
 40
1.0
  9
$PROXYGRAPHICS
 70
     1
  9
$MEASUREMENT
 70
     0
  9
$CELWEIGHT
370
    -1
  9
$ENDCAPS
280
     0
  9
$JOINSTYLE
280
     0
  9
$LWDISPLAY
290
     0
  9
$INSUNITS
 70
     0
  9
$HYPERLINKBASE
  1

  9
$STYLESHEET
  1

  9
$XEDIT
290
     1
  9
$CEPSNTYPE
380
     0
  9
$PSTYLEMODE
290
     1
  9
$FINGERPRINTGUID
  2
{7B852C77-6457-42B2-B6CA-1B44370B1948}
  9
$VERSIONGUID
  2
{FAEB1C32-E019-11D5-929B-00C0DF256EC4}
  9
$EXTNAMES
290
     1
  9
$PSVPSCALE
 40
0.0
  9
$OLESTARTUP
290
     0
  9
$SORTENTS
280
   127
  9
$INDEXCTL
280
     0
  9
$HIDETEXT
280
     1
  9
$XCLIPFRAME
290
     0
  9
$HALOGAP
280
     0
  9
$OBSCOLOR
 70
   257
  9
$OBSLTYPE
280
     0
  9
$INTERSECTIONDISPLAY
280
     0
  9
$INTERSECTIONCOLOR
 70
   257
  9
$DIMASSOC
280
     2
  9
$PROJECTNAME
  1

  9
$CAMERADISPLAY
290
     0
  9
$LENSLENGTH
 40
50.0
  9
$CAMERAHEIGHT
 40
0.0
  9
$STEPSPERSEC
 40
2.0
  9
$STEPSIZE
 40
6.0
  9
$3DDWFPREC
 40
2.0
  9
$PSOLWIDTH
 40
0.25
  9
$PSOLHEIGHT
 40
4.0
  9
$LOFTANG1
 40
1.570796326794897
  9
$LOFTANG2
 40
1.570796326794897
  9
$LOFTMAG1
 40
0.0
  9
$LOFTMAG2
 40
0.0
  9
$LOFTPARAM
 70
     7
  9
$LOFTNORMALS
280
     1
  9
$LATITUDE
 40
37.795
  9
$LONGITUDE
 40
-122.394
  9
$NORTHDIRECTION
 40
0.0
  9
$TIMEZONE
 70
 -8000
  9
$LIGHTGLYPHDISPLAY
280
     1
  9
$TILEMODELIGHTSYNCH
280
     1
  9
$SOLIDHIST
280
     0
  9
$SHOWHIST
280
     1
  9
$DWFFRAME
280
     2
  9
$DGNFRAME
280
     2
  9
$REALWORLDSCALE
290
     1
  9
$INTERFERECOLOR
 62
   256
  9
$CSHADOW
280
     0
  9
$SHADOWPLANELOCATION
 40
0.0
  0
ENDSEC
  0
SECTION
  2
CLASSES
  0
CLASS
  1
ACDBDICTIONARYWDFLT
  2
AcDbDictionaryWithDefault
  3
ObjectDBX Classes
 90
        0
 91
        4
280
     0
281
     0
  0
CLASS
  1
SCALE
  2
AcDbScale
  3
ObjectDBX Classes
 90
     1153
 91
        4
280
     0
281
     0
  0
CLASS
  1
VISUALSTYLE
  2
AcDbVisualStyle
  3
ObjectDBX Classes
 90
     4095
 91
        4
280
     0
281
     0
  0
CLASS
  1
MATERIAL
  2
AcDbMaterial
  3
ObjectDBX Classes
 90
     1153
 91
        4
280
     0
281
     0
  0
CLASS
  1
TABLESTYLE
  2
AcDbTableStyle
  3
ObjectDBX Classes
 90
     4095
 91
        4
280
     0
281
     0
  0
CLASS
  1
MLEADERSTYLE
  2
AcDbMLeaderStyle
  3
ACDB_MLEADERSTYLE_CLASS
 90
     4095
 91
        4
280
     0
281
     0
  0
CLASS
  1
SUN
  2
AcDbSun
  3
SCENEOE
 90
     1153
 91
        4
280
     0
281
     0
  0
CLASS
  1
RASTERVARIABLES
  2
AcDbRasterVariables
  3
ISM
 90
        0
 91
        4
280
     0
281
     0
  0
CLASS
  1
DICTIONARYVAR
  2
AcDbDictionaryVar
  3
ObjectDBX Classes
 90
        0
 91
        4
280
     0
281
     0
  0
CLASS
  1
CELLSTYLEMAP
  2
AcDbCellStyleMap
  3
ObjectDBX Classes
 90
     1152
 91
        4
280
     0
281
     0
  0
ENDSEC
  0
SECTION
  2
TABLES
  0
TABLE
  2
VPORT
  5
8
330
0
100
AcDbSymbolTable
 70
     1
  0
VPORT
  5
146
330
8
100
AcDbSymbolTableRecord
100
AcDbViewportTableRecord
  2
*Active
 70
     0
 10
0.0
 20
0.0
 11
1.0
 21
1.0
 12
3400.967685862496
 22
1747.176642108544
 13
0.0
 23
0.0
 14
0.5
 24
0.5
 15
0.5
 25
0.5
 16
0.0
 26
0.0
 36
1.0
 17
0.0
 27
0.0
 37
0.0
 40
1905.824131322176
 41
2.426497277676951
 42
50.0
 43
0.0
 44
0.0
 50
0.0
 51
0.0
 71
    16
 72
   100
 73
     1
 74
     3
 75
     0
 76
     0
 77
     0
 78
     0
281
     0
 65
     1
110
0.0
120
0.0
130
0.0
111
1.0
121
0.0
131
0.0
112
0.0
122
1.0
132
0.0
 79
     0
146
0.0
348
172
 60
     3
 61
     5
292
     1
282
     1
141
0.0
142
0.0
 63
   250
361
18F
  0
ENDTAB
  0
TABLE
  2
LTYPE
  5
5
330
0
100
AcDbSymbolTable
 70
    35
  0
LTYPE
  5
14
330
5
100
AcDbSymbolTableRecord
100
AcDbLinetypeTableRecord
  2
ByBlock
 70
     0
  3

 72
    65
 73
     0
 40
0.0
  0
LTYPE
  5
15
330
5
100
AcDbSymbolTableRecord
100
AcDbLinetypeTableRecord
  2
ByLayer
 70
     0
  3

 72
    65
 73
     0
 40
0.0
  0
LTYPE
  5
16
330
5
100
AcDbSymbolTableRecord
100
AcDbLinetypeTableRecord
  2
CONTINUOUS
 70
     0
  3
実線
 72
    65
 73
     0
 40
0.0
  0
LTYPE
  5
21
330
5
100
AcDbSymbolTableRecord
100
AcDbLinetypeTableRecord
  2
DASHED1
 70
     0
  3
--  --  --  --  --  --  --  --  
 72
    65
 73
     2
 40
2.5
 49
1.25
 74
     0
 49
-1.25
 74
     0
  0
LTYPE
  5
22
330
5
100
AcDbSymbolTableRecord
100
AcDbLinetypeTableRecord
  2
DASHED2
 70
     0
  3
----    ----    ----    ----    
 72
    65
 73
     2
 40
5.0
 49
2.5
 74
     0
 49
-2.5
 74
     0
  0
LTYPE
  5
23
330
5
100
AcDbSymbolTableRecord
100
AcDbLinetypeTableRecord
  2
DASHED3
 70
     0
  3
------  ------  ------  ------  
 72
    65
 73
     2
 40
5.0
 49
3.75
 74
     0
 49
-1.25
 74
     0
  0
LTYPE
  5
24
330
5
100
AcDbSymbolTableRecord
100
AcDbLinetypeTableRecord
  2
CENTER1
 70
     0
  3
----- - ----- - ----- - ----- - 
 72
    65
 73
     4
 40
10.0
 49
6.25
 74
     0
 49
-1.25
 74
     0
 49
1.25
 74
     0
 49
-1.25
 74
     0
  0
LTYPE
  5
25
330
5
100
AcDbSymbolTableRecord
100
AcDbLinetypeTableRecord
  2
CENTER2
 70
     0
  3
----------  --  ----------  --  
 72
    65
 73
     4
 40
20.0
 49
12.5
 74
     0
 49
-2.5
 74
     0
 49
2.5
 74
     0
 49
-2.5
 74
     0
  0
LTYPE
  5
26
330
5
100
AcDbSymbolTableRecord
100
AcDbLinetypeTableRecord
  2
PHANTOM1
 70
     0
  3
--- - - --- - - --- - - --- - - 
 72
    65
 73
     6
 40
9.5
 49
3.25
 74
     0
 49
-1.25
 74
     0
 49
1.25
 74
     0
 49
-1.25
 74
     0
 49
1.25
 74
     0
 49
-1.25
 74
     0
  0
LTYPE
  5
27
330
5
100
AcDbSymbolTableRecord
100
AcDbLinetypeTableRecord
  2
PHANTOM2
 70
     0
  3
--------  -  -  --------  -  -  
 72
    65
 73
     6
 40
20.0
 49
10.0
 74
     0
 49
-2.5
 74
     0
 49
1.25
 74
     0
 49
-2.5
 74
     0
 49
1.25
 74
     0
 49
-2.5
 74
     0
  0
LTYPE
  5
28
330
5
100
AcDbSymbolTableRecord
100
AcDbLinetypeTableRecord
  2
DOT
 70
     0
  3
-   -   -   -   -   -   -   -   
 72
    65
 73
     2
 40
2.5
 49
0.625
 74
     0
 49
-1.875
 74
     0
  0
LTYPE
  5
29
330
5
100
AcDbSymbolTableRecord
100
AcDbLinetypeTableRecord
  2
DUMMY
 70
     0
  3
ダミー
 72
    65
 73
     0
 40
0.0
  0
LTYPE
  5
2A
330
5
100
AcDbSymbolTableRecord
100
AcDbLinetypeTableRecord
  2
RAND1
 70
     0
  3
ランダム線1
 72
    65
 73
     4
 40
10.0
 49
1.0
 74
     0
 49
-2.0
 74
     0
 49
3.0
 74
     0
 49
-4.0
 74
     0
  0
LTYPE
  5
2B
330
5
100
AcDbSymbolTableRecord
100
AcDbLinetypeTableRecord
  2
RAND2
 70
     0
  3
ランダム線2
 72
    65
 73
     4
 40
14.0
 49
2.0
 74
     0
 49
-3.0
 74
     0
 49
4.0
 74
     0
 49
-5.0
 74
     0
  0
LTYPE
  5
2C
330
5
100
AcDbSymbolTableRecord
100
AcDbLinetypeTableRecord
  2
RAND3
 70
     0
  3
ランダム線3
 72
    65
 73
     4
 40
18.0
 49
3.0
 74
     0
 49
-4.0
 74
     0
 49
5.0
 74
     0
 49
-6.0
 74
     0
  0
LTYPE
  5
2D
330
5
100
AcDbSymbolTableRecord
100
AcDbLinetypeTableRecord
  2
RAND4
 70
     0
  3
ランダム線4
 72
    65
 73
     4
 40
22.0
 49
4.0
 74
     0
 49
-5.0
 74
     0
 49
6.0
 74
     0
 49
-7.0
 74
     0
  0
LTYPE
  5
2E
330
5
100
AcDbSymbolTableRecord
100
AcDbLinetypeTableRecord
  2
RAND5
 70
     0
  3
ランダム線5
 72
    65
 73
     4
 40
26.0
 49
5.0
 74
     0
 49
-6.0
 74
     0
 49
7.0
 74
     0
 49
-8.0
 74
     0
  0
LTYPE
  5
2F
330
5
100
AcDbSymbolTableRecord
100
AcDbLinetypeTableRecord
  2
LONG1
 70
     0
  3
----------  --  ----------  --  
 72
    65
 73
     4
 40
40.0
 49
32.5
 74
     0
 49
-2.5
 74
     0
 49
2.5
 74
     0
 49
-2.5
 74
     0
  0
LTYPE
  5
30
330
5
100
AcDbSymbolTableRecord
100
AcDbLinetypeTableRecord
  2
LONG2
 70
     0
  3
--------  -  -  --------  -  -  
 72
    65
 73
     6
 40
40.0
 49
30.0
 74
     0
 49
-2.5
 74
     0
 49
1.25
 74
     0
 49
-2.5
 74
     0
 49
1.25
 74
     0
 49
-2.5
 74
     0
  0
LTYPE
  5
31
330
5
100
AcDbSymbolTableRecord
100
AcDbLinetypeTableRecord
  2
LONG3
 70
     0
  3
+++++++++++++++..+++++++++++++++
 72
    65
 73
     2
 40
40.0
 49
37.5
 74
     0
 49
-2.5
 74
     0
  0
LTYPE
  5
32
330
5
100
AcDbSymbolTableRecord
100
AcDbLinetypeTableRecord
  2
LONG4
 70
     0
  3
+++++++++++++++..+++++++++++++++
 72
    65
 73
     2
 40
80.0
 49
75.0
 74
     0
 49
-5.0
 74
     0
  0
LTYPE
  5
33
330
5
100
AcDbSymbolTableRecord
100
AcDbLinetypeTableRecord
  2
LONG5
 70
     0
  3
----------  --  ----------  --  
 72
    65
 73
     4
 40
60.0
 49
37.5
 74
     0
 49
-7.5
 74
     0
 49
7.5
 74
     0
 49
-7.5
 74
     0
  0
LTYPE
  5
34
330
5
100
AcDbSymbolTableRecord
100
AcDbLinetypeTableRecord
  2
dashed
 70
     0
  3
-------   -------------   ------
 72
    65
 73
     2
 40
7.5
 49
6.0
 74
     0
 49
-1.5
 74
     0
  0
LTYPE
  5
35
330
5
100
AcDbSymbolTableRecord
100
AcDbLinetypeTableRecord
  2
dashed_spaced
 70
     0
  3
----        --------        ----
 72
    65
 73
     2
 40
12.0
 49
6.0
 74
     0
 49
-6.0
 74
     0
  0
LTYPE
  5
36
330
5
100
AcDbSymbolTableRecord
100
AcDbLinetypeTableRecord
  2
long_dashed_dotted
 70
     0
  3
------------- --- --------------
 72
    65
 73
     4
 40
15.25
 49
12.0
 74
     0
 49
-1.5
 74
     0
 49
0.25
 74
     0
 49
-1.5
 74
     0
  0
LTYPE
  5
37
330
5
100
AcDbSymbolTableRecord
100
AcDbLinetypeTableRecord
  2
long_dashed_double-dotted
 70
     0
  3
----------- --- --- ------------
 72
    65
 73
     6
 40
17.0
 49
12.0
 74
     0
 49
-1.5
 74
     0
 49
0.25
 74
     0
 49
-1.5
 74
     0
 49
0.25
 74
     0
 49
-1.5
 74
     0
  0
LTYPE
  5
38
330
5
100
AcDbSymbolTableRecord
100
AcDbLinetypeTableRecord
  2
long_dashed_triplicate-dotted
 70
     0
  3
--------- --- --- --- ----------
 72
    65
 73
     8
 40
18.75
 49
12.0
 74
     0
 49
-1.5
 74
     0
 49
0.25
 74
     0
 49
-1.5
 74
     0
 49
0.25
 74
     0
 49
-1.5
 74
     0
 49
0.25
 74
     0
 49
-1.5
 74
     0
  0
LTYPE
  5
39
330
5
100
AcDbSymbolTableRecord
100
AcDbLinetypeTableRecord
  2
dotted
 70
     0
  3
   -       -       -       -    
 72
    65
 73
     2
 40
1.75
 49
0.25
 74
     0
 49
-1.5
 74
     0
  0
LTYPE
  5
3A
330
5
100
AcDbSymbolTableRecord
100
AcDbLinetypeTableRecord
  2
chain
 70
     0
  3
-------------- -- --------------
 72
    65
 73
     4
 40
18.5
 49
12.0
 74
     0
 49
-1.5
 74
     0
 49
3.5
 74
     0
 49
-1.5
 74
     0
  0
LTYPE
  5
3B
330
5
100
AcDbSymbolTableRecord
100
AcDbLinetypeTableRecord
  2
chain_double_dash
 70
     0
  3
------------ -- -- -------------
 72
    65
 73
     6
 40
23.5
 49
12.0
 74
     0
 49
-1.5
 74
     0
 49
3.5
 74
     0
 49
-1.5
 74
     0
 49
3.5
 74
     0
 49
-1.5
 74
     0
  0
LTYPE
  5
3C
330
5
100
AcDbSymbolTableRecord
100
AcDbLinetypeTableRecord
  2
dashed_dotted
 70
     0
  3
-----------     -     ----------
 72
    65
 73
     4
 40
9.25
 49
6.0
 74
     0
 49
-1.5
 74
     0
 49
0.25
 74
     0
 49
-1.5
 74
     0
  0
LTYPE
  5
3D
330
5
100
AcDbSymbolTableRecord
100
AcDbLinetypeTableRecord
  2
double-dashed_dotted
 70
     0
  3
------   -----------   -   -----
 72
    65
 73
     6
 40
16.75
 49
6.0
 74
     0
 49
-1.5
 74
     0
 49
6.0
 74
     0
 49
-1.5
 74
     0
 49
0.25
 74
     0
 49
-1.5
 74
     0
  0
LTYPE
  5
3E
330
5
100
AcDbSymbolTableRecord
100
AcDbLinetypeTableRecord
  2
dashed_double-dotted
 70
     0
  3
---------    -    -    ---------
 72
    65
 73
     6
 40
11.0
 49
6.0
 74
     0
 49
-1.5
 74
     0
 49
0.25
 74
     0
 49
-1.5
 74
     0
 49
0.25
 74
     0
 49
-1.5
 74
     0
  0
LTYPE
  5
3F
330
5
100
AcDbSymbolTableRecord
100
AcDbLinetypeTableRecord
  2
double-dashed_double-dotted
 70
     0
  3
-----   ---------   -   -   ----
 72
    65
 73
     8
 40
18.5
 49
6.0
 74
     0
 49
-1.5
 74
     0
 49
6.0
 74
     0
 49
-1.5
 74
     0
 49
0.25
 74
     0
 49
-1.5
 74
     0
 49
0.25
 74
     0
 49
-1.5
 74
     0
  0
LTYPE
  5
40
330
5
100
AcDbSymbolTableRecord
100
AcDbLinetypeTableRecord
  2
dashed_triplicate-dotted
 70
     0
  3
-------    -    -    -    ------
 72
    65
 73
     8
 40
12.75
 49
6.0
 74
     0
 49
-1.5
 74
     0
 49
0.25
 74
     0
 49
-1.5
 74
     0
 49
0.25
 74
     0
 49
-1.5
 74
     0
 49
0.25
 74
     0
 49
-1.5
 74
     0
  0
LTYPE
  5
41
330
5
100
AcDbSymbolTableRecord
100
AcDbLinetypeTableRecord
  2
double-dashed_triplicate-dotted
 70
     0
  3
-----  ---------  -  -  -  -----
 72
    65
 73
    10
 40
20.25
 49
6.0
 74
     0
 49
-1.5
 74
     0
 49
6.0
 74
     0
 49
-1.5
 74
     0
 49
0.25
 74
     0
 49
-1.5
 74
     0
 49
0.25
 74
     0
 49
-1.5
 74
     0
 49
0.25
 74
     0
 49
-1.5
 74
     0
  0
LTYPE
  5
42
330
5
100
AcDbSymbolTableRecord
100
AcDbLinetypeTableRecord
  2
undefined
 70
     0
  3
--------------------------------
 72
    65
 73
     0
 40
0.0
  0
ENDTAB
  0
TABLE
  2
LAYER
  5
2
330
0
100
AcDbSymbolTable
 70
     5
  0
LAYER
  5
10
330
2
100
AcDbSymbolTableRecord
100
AcDbLayerTableRecord
  2
0
 70
     0
 62
     7
  6
CONTINUOUS
370
    -3
390
F
347
189
  0
LAYER
  5
45
330
2
100
AcDbSymbolTableRecord
100
AcDbLayerTableRecord
  2
_0-0_FRF74-0716
 70
     0
 62
     7
  6
CONTINUOUS
370
    -3
390
F
347
189
  0
LAYER
  5
46
330
2
100
AcDbSymbolTableRecord
100
AcDbLayerTableRecord
  2
_0-1_
 70
     0
 62
     7
  6
CONTINUOUS
370
    -3
390
F
347
189
  0
LAYER
  5
47
330
2
100
AcDbSymbolTableRecord
100
AcDbLayerTableRecord
  2
_0-2_
 70
     0
 62
     7
  6
CONTINUOUS
370
    -3
390
F
347
189
  0
LAYER
  5
48
330
2
100
AcDbSymbolTableRecord
100
AcDbLayerTableRecord
  2
ADD_LINE
 70
     0
 62
     7
  6
CONTINUOUS
370
    -3
390
F
347
189
  0
ENDTAB
  0
TABLE
  2
STYLE
  5
3
330
0
100
AcDbSymbolTable
 70
     2
  0
STYLE
  5
11
330
3
100
AcDbSymbolTableRecord
100
AcDbTextStyleTableRecord
  2
STANDARD
 70
     0
 40
0.0
 41
1.0
 50
0.0
 71
     0
 42
0.2
  3
txt
  4
bigfont.shx
  0
STYLE
  5
44
330
3
100
AcDbSymbolTableRecord
100
AcDbTextStyleTableRecord
  2
TATEGAKI
 70
     4
 40
0.0
 41
1.0
 50
0.0
 71
     0
 42
1.0
  3
txt
  4
bigfont.shx
  0
ENDTAB
  0
TABLE
  2
VIEW
  5
6
330
0
100
AcDbSymbolTable
 70
     0
  0
ENDTAB
  0
TABLE
  2
UCS
  5
7
330
0
100
AcDbSymbolTable
 70
     0
  0
ENDTAB
  0
TABLE
  2
APPID
  5
9
330
0
100
AcDbSymbolTable
 70
     2
  0
APPID
  5
12
330
9
100
AcDbSymbolTableRecord
100
AcDbRegAppTableRecord
  2
ACAD
 70
     0
  0
APPID
  5
1A1
330
9
100
AcDbSymbolTableRecord
100
AcDbRegAppTableRecord
  2
ACAD_MLEADERVER
 70
     0
  0
ENDTAB
  0
TABLE
  2
DIMSTYLE
  5
A
330
0
100
AcDbSymbolTable
 70
     1
100
AcDbDimStyleTable
  0
DIMSTYLE
105
49
330
A
100
AcDbSymbolTableRecord
100
AcDbDimStyleTableRecord
  2
Standard
 70
     0
178
     0
340
11
  0
ENDTAB
  0
TABLE
  2
BLOCK_RECORD
  5
1
330
0
100
AcDbSymbolTable
 70
     0
  0
BLOCK_RECORD
  5
1D
330
1
100
AcDbSymbolTableRecord
100
AcDbBlockTableRecord
  2
*Model_Space
340
1E
 70
     0
280
     1
281
     0
  0
BLOCK_RECORD
  5
1B
330
1
100
AcDbSymbolTableRecord
100
AcDbBlockTableRecord
  2
*Paper_Space
340
1C
 70
     0
280
     1
281
     0
  0
ENDTAB
  0
ENDSEC
  0
SECTION
  2
BLOCKS
  0
BLOCK
  5
169
330
1D
100
AcDbEntity
  8
0
100
AcDbBlockBegin
  2
*Model_Space
 70
     0
 10
0.0
 20
0.0
 30
0.0
  3
*Model_Space
  1
*Model_Space
  0
ENDBLK
  5
16A
330
1D
100
AcDbEntity
  8
0
100
AcDbBlockEnd
  0
BLOCK
  5
16B
330
1B
100
AcDbEntity
 67
     1
  8
0
100
AcDbBlockBegin
  2
*Paper_Space
 70
     0
 10
0.0
 20
0.0
 30
0.0
  3
*Paper_Space
  1
*Paper_Space
  0
ENDBLK
  5
16C
330
1B
100
AcDbEntity
 67
     1
  8
0
100
AcDbBlockEnd
  0
ENDSEC
  0
SECTION
  2
ENTITIES
  0
LINE
  5
4A
330
1D
100
AcDbEntity
  8
_0-2_
  6
Continuous
 62
     7
100
AcDbLine
 10
2552.566283385414
 20
1056.197953007166
 30
0.0
 11
1577.566283385414
 21
1056.197953007166
 31
0.0
  0
LINE
  5
4B
330
1D
100
AcDbEntity
  8
_0-2_
  6
Continuous
 62
     7
100
AcDbLine
 10
2552.566283385656
 20
2371.197953007166
 30
0.0
 11
1577.566283385655
 21
2371.197953007166
 31
0.0
  0
LINE
  5
4C
330
1D
100
AcDbEntity
  8
_0-2_
  6
Continuous
 62
     7
100
AcDbLine
 10
1577.566283385655
 20
2371.197953007166
 30
0.0
 11
1577.566283385655
 21
971.1979530071658
 31
0.0
  0
LINE
  5
4D
330
1D
100
AcDbEntity
  8
_0-2_
  6
Continuous
 62
     7
100
AcDbLine
 10
1577.566283385655
 20
971.1979530071658
 30
0.0
 11
2552.566283385656
 21
971.1979530071658
 31
0.0
  0
LINE
  5
4E
330
1D
100
AcDbEntity
  8
_0-2_
  6
Continuous
 62
     7
100
AcDbLine
 10
2552.566283385656
 20
971.1979530071658
 30
0.0
 11
2552.566283385656
 21
2371.197953007166
 31
0.0
  0
LINE
  5
4F
330
1D
100
AcDbEntity
  8
_0-2_
  6
Continuous
 62
     7
100
AcDbLine
 10
2552.566283385414
 20
1098.697953007166
 30
0.0
 11
1577.566283385414
 21
1098.697953007166
 31
0.0
  0
LINE
  5
50
330
1D
100
AcDbEntity
  8
_0-2_
  6
Continuous
 62
     7
100
AcDbLine
 10
2552.566283385656
 20
1013.697953007166
 30
0.0
 11
2176.066283385656
 21
1013.697953007166
 31
0.0
  0
LINE
  5
51
330
1D
100
AcDbEntity
  8
_0-2_
  6
Continuous
 62
     7
100
AcDbLine
 10
2427.066283385785
 20
1013.697953007166
 30
0.0
 11
2427.066283385785
 21
1056.197953007166
 31
0.0
  0
LINE
  5
52
330
1D
100
AcDbEntity
  8
_0-2_
  6
Continuous
 62
     7
100
AcDbLine
 10
2301.566283385785
 20
1013.697953007166
 30
0.0
 11
2301.566283385785
 21
1056.197953007166
 31
0.0
  0
LINE
  5
53
330
1D
100
AcDbEntity
  8
_0-2_
  6
Continuous
 62
     7
100
AcDbLine
 10
2176.066283385785
 20
971.1979530071658
 30
0.0
 11
2176.066283385785
 21
1098.697953007166
 31
0.0
  0
TEXT
  5
54
330
1D
100
AcDbEntity
  8
_0-2_
 62
     7
100
AcDbText
 10
2196.338854939712
 20
983.1322123209113
 30
0.0
 40
15.0
  1
大洋金物株式会社 ティーフォルム事業部
100
AcDbText
  0
TEXT
  5
55
330
1D
100
AcDbEntity
  8
_0-2_
 62
     7
100
AcDbText
 10
1582.875082857213
 20
1080.734351150388
 30
0.0
 40
11.0
  1
品名
100
AcDbText
  0
TEXT
  5
56
330
1D
100
AcDbEntity
  8
_0-2_
 62
     7
100
AcDbText
 10
1584.665319036692
 20
1037.17664574019
 30
0.0
 40
11.0
  1
仕様
100
AcDbText
  0
TEXT
  5
57
330
1D
100
AcDbEntity
  8
_0-2_
 62
     7
100
AcDbText
 10
2183.059064265282
 20
1080.131595481458
 30
0.0
 40
11.0
  1
品番
100
AcDbText
  0
TEXT
  5
58
330
1D
100
AcDbEntity
  8
_0-2_
 62
     7
100
AcDbText
 10
2183.056857499237
 20
1037.182349606808
 30
0.0
 40
11.0
  1
重量
100
AcDbText
  0
TEXT
  5
59
330
1D
100
AcDbEntity
  8
_0-2_
 62
     7
100
AcDbText
 10
2308.177616345404
 20
1037.511408413068
 30
0.0
 40
11.0
  1
容量
100
AcDbText
  0
TEXT
  5
5A
330
1D
100
AcDbEntity
  8
_0-2_
 62
     7
100
AcDbText
 10
2433.664603085293
 20
1037.411415320088
 30
0.0
 40
11.0
  1
縮尺
100
AcDbText
  0
TEXT
  5
5B
330
1D
100
AcDbEntity
  8
_0-2_
 62
     7
100
AcDbText
 10
2211.525603406079
 20
1065.334252852228
 30
0.0
 40
15.0
  1
FRF74-0716
100
AcDbText
  0
TEXT
  5
5C
330
1D
100
AcDbEntity
  8
_0-2_
 62
     7
100
AcDbText
 10
1578.147692364951
 20
947.2697085215659
 30
0.0
 40
15.0
  1
120911S
100
AcDbText
  0
LINE
  5
5D
330
1D
100
AcDbEntity
  8
_0-1_
  6
Continuous
 62
     4
100
AcDbLine
 10
2281.443977933079
 20
1866.753182538669
 30
0.0
 11
2281.443977933079
 21
1860.753182538669
 31
0.0
  0
POINT
  5
5E
330
1D
100
AcDbEntity
  8
_0-1_
 62
     7
100
AcDbPoint
 10
2281.443977933079
 20
1866.753182538669
 30
0.0
  0
POINT
  5
5F
330
1D
100
AcDbEntity
  8
_0-1_
 62
     7
100
AcDbPoint
 10
2281.443977933079
 20
1860.753182538669
 30
0.0
  0
LINE
  5
60
330
1D
100
AcDbEntity
  8
_0-1_
  6
Continuous
 62
     4
100
AcDbLine
 10
2281.443977933079
 20
1866.753182538669
 30
0.0
 11
2245.443977933079
 21
1866.753182538669
 31
0.0
  0
LINE
  5
61
330
1D
100
AcDbEntity
  8
_0-1_
  6
Continuous
 62
     4
100
AcDbLine
 10
2281.443977933079
 20
1860.753182538669
 30
0.0
 11
2245.443977933079
 21
1860.753182538669
 31
0.0
  0
LINE
  5
62
330
1D
100
AcDbEntity
  8
_0-1_
  6
Continuous
 62
     4
100
AcDbLine
 10
1631.443977933079
 20
1926.153182538669
 30
0.0
 11
2231.443977933079
 21
1926.153182538669
 31
0.0
  0
POINT
  5
63
330
1D
100
AcDbEntity
  8
_0-1_
 62
     7
100
AcDbPoint
 10
1631.443977933079
 20
1926.153182538669
 30
0.0
  0
POINT
  5
64
330
1D
100
AcDbEntity
  8
_0-1_
 62
     7
100
AcDbPoint
 10
2231.443977933079
 20
1926.153182538669
 30
0.0
  0
LINE
  5
65
330
1D
100
AcDbEntity
  8
_0-1_
  6
Continuous
 62
     4
100
AcDbLine
 10
1631.443977933079
 20
1926.153182538669
 30
0.0
 11
1631.443977933079
 21
1880.753182538669
 31
0.0
  0
LINE
  5
66
330
1D
100
AcDbEntity
  8
_0-1_
  6
Continuous
 62
     4
100
AcDbLine
 10
2231.443977933079
 20
1926.153182538669
 30
0.0
 11
2231.443977933079
 21
1880.753182538669
 31
0.0
  0
TEXT
  5
67
330
1D
100
AcDbEntity
  8
_0-1_
 62
     4
100
AcDbText
 10
1922.068977933079
 20
1928.653182538669
 30
0.0
 40
12.5
  1
600
100
AcDbText
  0
LINE
  5
68
330
1D
100
AcDbEntity
  8
_0-1_
  6
Continuous
 62
     4
100
AcDbLine
 10
2271.443982062936
 20
1640.78400130377
 30
0.0
 11
2271.443982062936
 21
1540.78400130377
 31
0.0
  0
POINT
  5
69
330
1D
100
AcDbEntity
  8
_0-1_
 62
     7
100
AcDbPoint
 10
2271.443982062936
 20
1640.78400130377
 30
0.0
  0
POINT
  5
6A
330
1D
100
AcDbEntity
  8
_0-1_
 62
     7
100
AcDbPoint
 10
2271.443982062936
 20
1540.78400130377
 30
0.0
  0
TEXT
  5
6B
330
1D
100
AcDbEntity
  8
_0-1_
 62
     4
100
AcDbText
 10
2268.943982062936
 20
1581.40900130377
 30
0.0
 40
12.5
  1
100
 50
90.0
100
AcDbText
  0
LINE
  5
6C
330
1D
100
AcDbEntity
  8
_0-1_
  6
Continuous
 62
     4
100
AcDbLine
 10
2271.443982062936
 20
1640.78400130377
 30
0.0
 11
2245.443977933079
 21
1640.78400130377
 31
0.0
  0
LINE
  5
6D
330
1D
100
AcDbEntity
  8
_0-1_
  6
Continuous
 62
     4
100
AcDbLine
 10
2271.443982062936
 20
1540.78400130377
 30
0.0
 11
2245.443977933079
 21
1540.78400130377
 31
0.0
  0
LINE
  5
6E
330
1D
100
AcDbEntity
  8
_0-1_
  6
Continuous
 62
     4
100
AcDbLine
 10
2291.443982062936
 20
1652.784001400972
 30
0.0
 11
2291.443982062936
 21
1540.78400130377
 31
0.0
  0
POINT
  5
6F
330
1D
100
AcDbEntity
  8
_0-1_
 62
     7
100
AcDbPoint
 10
2291.443982062936
 20
1652.784001400972
 30
0.0
  0
POINT
  5
70
330
1D
100
AcDbEntity
  8
_0-1_
 62
     7
100
AcDbPoint
 10
2291.443982062936
 20
1540.78400130377
 30
0.0
  0
LINE
  5
71
330
1D
100
AcDbEntity
  8
_0-1_
  6
Continuous
 62
     4
100
AcDbLine
 10
2291.443982062936
 20
1652.784001400972
 30
0.0
 11
2168.943981466889
 21
1652.784001400972
 31
0.0
  0
LINE
  5
72
330
1D
100
AcDbEntity
  8
_0-1_
  6
Continuous
 62
     4
100
AcDbLine
 10
2291.443982062936
 20
1540.78400130377
 30
0.0
 11
2245.443977933079
 21
1540.78400130377
 31
0.0
  0
TEXT
  5
73
330
1D
100
AcDbEntity
  8
_0-1_
 62
     4
100
AcDbText
 10
2288.943982062936
 20
1587.409001352371
 30
0.0
 40
12.5
  1
112
 50
90.0
100
AcDbText
  0
LINE
  5
74
330
1D
100
AcDbEntity
  8
_0-1_
  6
Continuous
 62
     4
100
AcDbLine
 10
2448.855241557118
 20
1801.153184064667
 30
0.0
 11
2418.855242926162
 21
1801.153184064667
 31
0.0
  0
POINT
  5
75
330
1D
100
AcDbEntity
  8
_0-1_
 62
     7
100
AcDbPoint
 10
2448.855241557118
 20
1801.153184064667
 30
0.0
  0
POINT
  5
76
330
1D
100
AcDbEntity
  8
_0-1_
 62
     7
100
AcDbPoint
 10
2418.855242926162
 20
1801.153184064667
 30
0.0
  0
LINE
  5
77
330
1D
100
AcDbEntity
  8
_0-1_
  6
Continuous
 62
     4
100
AcDbLine
 10
2448.855241557118
 20
1801.153184064667
 30
0.0
 11
2448.855241557118
 21
1836.153184064667
 31
0.0
  0
LINE
  5
78
330
1D
100
AcDbEntity
  8
_0-1_
  6
Continuous
 62
     4
100
AcDbLine
 10
2418.855242926162
 20
1801.153184064667
 30
0.0
 11
2418.855242926162
 21
1836.153184064667
 31
0.0
  0
TEXT
  5
79
330
1D
100
AcDbEntity
  8
_0-1_
 62
     4
100
AcDbText
 10
2427.60524224164
 20
1803.653184064667
 30
0.0
 40
12.5
  1
30
100
AcDbText
  0
LINE
  5
7A
330
1D
100
AcDbEntity
  8
_0-1_
  6
Continuous
 62
     4
100
AcDbLine
 10
2498.855241557118
 20
1876.153182574551
 30
0.0
 11
2498.855241557118
 21
1851.153184064667
 31
0.0
  0
POINT
  5
7B
330
1D
100
AcDbEntity
  8
_0-1_
 62
     7
100
AcDbPoint
 10
2498.855241557118
 20
1876.153182574551
 30
0.0
  0
POINT
  5
7C
330
1D
100
AcDbEntity
  8
_0-1_
 62
     7
100
AcDbPoint
 10
2498.855241557118
 20
1851.153184064667
 30
0.0
  0
LINE
  5
7D
330
1D
100
AcDbEntity
  8
_0-1_
  6
Continuous
 62
     4
100
AcDbLine
 10
2498.855241557118
 20
1876.153182574551
 30
0.0
 11
2463.855241557118
 21
1876.153182574551
 31
0.0
  0
LINE
  5
7E
330
1D
100
AcDbEntity
  8
_0-1_
  6
Continuous
 62
     4
100
AcDbLine
 10
2498.855241557118
 20
1851.153184064667
 30
0.0
 11
2463.855241557118
 21
1851.153184064667
 31
0.0
  0
TEXT
  5
7F
330
1D
100
AcDbEntity
  8
_0-1_
 62
     4
100
AcDbText
 10
2513.855241557118
 20
1857.403183319609
 30
0.0
 40
12.5
  1
25
 50
90.0
100
AcDbText
  0
LINE
  5
80
330
1D
100
AcDbEntity
  8
_0-0_FRF74-0716
  6
Continuous
 62
     7
100
AcDbLine
 10
1631.736871151893
 20
1861.460289319855
 30
0.0
 11
1631.443977933079
 21
1861.753182538669
 31
0.0
  0
LINE
  5
81
330
1D
100
AcDbEntity
  8
_0-0_FRF74-0716
  6
Continuous
 62
     7
100
AcDbLine
 10
1631.443977933079
 20
1861.753182538669
 30
0.0
 11
1631.443977933079
 21
1865.753182538669
 31
0.0
  0
LINE
  5
82
330
1D
100
AcDbEntity
  8
_0-0_FRF74-0716
  6
Continuous
 62
     7
100
AcDbLine
 10
1631.443977933079
 20
1865.753182538669
 30
0.0
 11
1631.736871151893
 21
1866.046075757482
 31
0.0
  0
LINE
  5
83
330
1D
100
AcDbEntity
  8
_0-0_FRF74-0716
  6
Continuous
 62
     7
100
AcDbLine
 10
2230.443977933079
 20
1860.753182538669
 30
0.0
 11
1632.443977933079
 21
1860.753182538669
 31
0.0
  0
LINE
  5
84
330
1D
100
AcDbEntity
  8
_0-0_FRF74-0716
  6
Continuous
 62
     7
100
AcDbLine
 10
1632.443977933079
 20
1860.753182538669
 30
0.0
 11
1631.736871151893
 21
1861.460289319855
 31
0.0
  0
LINE
  5
85
330
1D
100
AcDbEntity
  8
_0-0_FRF74-0716
  6
Continuous
 62
     7
100
AcDbLine
 10
2231.151084714266
 20
1861.460289319855
 30
0.0
 11
2230.443977933079
 21
1860.753182538669
 31
0.0
  0
LINE
  5
86
330
1D
100
AcDbEntity
  8
_0-0_FRF74-0716
  6
Continuous
 62
     7
100
AcDbLine
 10
1632.443977933079
 20
1866.753182538669
 30
0.0
 11
1631.736871151893
 21
1866.046075757482
 31
0.0
  0
LINE
  5
87
330
1D
100
AcDbEntity
  8
_0-0_FRF74-0716
  6
Continuous
 62
     7
100
AcDbLine
 10
1632.443977933079
 20
1866.753182538669
 30
0.0
 11
2230.443977933079
 21
1866.753182538669
 31
0.0
  0
LINE
  5
88
330
1D
100
AcDbEntity
  8
_0-0_FRF74-0716
  6
Continuous
 62
     7
100
AcDbLine
 10
2231.151084714266
 20
1866.046075757482
 30
0.0
 11
2230.443977933079
 21
1866.753182538669
 31
0.0
  0
LINE
  5
89
330
1D
100
AcDbEntity
  8
_0-0_FRF74-0716
  6
Continuous
 62
     7
100
AcDbLine
 10
2231.151084714266
 20
1866.046075757482
 30
0.0
 11
2231.443977933079
 21
1865.753182538669
 31
0.0
  0
LINE
  5
8A
330
1D
100
AcDbEntity
  8
_0-0_FRF74-0716
  6
Continuous
 62
     7
100
AcDbLine
 10
2231.443977933079
 20
1865.753182538669
 30
0.0
 11
2231.443977933079
 21
1861.753182538669
 31
0.0
  0
LINE
  5
8B
330
1D
100
AcDbEntity
  8
_0-0_FRF74-0716
  6
Continuous
 62
     7
100
AcDbLine
 10
2231.443977933079
 20
1861.753182538669
 30
0.0
 11
2231.151084714266
 21
1861.460289319855
 31
0.0
  0
ARC
  5
8C
330
1D
100
AcDbEntity
  8
_0-0_FRF74-0716
  6
Continuous
 62
     7
100
AcDbCircle
 10
2230.443977933079
 20
1541.78400130377
 30
0.0
 40
1.000000000000018
100
AcDbArc
 50
315.0000000000052
 51
359.9999999999999
  0
ARC
  5
8D
330
1D
100
AcDbEntity
  8
_0-0_FRF74-0716
  6
Continuous
 62
     7
100
AcDbCircle
 10
2230.443977933079
 20
1541.78400130377
 30
0.0
 40
1.000000000000028
100
AcDbArc
 50
270.0
 51
315.0000000000052
  0
ARC
  5
8E
330
1D
100
AcDbEntity
  8
_0-0_FRF74-0716
  6
Continuous
 62
     7
100
AcDbCircle
 10
1632.443977933079
 20
1639.784001303769
 30
0.0
 40
1.000000000000157
100
AcDbArc
 50
90.0
 51
135.0000000000026
  0
ARC
  5
8F
330
1D
100
AcDbEntity
  8
_0-0_FRF74-0716
  6
Continuous
 62
     7
100
AcDbCircle
 10
2230.443977933079
 20
1639.784001303769
 30
0.0
 40
1.000000000000199
100
AcDbArc
 50
45.00000000000519
 51
90.0
  0
ARC
  5
90
330
1D
100
AcDbEntity
  8
_0-0_FRF74-0716
  6
Continuous
 62
     7
100
AcDbCircle
 10
2230.443977933079
 20
1639.784001303769
 30
0.0
 40
1.000000000000028
100
AcDbArc
 50
0.0
 51
45.00000000000517
  0
LINE
  5
91
330
1D
100
AcDbEntity
  8
_0-0_FRF74-0716
  6
Continuous
 62
     7
100
AcDbLine
 10
2231.443982062936
 20
1639.784000817964
 30
0.0
 11
2231.443982062936
 21
1541.783997793028
 31
0.0
  0
ARC
  5
92
330
1D
100
AcDbEntity
  8
_0-0_FRF74-0716
  6
Continuous
 62
     7
100
AcDbCircle
 10
1632.443977933079
 20
1639.784001303769
 30
0.0
 40
1.000000000000018
100
AcDbArc
 50
135.0000000000052
 51
180.0
  0
ARC
  5
93
330
1D
100
AcDbEntity
  8
_0-0_FRF74-0716
  6
Continuous
 62
     7
100
AcDbCircle
 10
1632.443977933079
 20
1541.78400130377
 30
0.0
 40
1.000000000000028
100
AcDbArc
 50
180.0
 51
224.9999999999948
  0
LINE
  5
94
330
1D
100
AcDbEntity
  8
_0-0_FRF74-0716
  6
Continuous
 62
     7
100
AcDbLine
 10
1631.443973122239
 20
1541.783997793028
 30
0.0
 11
1631.443973122239
 21
1639.784000817964
 31
0.0
  0
ARC
  5
95
330
1D
100
AcDbEntity
  8
_0-0_FRF74-0716
  6
Continuous
 62
     7
100
AcDbCircle
 10
1632.443977933079
 20
1541.78400130377
 30
0.0
 40
1.000000000000064
100
AcDbArc
 50
224.9999999999974
 51
270.0
  0
LINE
  5
96
330
1D
100
AcDbEntity
  8
_0-0_FRF74-0716
  6
Continuous
 62
     7
100
AcDbLine
 10
2230.443980036378
 20
1540.784003217051
 30
0.0
 11
1632.443990049958
 21
1540.784003217051
 31
0.0
  0
LINE
  5
97
330
1D
100
AcDbEntity
  8
_0-0_FRF74-0716
  6
Continuous
 62
     7
100
AcDbLine
 10
2423.455240699928
 20
1860.553182997744
 30
0.0
 11
2423.655242222827
 21
1860.753182657997
 31
0.0
  0
LINE
  5
98
330
1D
100
AcDbEntity
  8
_0-0_FRF74-0716
  6
Continuous
 62
     7
100
AcDbLine
 10
2430.055240664165
 20
1860.753182657997
 30
0.0
 11
2430.255242187064
 21
1860.553182997744
 31
0.0
  0
LINE
  5
99
330
1D
100
AcDbEntity
  8
_0-0_FRF74-0716
  6
Continuous
 62
     7
100
AcDbLine
 10
2443.802765599918
 20
1850.628208705227
 30
0.0
 11
2443.190392601769
 21
1850.274656304161
 31
0.0
  0
LINE
  5
9A
330
1D
100
AcDbEntity
  8
_0-0_FRF74-0716
  6
Continuous
 62
     7
100
AcDbLine
 10
2443.943432095926
 20
1851.153184064667
 30
0.0
 11
2443.802765599918
 21
1850.628208705227
 31
0.0
  0
LINE
  5
9B
330
1D
100
AcDbEntity
  8
_0-0_FRF74-0716
  6
Continuous
 62
     7
100
AcDbLine
 10
2443.802765599918
 20
1850.628208705227
 30
0.0
 11
2443.760099384468
 21
1850.639641621153
 31
0.0
  0
LINE
  5
9C
330
1D
100
AcDbEntity
  8
_0-0_FRF74-0716
  6
Continuous
 62
     7
100
AcDbLine
 10
2443.760099384468
 20
1850.639641621153
 30
0.0
 11
2443.50434423564
 21
1850.708168336193
 31
0.0
  0
LINE
  5
9D
330
1D
100
AcDbEntity
  8
_0-0_FRF74-0716
  6
Continuous
 62
     7
100
AcDbLine
 10
2443.50434423564
 20
1850.708168336193
 30
0.0
 11
2443.041421968024
 21
1850.832209327261
 31
0.0
  0
LINE
  5
9E
330
1D
100
AcDbEntity
  8
_0-0_FRF74-0716
  6
Continuous
 62
     7
100
AcDbLine
 10
2443.041421968024
 20
1850.832209327261
 30
0.0
 11
2442.416646081489
 21
1850.999616422693
 31
0.0
  0
LINE
  5
9F
330
1D
100
AcDbEntity
  8
_0-0_FRF74-0716
  6
Continuous
 62
     7
100
AcDbLine
 10
2442.416646081489
 20
1850.999616422693
 30
0.0
 11
2441.843534383457
 21
1851.153184064667
 31
0.0
  0
LINE
  5
A0
330
1D
100
AcDbEntity
  8
_0-0_FRF74-0716
  6
Continuous
 62
     7
100
AcDbLine
 10
2439.911682653707
 20
1851.153184064667
 30
0.0
 11
2439.946297119837
 21
1851.143908091824
 31
0.0
  0
LINE
  5
A1
330
1D
100
AcDbEntity
  8
_0-0_FRF74-0716
  6
Continuous
 62
     7
100
AcDbLine
 10
2439.946297119837
 20
1851.143908091824
 30
0.0
 11
2440.51034052996
 21
1850.992773064415
 31
0.0
  0
LINE
  5
A2
330
1D
100
AcDbEntity
  8
_0-0_FRF74-0716
  6
Continuous
 62
     7
100
AcDbLine
 10
2440.51034052996
 20
1850.992773064415
 30
0.0
 11
2441.164627234917
 21
1850.817457177679
 31
0.0
  0
LINE
  5
A3
330
1D
100
AcDbEntity
  8
_0-0_FRF74-0716
  6
Continuous
 62
     7
100
AcDbLine
 10
2441.164627234917
 20
1850.817457177679
 30
0.0
 11
2441.830242547672
 21
1850.63910517935
 31
0.0
  0
LINE
  5
A4
330
1D
100
AcDbEntity
  8
_0-0_FRF74-0716
  6
Continuous
 62
     7
100
AcDbLine
 10
2441.830242547672
 20
1850.63910517935
 30
0.0
 11
2442.42690180568
 21
1850.479230620901
 31
0.0
  0
LINE
  5
A5
330
1D
100
AcDbEntity
  8
_0-0_FRF74-0716
  6
Continuous
 62
     7
100
AcDbLine
 10
2442.42690180568
 20
1850.479230620901
 30
0.0
 11
2442.882638919633
 21
1850.357115604918
 31
0.0
  0
LINE
  5
A6
330
1D
100
AcDbEntity
  8
_0-0_FRF74-0716
  6
Continuous
 62
     7
100
AcDbLine
 10
2442.882638919633
 20
1850.357115604918
 30
0.0
 11
2443.142486299854
 21
1850.287489929239
 31
0.0
  0
LINE
  5
A7
330
1D
100
AcDbEntity
  8
_0-0_FRF74-0716
  6
Continuous
 62
     7
100
AcDbLine
 10
2443.142486299854
 20
1850.287489929239
 30
0.0
 11
2443.190392601769
 21
1850.274656304161
 31
0.0
  0
LINE
  5
A8
330
1D
100
AcDbEntity
  8
_0-0_FRF74-0716
  6
Continuous
 62
     7
100
AcDbLine
 10
2418.855242926162
 20
1851.153184064667
 30
0.0
 11
2448.855241557118
 21
1851.153184064667
 31
0.0
  0
LINE
  5
A9
330
1D
100
AcDbEntity
  8
_0-0_FRF74-0716
  6
Continuous
 62
     7
100
AcDbLine
 10
2448.855241557118
 20
1851.153184064667
 30
0.0
 11
2448.855241557118
 21
1854.15318269376
 31
0.0
  0
LINE
  5
AA
330
1D
100
AcDbEntity
  8
_0-0_FRF74-0716
  6
Continuous
 62
     7
100
AcDbLine
 10
2418.855242926162
 20
1854.15318269376
 30
0.0
 11
2418.855242926162
 21
1851.153184064667
 31
0.0
  0
LINE
  5
AB
330
1D
100
AcDbEntity
  8
_0-0_FRF74-0716
  6
Continuous
 62
     7
100
AcDbLine
 10
2448.855241557118
 20
1876.153182574551
 30
0.0
 11
2418.855242926162
 21
1876.153182574551
 31
0.0
  0
LINE
  5
AC
330
1D
100
AcDbEntity
  8
_0-0_FRF74-0716
  6
Continuous
 62
     7
100
AcDbLine
 10
2418.855242926162
 20
1876.153182574551
 30
0.0
 11
2418.855242926162
 21
1873.153183945458
 31
0.0
  0
LINE
  5
AD
330
1D
100
AcDbEntity
  8
_0-0_FRF74-0716
  6
Continuous
 62
     7
100
AcDbLine
 10
2448.855241557118
 20
1873.153183945458
 30
0.0
 11
2448.855241557118
 21
1876.153182574551
 31
0.0
  0
LINE
  5
AE
330
1D
100
AcDbEntity
  8
_0-0_FRF74-0716
  6
Continuous
 62
     7
100
AcDbLine
 10
2418.855242926162
 20
1873.153183945458
 30
0.0
 11
2418.855242926162
 21
1866.753183641474
 31
0.0
  0
LINE
  5
AF
330
1D
100
AcDbEntity
  8
_0-0_FRF74-0716
  6
Continuous
 62
     7
100
AcDbLine
 10
2436.355241138022
 20
1866.753183641474
 30
0.0
 11
2435.35524097411
 21
1866.753183641474
 31
0.0
  0
LINE
  5
B0
330
1D
100
AcDbEntity
  8
_0-0_FRF74-0716
  6
Continuous
 62
     7
100
AcDbLine
 10
2436.355241138022
 20
1860.553182997744
 30
0.0
 11
2436.355241138022
 21
1861.753180959265
 31
0.0
  0
LINE
  5
B1
330
1D
100
AcDbEntity
  8
_0-0_FRF74-0716
  6
Continuous
 62
     7
100
AcDbLine
 10
2436.355241138022
 20
1865.753181614916
 30
0.0
 11
2436.355241138022
 21
1866.753183641474
 31
0.0
  0
LINE
  5
B2
330
1D
100
AcDbEntity
  8
_0-0_FRF74-0716
  6
Continuous
 62
     7
100
AcDbLine
 10
2418.855242926162
 20
1860.553182997744
 30
0.0
 11
2436.355241138022
 21
1860.553182997744
 31
0.0
  0
LINE
  5
B3
330
1D
100
AcDbEntity
  8
_0-0_FRF74-0716
  6
Continuous
 62
     7
100
AcDbLine
 10
2418.855242926162
 20
1860.553182997744
 30
0.0
 11
2418.855242926162
 21
1854.15318269376
 31
0.0
  0
LINE
  5
B4
330
1D
100
AcDbEntity
  8
_0-0_FRF74-0716
  6
Continuous
 62
     7
100
AcDbLine
 10
2448.855241557118
 20
1873.153183945458
 30
0.0
 11
2448.855241557118
 21
1854.15318269376
 31
0.0
  0
LINE
  5
B5
330
1D
100
AcDbEntity
  8
_0-0_FRF74-0716
  6
Continuous
 62
     7
100
AcDbLine
 10
2436.062348570209
 20
1861.460287460129
 30
0.0
 11
2436.186710867565
 21
1861.584652551453
 31
0.0
  0
LINE
  5
B6
330
1D
100
AcDbEntity
  8
_0-0_FRF74-0716
  6
Continuous
 62
     7
100
AcDbLine
 10
2436.186710867565
 20
1861.584652551453
 30
0.0
 11
2436.279121350031
 21
1861.677062102596
 31
0.0
  0
LINE
  5
B7
330
1D
100
AcDbEntity
  8
_0-0_FRF74-0716
  6
Continuous
 62
     7
100
AcDbLine
 10
2436.279121350031
 20
1861.677062102596
 30
0.0
 11
2436.336027021986
 21
1861.733969637196
 31
0.0
  0
LINE
  5
B8
330
1D
100
AcDbEntity
  8
_0-0_FRF74-0716
  6
Continuous
 62
     7
100
AcDbLine
 10
2436.336027021986
 20
1861.733969637196
 30
0.0
 11
2436.355241138022
 21
1861.753180959265
 31
0.0
  0
LINE
  5
B9
330
1D
100
AcDbEntity
  8
_0-0_FRF74-0716
  6
Continuous
 62
     7
100
AcDbLine
 10
2436.355241138022
 20
1861.753180959265
 30
0.0
 11
2436.355241138022
 21
1865.753181614916
 31
0.0
  0
LINE
  5
BA
330
1D
100
AcDbEntity
  8
_0-0_FRF74-0716
  6
Continuous
 62
     7
100
AcDbLine
 10
2436.355241138022
 20
1865.753181614916
 30
0.0
 11
2436.336027021986
 21
1865.772396662276
 31
0.0
  0
LINE
  5
BB
330
1D
100
AcDbEntity
  8
_0-0_FRF74-0716
  6
Continuous
 62
     7
100
AcDbLine
 10
2436.336027021986
 20
1865.772396662276
 30
0.0
 11
2436.279121350031
 21
1865.829304196875
 31
0.0
  0
LINE
  5
BC
330
1D
100
AcDbEntity
  8
_0-0_FRF74-0716
  6
Continuous
 62
     7
100
AcDbLine
 10
2436.279121350031
 20
1865.829304196875
 30
0.0
 11
2436.186710867565
 21
1865.921713748018
 31
0.0
  0
LINE
  5
BD
330
1D
100
AcDbEntity
  8
_0-0_FRF74-0716
  6
Continuous
 62
     7
100
AcDbLine
 10
2436.186710867565
 20
1865.921713748018
 30
0.0
 11
2436.062348570209
 21
1866.046075114052
 31
0.0
  0
LINE
  5
BE
330
1D
100
AcDbEntity
  8
_0-0_FRF74-0716
  6
Continuous
 62
     7
100
AcDbLine
 10
2337.355237949174
 20
1860.753182657997
 30
0.0
 11
2435.35524097411
 21
1860.753182657997
 31
0.0
  0
LINE
  5
BF
330
1D
100
AcDbEntity
  8
_0-0_FRF74-0716
  6
Continuous
 62
     7
100
AcDbLine
 10
2435.35524097411
 20
1860.753182657997
 30
0.0
 11
2436.062348570209
 21
1861.460287460129
 31
0.0
  0
LINE
  5
C0
330
1D
100
AcDbEntity
  8
_0-0_FRF74-0716
  6
Continuous
 62
     7
100
AcDbLine
 10
2337.355237949174
 20
1860.753182657997
 30
0.0
 11
2336.648133147042
 21
1861.460287460129
 31
0.0
  0
LINE
  5
C1
330
1D
100
AcDbEntity
  8
_0-0_FRF74-0716
  6
Continuous
 62
     7
100
AcDbLine
 10
2435.35524097411
 20
1866.753183641474
 30
0.0
 11
2436.062348570209
 21
1866.046075114052
 31
0.0
  0
LINE
  5
C2
330
1D
100
AcDbEntity
  8
_0-0_FRF74-0716
  6
Continuous
 62
     7
100
AcDbLine
 10
2435.35524097411
 20
1866.753183641474
 30
0.0
 11
2337.355237949174
 21
1866.753183641474
 31
0.0
  0
LINE
  5
C3
330
1D
100
AcDbEntity
  8
_0-0_FRF74-0716
  6
Continuous
 62
     7
100
AcDbLine
 10
2337.355237949174
 20
1866.753183641474
 30
0.0
 11
2336.648133147042
 21
1866.046075114052
 31
0.0
  0
LINE
  5
C4
330
1D
100
AcDbEntity
  8
_0-0_FRF74-0716
  6
Continuous
 62
     7
100
AcDbLine
 10
2336.648133147042
 20
1866.046075114052
 30
0.0
 11
2336.523775506299
 21
1865.921713748018
 31
0.0
  0
LINE
  5
C5
330
1D
100
AcDbEntity
  8
_0-0_FRF74-0716
  6
Continuous
 62
     7
100
AcDbLine
 10
2336.523775506299
 20
1865.921713748018
 30
0.0
 11
2336.431358504575
 21
1865.829304196875
 31
0.0
  0
LINE
  5
C6
330
1D
100
AcDbEntity
  8
_0-0_FRF74-0716
  6
Continuous
 62
     7
100
AcDbLine
 10
2336.431358504575
 20
1865.829304196875
 30
0.0
 11
2336.374458420556
 21
1865.772396662276
 31
0.0
  0
LINE
  5
C7
330
1D
100
AcDbEntity
  8
_0-0_FRF74-0716
  6
Continuous
 62
     7
100
AcDbLine
 10
2336.374458420556
 20
1865.772396662276
 30
0.0
 11
2336.355243373197
 21
1865.753181614916
 31
0.0
  0
LINE
  5
C8
330
1D
100
AcDbEntity
  8
_0-0_FRF74-0716
  6
Continuous
 62
     7
100
AcDbLine
 10
2336.355243373197
 20
1865.753181614916
 30
0.0
 11
2336.355243373197
 21
1861.753180959265
 31
0.0
  0
LINE
  5
C9
330
1D
100
AcDbEntity
  8
_0-0_FRF74-0716
  6
Continuous
 62
     7
100
AcDbLine
 10
2336.355243373197
 20
1861.753180959265
 30
0.0
 11
2336.374458420556
 21
1861.733969637196
 31
0.0
  0
LINE
  5
CA
330
1D
100
AcDbEntity
  8
_0-0_FRF74-0716
  6
Continuous
 62
     7
100
AcDbLine
 10
2336.374458420556
 20
1861.733969637196
 30
0.0
 11
2336.431358504575
 21
1861.677062102596
 31
0.0
  0
LINE
  5
CB
330
1D
100
AcDbEntity
  8
_0-0_FRF74-0716
  6
Continuous
 62
     7
100
AcDbLine
 10
2336.431358504575
 20
1861.677062102596
 30
0.0
 11
2336.523775506299
 21
1861.584652551453
 31
0.0
  0
LINE
  5
CC
330
1D
100
AcDbEntity
  8
_0-0_FRF74-0716
  6
Continuous
 62
     7
100
AcDbLine
 10
2336.523775506299
 20
1861.584652551453
 30
0.0
 11
2336.648133147042
 21
1861.460287460129
 31
0.0
  0
TEXT
  5
CD
330
1D
100
AcDbEntity
  8
_0-2_
 62
     7
100
AcDbText
 10
1614.694336459675
 20
1066.331784865422
 30
0.0
 40
15.0
  1
シェルフ　-LANGBERGER,Vico-
100
AcDbText
  0
TEXT
  5
CE
330
1D
100
AcDbEntity
  8
_0-0_FRF74-0716
 62
     7
100
AcDbText
 10
1611.988866704703
 20
1018.282252378839
 30
0.0
 40
15.0
  1
シェルフ：フロストガラス
100
AcDbText
  0
TEXT
  5
CF
330
1D
100
AcDbEntity
  8
_0-0_FRF74-0716
 62
     7
100
AcDbText
 10
1611.988866704703
 20
993.2822523788394
 30
0.0
 40
15.0
  1
ブラケット：クローム
100
AcDbText
  0
LINE
  5
D0
330
1D
100
AcDbEntity
  8
_0-0_FRF74-0716
  6
Continuous
 62
     7
100
AcDbLine
 10
1709.843977933079
 20
1860.553182538669
 30
0.0
 11
1709.643977933079
 21
1860.753182538669
 31
0.0
  0
LINE
  5
D1
330
1D
100
AcDbEntity
  8
_0-0_FRF74-0716
  6
Continuous
 62
     7
100
AcDbLine
 10
1703.243977933079
 20
1860.753182538669
 30
0.0
 11
1703.04397793308
 21
1860.553182538669
 31
0.0
  0
LINE
  5
D2
330
1D
100
AcDbEntity
  8
_0-0_FRF74-0716
  6
Continuous
 62
     7
100
AcDbLine
 10
1704.035395323074
 20
1851.101879952615
 30
0.0
 11
1704.517111845075
 21
1850.653592216531
 31
0.0
  0
LINE
  5
D3
330
1D
100
AcDbEntity
  8
_0-0_FRF74-0716
  6
Continuous
 62
     7
100
AcDbLine
 10
1708.370844021084
 20
1850.653592216531
 30
0.0
 11
1708.852560543085
 21
1851.101879952615
 31
0.0
  0
LINE
  5
D4
330
1D
100
AcDbEntity
  8
_0-0_FRF74-0716
  6
Continuous
 62
     7
100
AcDbLine
 10
1704.035395323074
 20
1851.101879952615
 30
0.0
 11
1703.988872731311
 21
1851.153182538669
 31
0.0
  0
LINE
  5
D5
330
1D
100
AcDbEntity
  8
_0-0_FRF74-0716
  6
Continuous
 62
     7
100
AcDbLine
 10
1708.899083134847
 20
1851.153182538669
 30
0.0
 11
1708.852560543085
 21
1851.101879952615
 31
0.0
  0
LINE
  5
D6
330
1D
100
AcDbEntity
  8
_0-0_FRF74-0716
  6
Continuous
 62
     7
100
AcDbLine
 10
1706.695114125473
 20
1850.278751938489
 30
0.0
 11
1707.358594869732
 21
1850.331953158475
 31
0.0
  0
LINE
  5
D7
330
1D
100
AcDbEntity
  8
_0-0_FRF74-0716
  6
Continuous
 62
     7
100
AcDbLine
 10
1707.358594869732
 20
1850.331953158475
 30
0.0
 11
1707.911759313122
 21
1850.440678148167
 31
0.0
  0
LINE
  5
D8
330
1D
100
AcDbEntity
  8
_0-0_FRF74-0716
  6
Continuous
 62
     7
100
AcDbLine
 10
1707.911759313122
 20
1850.440678148167
 30
0.0
 11
1708.287887659934
 21
1850.5918130692
 31
0.0
  0
LINE
  5
D9
330
1D
100
AcDbEntity
  8
_0-0_FRF74-0716
  6
Continuous
 62
     7
100
AcDbLine
 10
1708.287887659934
 20
1850.5918130692
 30
0.0
 11
1708.441613280477
 21
1850.767128819582
 31
0.0
  0
LINE
  5
DA
330
1D
100
AcDbEntity
  8
_0-0_FRF74-0716
  6
Continuous
 62
     7
100
AcDbLine
 10
1708.441613280477
 20
1850.767128819582
 30
0.0
 11
1708.354394596167
 21
1850.945479732433
 31
0.0
  0
LINE
  5
DB
330
1D
100
AcDbEntity
  8
_0-0_FRF74-0716
  6
Continuous
 62
     7
100
AcDbLine
 10
1708.354394596167
 20
1850.945479732433
 30
0.0
 11
1708.036751467541
 21
1851.105354055484
 31
0.0
  0
LINE
  5
DC
330
1D
100
AcDbEntity
  8
_0-0_FRF74-0716
  6
Continuous
 62
     7
100
AcDbLine
 10
1708.036751467541
 20
1851.105354055484
 30
0.0
 11
1707.877760065876
 21
1851.153182538669
 31
0.0
  0
LINE
  5
DD
330
1D
100
AcDbEntity
  8
_0-0_FRF74-0716
  6
Continuous
 62
     7
100
AcDbLine
 10
1705.010195800283
 20
1851.153182538669
 30
0.0
 11
1704.976196553036
 21
1851.14390770138
 31
0.0
  0
LINE
  5
DE
330
1D
100
AcDbEntity
  8
_0-0_FRF74-0716
  6
Continuous
 62
     7
100
AcDbLine
 10
1704.976196553036
 20
1851.14390770138
 30
0.0
 11
1704.600068206225
 21
1850.992772780347
 31
0.0
  0
LINE
  5
DF
330
1D
100
AcDbEntity
  8
_0-0_FRF74-0716
  6
Continuous
 62
     7
100
AcDbLine
 10
1704.600068206225
 20
1850.992772780347
 30
0.0
 11
1704.446342585681
 21
1850.817457029965
 31
0.0
  0
LINE
  5
E0
330
1D
100
AcDbEntity
  8
_0-0_FRF74-0716
  6
Continuous
 62
     7
100
AcDbLine
 10
1704.446342585681
 20
1850.817457029965
 30
0.0
 11
1704.533561269992
 21
1850.639106117114
 31
0.0
  0
LINE
  5
E1
330
1D
100
AcDbEntity
  8
_0-0_FRF74-0716
  6
Continuous
 62
     7
100
AcDbLine
 10
1704.533561269992
 20
1850.639106117114
 30
0.0
 11
1704.851204398618
 21
1850.479231794063
 31
0.0
  0
LINE
  5
E2
330
1D
100
AcDbEntity
  8
_0-0_FRF74-0716
  6
Continuous
 62
     7
100
AcDbLine
 10
1704.851204398618
 20
1850.479231794063
 30
0.0
 11
1705.360959522334
 21
1850.357117263666
 31
0.0
  0
LINE
  5
E3
330
1D
100
AcDbEntity
  8
_0-0_FRF74-0716
  6
Continuous
 62
     7
100
AcDbLine
 10
1705.360959522334
 20
1850.357117263666
 30
0.0
 11
1706.001342650035
 21
1850.287491340507
 31
0.0
  0
LINE
  5
E4
330
1D
100
AcDbEntity
  8
_0-0_FRF74-0716
  6
Continuous
 62
     7
100
AcDbLine
 10
1706.001342650035
 20
1850.287491340507
 30
0.0
 11
1706.695114125473
 21
1850.278751938489
 31
0.0
  0
LINE
  5
E5
330
1D
100
AcDbEntity
  8
_0-0_FRF74-0716
  6
Continuous
 62
     7
100
AcDbLine
 10
1705.113250711628
 20
1850.936976798002
 30
0.0
 11
1705.29449264698
 21
1850.566360514663
 31
0.0
  0
LINE
  5
E6
330
1D
100
AcDbEntity
  8
_0-0_FRF74-0716
  6
Continuous
 62
     7
100
AcDbLine
 10
1705.29449264698
 20
1850.566360514663
 30
0.0
 11
1706.625219868431
 21
1850.421676641435
 31
0.0
  0
LINE
  5
E7
330
1D
100
AcDbEntity
  8
_0-0_FRF74-0716
  6
Continuous
 62
     7
100
AcDbLine
 10
1706.625219868431
 20
1850.421676641435
 30
0.0
 11
1707.77470515453
 21
1850.647609051545
 31
0.0
  0
LINE
  5
E8
330
1D
100
AcDbEntity
  8
_0-0_FRF74-0716
  6
Continuous
 62
     7
100
AcDbLine
 10
1707.77470515453
 20
1850.647609051545
 30
0.0
 11
1707.593463219179
 21
1851.018225334884
 31
0.0
  0
LINE
  5
E9
330
1D
100
AcDbEntity
  8
_0-0_FRF74-0716
  6
Continuous
 62
     7
100
AcDbLine
 10
1707.593463219179
 20
1851.018225334884
 30
0.0
 11
1706.352196858252
 21
1851.153182538669
 31
0.0
  0
LINE
  5
EA
330
1D
100
AcDbEntity
  8
_0-0_FRF74-0716
  6
Continuous
 62
     7
100
AcDbLine
 10
1706.213249235722
 20
1851.153182538669
 30
0.0
 11
1705.113250711628
 21
1850.936976798002
 31
0.0
  0
LINE
  5
EB
330
1D
100
AcDbEntity
  8
_0-0_FRF74-0716
  6
Continuous
 62
     7
100
AcDbLine
 10
1705.29449264698
 20
1850.972600070229
 30
0.0
 11
1705.29449264698
 21
1850.566360514663
 31
0.0
  0
LINE
  5
EC
330
1D
100
AcDbEntity
  8
_0-0_FRF74-0716
  6
Continuous
 62
     7
100
AcDbLine
 10
1706.625219868431
 20
1851.123497997798
 30
0.0
 11
1706.625219868431
 21
1850.421676641435
 31
0.0
  0
ARC
  5
ED
330
1D
100
AcDbEntity
  8
_0-0_FRF74-0716
  6
Continuous
 62
     7
100
AcDbCircle
 10
1725.943977933079
 20
1854.153182538669
 30
0.0
 40
3.000000000000085
100
AcDbArc
 50
270.0
 51
0.0
  0
LINE
  5
EE
330
1D
100
AcDbEntity
  8
_0-0_FRF74-0716
  6
Continuous
 62
     7
100
AcDbLine
 10
1686.943977933079
 20
1851.153182538669
 30
0.0
 11
1725.943977933079
 21
1851.153182538669
 31
0.0
  0
ARC
  5
EF
330
1D
100
AcDbEntity
  8
_0-0_FRF74-0716
  6
Continuous
 62
     7
100
AcDbCircle
 10
1686.943977933079
 20
1854.153182538669
 30
0.0
 40
3.000000000000085
100
AcDbArc
 50
180.0
 51
270.0000000000013
  0
LINE
  5
F0
330
1D
100
AcDbEntity
  8
_0-0_FRF74-0716
  6
Continuous
 62
     7
100
AcDbLine
 10
1683.943977933079
 20
1860.553182538669
 30
0.0
 11
1683.943977933079
 21
1854.153182538669
 31
0.0
  0
LINE
  5
F1
330
1D
100
AcDbEntity
  8
_0-0_FRF74-0716
  6
Continuous
 62
     7
100
AcDbLine
 10
1683.943977933079
 20
1860.553182538669
 30
0.0
 11
1728.943977933079
 21
1860.553182538669
 31
0.0
  0
LINE
  5
F2
330
1D
100
AcDbEntity
  8
_0-0_FRF74-0716
  6
Continuous
 62
     7
100
AcDbLine
 10
1728.943977933079
 20
1854.153182538669
 30
0.0
 11
1728.943977933079
 21
1860.553182538669
 31
0.0
  0
ARC
  5
F3
330
1D
100
AcDbEntity
  8
_0-0_FRF74-0716
  6
Continuous
 62
     7
100
AcDbCircle
 10
1686.943977933079
 20
1873.153182538669
 30
0.0
 40
3.000000000000085
100
AcDbArc
 50
90.0
 51
180.0
  0
LINE
  5
F4
330
1D
100
AcDbEntity
  8
_0-0_FRF74-0716
  6
Continuous
 62
     7
100
AcDbLine
 10
1725.943977933079
 20
1876.153182538669
 30
0.0
 11
1686.943977933079
 21
1876.153182538669
 31
0.0
  0
ARC
  5
F5
330
1D
100
AcDbEntity
  8
_0-0_FRF74-0716
  6
Continuous
 62
     7
100
AcDbCircle
 10
1725.943977933079
 20
1873.153182538669
 30
0.0
 40
3.000000000000085
100
AcDbArc
 50
0.0
 51
90.0
  0
LINE
  5
F6
330
1D
100
AcDbEntity
  8
_0-0_FRF74-0716
  6
Continuous
 62
     7
100
AcDbLine
 10
1683.943977933079
 20
1873.153182538669
 30
0.0
 11
1683.943977933079
 21
1866.753182538669
 31
0.0
  0
LINE
  5
F7
330
1D
100
AcDbEntity
  8
_0-0_FRF74-0716
  6
Continuous
 62
     7
100
AcDbLine
 10
1728.943977933079
 20
1866.753182538669
 30
0.0
 11
1728.943977933079
 21
1873.153182538669
 31
0.0
  0
LINE
  5
F8
330
1D
100
AcDbEntity
  8
_0-0_FRF74-0716
  6
Continuous
 62
     7
100
AcDbLine
 10
1683.943977933079
 20
1860.553182538669
 30
0.0
 11
1683.943977933079
 21
1860.753182538669
 31
0.0
  0
LINE
  5
F9
330
1D
100
AcDbEntity
  8
_0-0_FRF74-0716
  6
Continuous
 62
     7
100
AcDbLine
 10
1728.943977933079
 20
1860.753182538669
 30
0.0
 11
1728.943977933079
 21
1860.553182538669
 31
0.0
  0
LINE
  5
FA
330
1D
100
AcDbEntity
  8
_0-0_FRF74-0716
  6
Continuous
 62
     7
100
AcDbLine
 10
1728.943975506425
 20
1623.284002770016
 30
0.0
 11
1725.943984327912
 21
1623.284002770016
 31
0.0
  0
LINE
  5
FB
330
1D
100
AcDbEntity
  8
_0-0_FRF74-0716
  6
Continuous
 62
     7
100
AcDbLine
 10
1725.943984327912
 20
1623.284002770016
 30
0.0
 11
1686.943979797959
 21
1623.284002770016
 31
0.0
  0
LINE
  5
FC
330
1D
100
AcDbEntity
  8
_0-0_FRF74-0716
  6
Continuous
 62
     7
100
AcDbLine
 10
1686.943979797959
 20
1623.284002770016
 30
0.0
 11
1683.943988619447
 21
1623.284002770016
 31
0.0
  0
LINE
  5
FD
330
1D
100
AcDbEntity
  8
_0-0_FRF74-0716
  6
Continuous
 62
     7
100
AcDbLine
 10
1725.943984327912
 20
1652.784001400972
 30
0.0
 11
1728.943975506425
 21
1652.784001400972
 31
0.0
  0
LINE
  5
FE
330
1D
100
AcDbEntity
  8
_0-0_FRF74-0716
  6
Continuous
 62
     7
100
AcDbLine
 10
1725.943984327912
 20
1652.784001400972
 30
0.0
 11
1686.943979797959
 21
1652.784001400972
 31
0.0
  0
LINE
  5
FF
330
1D
100
AcDbEntity
  8
_0-0_FRF74-0716
  6
Continuous
 62
     7
100
AcDbLine
 10
1683.943988619447
 20
1652.784001400972
 30
0.0
 11
1686.943979797959
 21
1652.784001400972
 31
0.0
  0
LINE
  5
100
330
1D
100
AcDbEntity
  8
_0-0_FRF74-0716
  6
Continuous
 62
     7
100
AcDbLine
 10
1683.943988619447
 20
1623.284002770016
 30
0.0
 11
1683.943988619447
 21
1652.784001400972
 31
0.0
  0
LINE
  5
101
330
1D
100
AcDbEntity
  8
_0-0_FRF74-0716
  6
Continuous
 62
     7
100
AcDbLine
 10
1728.943975506425
 20
1652.784001400972
 30
0.0
 11
1728.943975506425
 21
1623.284002770016
 31
0.0
  0
LINE
  5
102
330
1D
100
AcDbEntity
  8
_0-1_
  6
Continuous
 62
     4
100
AcDbLine
 10
2133.94397967875
 20
1702.784001400972
 30
0.0
 11
2178.943981466889
 21
1702.784001400972
 31
0.0
  0
POINT
  5
103
330
1D
100
AcDbEntity
  8
_0-1_
 62
     7
100
AcDbPoint
 10
2133.94397967875
 20
1702.784001400972
 30
0.0
  0
POINT
  5
104
330
1D
100
AcDbEntity
  8
_0-1_
 62
     7
100
AcDbPoint
 10
2178.943981466889
 20
1702.784001400972
 30
0.0
  0
LINE
  5
105
330
1D
100
AcDbEntity
  8
_0-1_
  6
Continuous
 62
     4
100
AcDbLine
 10
2133.94397967875
 20
1702.784001400972
 30
0.0
 11
2133.94397967875
 21
1667.784001400972
 31
0.0
  0
LINE
  5
106
330
1D
100
AcDbEntity
  8
_0-1_
  6
Continuous
 62
     4
100
AcDbLine
 10
2178.943981466889
 20
1702.784001400972
 30
0.0
 11
2178.943981466889
 21
1667.784001400972
 31
0.0
  0
LINE
  5
107
330
1D
100
AcDbEntity
  8
_0-0_FRF74-0716
  6
Continuous
 62
     7
100
AcDbLine
 10
2159.843977933079
 20
1860.553182538669
 30
0.0
 11
2159.643977933079
 21
1860.753182538669
 31
0.0
  0
LINE
  5
108
330
1D
100
AcDbEntity
  8
_0-0_FRF74-0716
  6
Continuous
 62
     7
100
AcDbLine
 10
2153.243977933079
 20
1860.753182538669
 30
0.0
 11
2153.043977933079
 21
1860.553182538669
 31
0.0
  0
LINE
  5
109
330
1D
100
AcDbEntity
  8
_0-0_FRF74-0716
  6
Continuous
 62
     7
100
AcDbLine
 10
2154.035395323073
 20
1851.101879952615
 30
0.0
 11
2154.517111845075
 21
1850.653592216531
 31
0.0
  0
LINE
  5
10A
330
1D
100
AcDbEntity
  8
_0-0_FRF74-0716
  6
Continuous
 62
     7
100
AcDbLine
 10
2158.370844021084
 20
1850.653592216531
 30
0.0
 11
2158.852560543085
 21
1851.101879952615
 31
0.0
  0
LINE
  5
10B
330
1D
100
AcDbEntity
  8
_0-0_FRF74-0716
  6
Continuous
 62
     7
100
AcDbLine
 10
2154.035395323073
 20
1851.101879952615
 30
0.0
 11
2153.988872731311
 21
1851.153182538669
 31
0.0
  0
LINE
  5
10C
330
1D
100
AcDbEntity
  8
_0-0_FRF74-0716
  6
Continuous
 62
     7
100
AcDbLine
 10
2158.899083134847
 20
1851.153182538669
 30
0.0
 11
2158.852560543085
 21
1851.101879952615
 31
0.0
  0
LINE
  5
10D
330
1D
100
AcDbEntity
  8
_0-0_FRF74-0716
  6
Continuous
 62
     7
100
AcDbLine
 10
2156.695114125473
 20
1850.278751938489
 30
0.0
 11
2157.358594869732
 21
1850.331953158475
 31
0.0
  0
LINE
  5
10E
330
1D
100
AcDbEntity
  8
_0-0_FRF74-0716
  6
Continuous
 62
     7
100
AcDbLine
 10
2157.358594869732
 20
1850.331953158475
 30
0.0
 11
2157.911759313123
 21
1850.440678148167
 31
0.0
  0
LINE
  5
10F
330
1D
100
AcDbEntity
  8
_0-0_FRF74-0716
  6
Continuous
 62
     7
100
AcDbLine
 10
2157.911759313123
 20
1850.440678148167
 30
0.0
 11
2158.287887659934
 21
1850.5918130692
 31
0.0
  0
LINE
  5
110
330
1D
100
AcDbEntity
  8
_0-0_FRF74-0716
  6
Continuous
 62
     7
100
AcDbLine
 10
2158.287887659934
 20
1850.5918130692
 30
0.0
 11
2158.441613280477
 21
1850.767128819582
 31
0.0
  0
LINE
  5
111
330
1D
100
AcDbEntity
  8
_0-0_FRF74-0716
  6
Continuous
 62
     7
100
AcDbLine
 10
2158.441613280477
 20
1850.767128819582
 30
0.0
 11
2158.354394596167
 21
1850.945479732433
 31
0.0
  0
LINE
  5
112
330
1D
100
AcDbEntity
  8
_0-0_FRF74-0716
  6
Continuous
 62
     7
100
AcDbLine
 10
2158.354394596167
 20
1850.945479732433
 30
0.0
 11
2158.036751467541
 21
1851.105354055484
 31
0.0
  0
LINE
  5
113
330
1D
100
AcDbEntity
  8
_0-0_FRF74-0716
  6
Continuous
 62
     7
100
AcDbLine
 10
2158.036751467541
 20
1851.105354055484
 30
0.0
 11
2157.877760065876
 21
1851.153182538669
 31
0.0
  0
LINE
  5
114
330
1D
100
AcDbEntity
  8
_0-0_FRF74-0716
  6
Continuous
 62
     7
100
AcDbLine
 10
2155.010195800283
 20
1851.153182538669
 30
0.0
 11
2154.976196553036
 21
1851.14390770138
 31
0.0
  0
LINE
  5
115
330
1D
100
AcDbEntity
  8
_0-0_FRF74-0716
  6
Continuous
 62
     7
100
AcDbLine
 10
2154.976196553036
 20
1851.14390770138
 30
0.0
 11
2154.600068206224
 21
1850.992772780347
 31
0.0
  0
LINE
  5
116
330
1D
100
AcDbEntity
  8
_0-0_FRF74-0716
  6
Continuous
 62
     7
100
AcDbLine
 10
2154.600068206224
 20
1850.992772780347
 30
0.0
 11
2154.446342585681
 21
1850.817457029965
 31
0.0
  0
LINE
  5
117
330
1D
100
AcDbEntity
  8
_0-0_FRF74-0716
  6
Continuous
 62
     7
100
AcDbLine
 10
2154.446342585681
 20
1850.817457029965
 30
0.0
 11
2154.533561269992
 21
1850.639106117114
 31
0.0
  0
LINE
  5
118
330
1D
100
AcDbEntity
  8
_0-0_FRF74-0716
  6
Continuous
 62
     7
100
AcDbLine
 10
2154.533561269992
 20
1850.639106117114
 30
0.0
 11
2154.851204398618
 21
1850.479231794063
 31
0.0
  0
LINE
  5
119
330
1D
100
AcDbEntity
  8
_0-0_FRF74-0716
  6
Continuous
 62
     7
100
AcDbLine
 10
2154.851204398618
 20
1850.479231794063
 30
0.0
 11
2155.360959522334
 21
1850.357117263666
 31
0.0
  0
LINE
  5
11A
330
1D
100
AcDbEntity
  8
_0-0_FRF74-0716
  6
Continuous
 62
     7
100
AcDbLine
 10
2155.360959522334
 20
1850.357117263666
 30
0.0
 11
2156.001342650035
 21
1850.287491340507
 31
0.0
  0
LINE
  5
11B
330
1D
100
AcDbEntity
  8
_0-0_FRF74-0716
  6
Continuous
 62
     7
100
AcDbLine
 10
2156.001342650035
 20
1850.287491340507
 30
0.0
 11
2156.695114125473
 21
1850.278751938489
 31
0.0
  0
LINE
  5
11C
330
1D
100
AcDbEntity
  8
_0-0_FRF74-0716
  6
Continuous
 62
     7
100
AcDbLine
 10
2155.113250711628
 20
1850.936976798002
 30
0.0
 11
2155.29449264698
 21
1850.566360514663
 31
0.0
  0
LINE
  5
11D
330
1D
100
AcDbEntity
  8
_0-0_FRF74-0716
  6
Continuous
 62
     7
100
AcDbLine
 10
2155.29449264698
 20
1850.566360514663
 30
0.0
 11
2156.625219868431
 21
1850.421676641435
 31
0.0
  0
LINE
  5
11E
330
1D
100
AcDbEntity
  8
_0-0_FRF74-0716
  6
Continuous
 62
     7
100
AcDbLine
 10
2156.625219868431
 20
1850.421676641435
 30
0.0
 11
2157.77470515453
 21
1850.647609051545
 31
0.0
  0
LINE
  5
11F
330
1D
100
AcDbEntity
  8
_0-0_FRF74-0716
  6
Continuous
 62
     7
100
AcDbLine
 10
2157.77470515453
 20
1850.647609051545
 30
0.0
 11
2157.593463219178
 21
1851.018225334884
 31
0.0
  0
LINE
  5
120
330
1D
100
AcDbEntity
  8
_0-0_FRF74-0716
  6
Continuous
 62
     7
100
AcDbLine
 10
2157.593463219178
 20
1851.018225334884
 30
0.0
 11
2156.352196858252
 21
1851.153182538669
 31
0.0
  0
LINE
  5
121
330
1D
100
AcDbEntity
  8
_0-0_FRF74-0716
  6
Continuous
 62
     7
100
AcDbLine
 10
2156.213249235722
 20
1851.153182538669
 30
0.0
 11
2155.113250711628
 21
1850.936976798002
 31
0.0
  0
LINE
  5
122
330
1D
100
AcDbEntity
  8
_0-0_FRF74-0716
  6
Continuous
 62
     7
100
AcDbLine
 10
2155.29449264698
 20
1850.972600070229
 30
0.0
 11
2155.29449264698
 21
1850.566360514663
 31
0.0
  0
LINE
  5
123
330
1D
100
AcDbEntity
  8
_0-0_FRF74-0716
  6
Continuous
 62
     7
100
AcDbLine
 10
2156.625219868431
 20
1851.123497997798
 30
0.0
 11
2156.625219868431
 21
1850.421676641435
 31
0.0
  0
LINE
  5
124
330
1D
100
AcDbEntity
  8
_0-0_FRF74-0716
  6
Continuous
 62
     7
100
AcDbLine
 10
2133.943977933079
 20
1873.153182538669
 30
0.0
 11
2133.943977933079
 21
1866.753182538669
 31
0.0
  0
ARC
  5
125
330
1D
100
AcDbEntity
  8
_0-0_FRF74-0716
  6
Continuous
 62
     7
100
AcDbCircle
 10
2136.943977933079
 20
1873.153182538669
 30
0.0
 40
3.000000000000085
100
AcDbArc
 50
90.0
 51
180.0
  0
ARC
  5
126
330
1D
100
AcDbEntity
  8
_0-0_FRF74-0716
  6
Continuous
 62
     7
100
AcDbCircle
 10
2175.943977933079
 20
1873.153182538669
 30
0.0
 40
3.000000000000085
100
AcDbArc
 50
0.0
 51
90.0
  0
LINE
  5
127
330
1D
100
AcDbEntity
  8
_0-0_FRF74-0716
  6
Continuous
 62
     7
100
AcDbLine
 10
2178.943977933079
 20
1866.753182538669
 30
0.0
 11
2178.943977933079
 21
1873.153182538669
 31
0.0
  0
LINE
  5
128
330
1D
100
AcDbEntity
  8
_0-0_FRF74-0716
  6
Continuous
 62
     7
100
AcDbLine
 10
2175.943977933079
 20
1876.153182538669
 30
0.0
 11
2136.943977933079
 21
1876.153182538669
 31
0.0
  0
ARC
  5
129
330
1D
100
AcDbEntity
  8
_0-0_FRF74-0716
  6
Continuous
 62
     7
100
AcDbCircle
 10
2175.943977933079
 20
1854.153182538669
 30
0.0
 40
3.000000000000085
100
AcDbArc
 50
270.0
 51
0.0
  0
ARC
  5
12A
330
1D
100
AcDbEntity
  8
_0-0_FRF74-0716
  6
Continuous
 62
     7
100
AcDbCircle
 10
2136.943977933079
 20
1854.153182538669
 30
0.0
 40
3.000000000000085
100
AcDbArc
 50
180.0
 51
270.0
  0
LINE
  5
12B
330
1D
100
AcDbEntity
  8
_0-0_FRF74-0716
  6
Continuous
 62
     7
100
AcDbLine
 10
2133.943977933079
 20
1860.553182538669
 30
0.0
 11
2133.943977933079
 21
1854.153182538669
 31
0.0
  0
LINE
  5
12C
330
1D
100
AcDbEntity
  8
_0-0_FRF74-0716
  6
Continuous
 62
     7
100
AcDbLine
 10
2133.943977933079
 20
1860.553182538669
 30
0.0
 11
2178.943977933079
 21
1860.553182538669
 31
0.0
  0
LINE
  5
12D
330
1D
100
AcDbEntity
  8
_0-0_FRF74-0716
  6
Continuous
 62
     7
100
AcDbLine
 10
2178.943977933079
 20
1854.153182538669
 30
0.0
 11
2178.943977933079
 21
1860.553182538669
 31
0.0
  0
LINE
  5
12E
330
1D
100
AcDbEntity
  8
_0-0_FRF74-0716
  6
Continuous
 62
     7
100
AcDbLine
 10
2136.943977933079
 20
1851.153182538669
 30
0.0
 11
2175.943977933079
 21
1851.153182538669
 31
0.0
  0
LINE
  5
12F
330
1D
100
AcDbEntity
  8
_0-0_FRF74-0716
  6
Continuous
 62
     7
100
AcDbLine
 10
2133.943977933079
 20
1860.553182538669
 30
0.0
 11
2133.943977933079
 21
1860.753182538669
 31
0.0
  0
LINE
  5
130
330
1D
100
AcDbEntity
  8
_0-0_FRF74-0716
  6
Continuous
 62
     7
100
AcDbLine
 10
2178.943977933079
 20
1860.753182538669
 30
0.0
 11
2178.943977933079
 21
1860.553182538669
 31
0.0
  0
LINE
  5
131
330
1D
100
AcDbEntity
  8
_0-0_FRF74-0716
  6
Continuous
 62
     7
100
AcDbLine
 10
2175.943975387215
 20
1652.784001400972
 30
0.0
 11
2136.943978307843
 21
1652.784001400972
 31
0.0
  0
LINE
  5
132
330
1D
100
AcDbEntity
  8
_0-0_FRF74-0716
  6
Continuous
 62
     7
100
AcDbLine
 10
2178.943981466889
 20
1623.284002770016
 30
0.0
 11
2175.943975387215
 21
1623.284002770016
 31
0.0
  0
LINE
  5
133
330
1D
100
AcDbEntity
  8
_0-0_FRF74-0716
  6
Continuous
 62
     7
100
AcDbLine
 10
2175.943975387215
 20
1623.284002770016
 30
0.0
 11
2136.943978307843
 21
1623.284002770016
 31
0.0
  0
LINE
  5
134
330
1D
100
AcDbEntity
  8
_0-0_FRF74-0716
  6
Continuous
 62
     7
100
AcDbLine
 10
2136.943978307843
 20
1623.284002770016
 30
0.0
 11
2133.94397967875
 21
1623.284002770016
 31
0.0
  0
LINE
  5
135
330
1D
100
AcDbEntity
  8
_0-0_FRF74-0716
  6
Continuous
 62
     7
100
AcDbLine
 10
2175.943975387215
 20
1652.784001400972
 30
0.0
 11
2178.943981466889
 21
1652.784001400972
 31
0.0
  0
LINE
  5
136
330
1D
100
AcDbEntity
  8
_0-0_FRF74-0716
  6
Continuous
 62
     7
100
AcDbLine
 10
2133.94397967875
 20
1652.784001400972
 30
0.0
 11
2136.943978307843
 21
1652.784001400972
 31
0.0
  0
LINE
  5
137
330
1D
100
AcDbEntity
  8
_0-0_FRF74-0716
  6
Continuous
 62
     7
100
AcDbLine
 10
2133.94397967875
 20
1623.284002770016
 30
0.0
 11
2133.94397967875
 21
1652.784001400972
 31
0.0
  0
LINE
  5
138
330
1D
100
AcDbEntity
  8
_0-0_FRF74-0716
  6
Continuous
 62
     7
100
AcDbLine
 10
2178.943981466889
 20
1652.784001400972
 30
0.0
 11
2178.943981466889
 21
1623.284002770016
 31
0.0
  0
LINE
  5
139
330
1D
100
AcDbEntity
  8
_0-0_FRF74-0716
  6
Continuous
 62
     7
100
AcDbLine
 10
1632.443990049958
 20
1640.784000981877
 30
0.0
 11
1683.943988619447
 21
1640.784000981877
 31
0.0
  0
LINE
  5
13A
330
1D
100
AcDbEntity
  8
_0-0_FRF74-0716
  6
Continuous
 62
     7
100
AcDbLine
 10
1728.943975506425
 20
1640.784000981877
 30
0.0
 11
2133.94397967875
 21
1640.784000981877
 31
0.0
  0
LINE
  5
13B
330
1D
100
AcDbEntity
  8
_0-0_FRF74-0716
  6
Continuous
 62
     7
100
AcDbLine
 10
2178.943981466889
 20
1640.784000981877
 30
0.0
 11
2230.443980036378
 21
1640.784000981877
 31
0.0
  0
LINE
  5
13C
330
1D
100
AcDbEntity
  8
_0-0_FRF74-0716
  6
Continuous
 62
     4
100
AcDbLine
 10
2156.443976847529
 20
1734.16173620854
 30
0.0
 11
1706.443982062935
 21
1734.16173620854
 31
0.0
  0
POINT
  5
13D
330
1D
100
AcDbEntity
  8
_0-0_FRF74-0716
 62
     7
100
AcDbPoint
 10
2156.443976847529
 20
1734.16173620854
 30
0.0
  0
POINT
  5
13E
330
1D
100
AcDbEntity
  8
_0-0_FRF74-0716
 62
     7
100
AcDbPoint
 10
1706.443982062935
 20
1734.16173620854
 30
0.0
  0
LINE
  5
13F
330
1D
100
AcDbEntity
  8
_0-0_FRF74-0716
  6
Continuous
 62
     4
100
AcDbLine
 10
2156.443976847529
 20
1734.16173620854
 30
0.0
 11
2156.443976847529
 21
1667.784001400972
 31
0.0
  0
LINE
  5
140
330
1D
100
AcDbEntity
  8
_0-0_FRF74-0716
  6
Continuous
 62
     4
100
AcDbLine
 10
1706.443982062935
 20
1734.16173620854
 30
0.0
 11
1706.443982062935
 21
1667.784001400972
 31
0.0
  0
TEXT
  5
141
330
1D
100
AcDbEntity
  8
_0-0_FRF74-0716
 62
     4
100
AcDbText
 10
1922.068979455232
 20
1736.66173620854
 30
0.0
 40
12.5
  1
450(※1)
100
AcDbText
  0
TEXT
  5
142
330
1D
100
AcDbEntity
  8
_0-0_FRF74-0716
 62
     4
100
AcDbText
 10
1631.443094261994
 20
1462.17007173799
 30
0.0
 40
12.5
  1
(※1)ブラケット取付位置は調節可能です。
100
AcDbText
  0
TEXT
  5
143
330
1D
100
AcDbEntity
  8
_0-1_
 62
     4
100
AcDbText
 10
2161.844884196341
 20
1705.715216886927
 30
0.0
 40
12.5
  1
45
100
AcDbText
  0
TEXT
  5
144
330
1D
100
AcDbEntity
  8
_0-1_
 62
     4
100
AcDbText
 10
2278.934068559642
 20
1869.8461068394
 30
0.0
 40
12.5
  1
6
 50
90.0
100
AcDbText
  0
LINE
  5
145
330
1D
100
AcDbEntity
  8
_0-0_FRF74-0716
  6
Continuous
 62
     7
100
AcDbLine
 10
2281.443977933079
 20
1866.753182538669
 30
0.0
 11
2281.443977933079
 21
1876.000903617944
 31
0.0
  0
ENDSEC
  0
SECTION
  2
OBJECTS
  0
DICTIONARY
  5
C
330
0
100
AcDbDictionary
281
     1
  3
ACAD_DETAILVIEWSTYLE
350
19A
  3
ACAD_GROUP
350
D
  3
ACAD_IMAGE_VARS
350
190
  3
ACAD_LAYOUT
350
1A
  3
ACAD_MATERIAL
350
186
  3
ACAD_MLEADERSTYLE
350
18C
  3
ACAD_MLINESTYLE
350
17
  3
ACAD_PLOTSETTINGS
350
19
  3
ACAD_PLOTSTYLENAME
350
E
  3
ACAD_SCALELIST
350
147
  3
ACAD_SECTIONVIEWSTYLE
350
19B
  3
ACAD_TABLESTYLE
350
18A
  3
ACAD_VISUALSTYLE
350
16D
  3
ACDB_RECOMPOSE_DATA
350
1A2
  3
AcDbVariableDictionary
350
191
  3
APPDATA
350
18E
  0
SUN
  5
18F
330
146
100
AcDbSun
 90
        1
290
     0
 63
     7
421
 16777215
 40
1.0
291
     1
 91
  2455826
 92
 54000000
292
     0
 70
     2
 71
   256
280
     1
  0
DICTIONARY
  5
19A
102
{ACAD_REACTORS
330
C
102
}
330
C
100
AcDbDictionary
281
     1
  0
DICTIONARY
  5
D
102
{ACAD_REACTORS
330
C
102
}
330
C
100
AcDbDictionary
281
     1
  0
RASTERVARIABLES
  5
190
102
{ACAD_REACTORS
330
C
102
}
330
C
100
AcDbRasterVariables
 90
        0
 70
     1
 71
     1
 72
     0
  0
DICTIONARY
  5
1A
102
{ACAD_REACTORS
330
C
102
}
330
C
100
AcDbDictionary
281
     1
  3
Model
350
1E
  3
シート 1
350
1C
  0
DICTIONARY
  5
186
102
{ACAD_REACTORS
330
C
102
}
330
C
100
AcDbDictionary
281
     1
  3
ByBlock
350
188
  3
ByLayer
350
187
  3
Global
350
189
  0
DICTIONARY
  5
18C
102
{ACAD_REACTORS
330
C
102
}
330
C
100
AcDbDictionary
281
     1
  3
Standard
350
18D
  0
DICTIONARY
  5
17
102
{ACAD_REACTORS
330
C
102
}
330
C
100
AcDbDictionary
281
     1
  3
Standard
350
18
  0
DICTIONARY
  5
19
102
{ACAD_REACTORS
330
C
102
}
330
C
100
AcDbDictionary
281
     1
  0
ACDBDICTIONARYWDFLT
  5
E
102
{ACAD_REACTORS
330
C
102
}
330
C
100
AcDbDictionary
281
     1
  3
Normal
350
F
100
AcDbDictionaryWithDefault
340
F
  0
DICTIONARY
  5
147
102
{ACAD_REACTORS
330
C
102
}
330
C
100
AcDbDictionary
281
     1
  3
A0
350
148
  3
A1
350
149
  3
A2
350
14A
  3
A3
350
14B
  3
A4
350
14C
  3
A5
350
14D
  3
A6
350
14E
  3
A7
350
14F
  3
A8
350
150
  3
A9
350
151
  3
B0
350
152
  3
B1
350
153
  3
B2
350
154
  3
B3
350
155
  3
B4
350
156
  3
B5
350
157
  3
B6
350
158
  3
B7
350
159
  3
B8
350
15A
  3
B9
350
15B
  3
C0
350
15C
  3
C1
350
15D
  3
C2
350
15E
  3
C3
350
15F
  3
C4
350
160
  3
C5
350
161
  3
C6
350
162
  3
C7
350
163
  3
C8
350
164
  3
C9
350
165
  3
D0
350
166
  3
D1
350
167
  3
D2
350
168
  0
DICTIONARY
  5
19B
102
{ACAD_REACTORS
330
C
102
}
330
C
100
AcDbDictionary
281
     1
  0
DICTIONARY
  5
18A
102
{ACAD_REACTORS
330
C
102
}
330
C
100
AcDbDictionary
281
     1
  3
Standard
350
18B
  0
DICTIONARY
  5
16D
102
{ACAD_REACTORS
330
C
102
}
330
C
100
AcDbDictionary
281
     1
  3
2dWireframe
350
172
  3
Basic
350
175
  3
Brighten
350
179
  3
ColorChange
350
17D
  3
Conceptual
350
177
  3
Dim
350
178
  3
EdgeColorOff
350
180
  3
Facepattern
350
17C
  3
Flat
350
16E
  3
FlatWithEdges
350
16F
  3
Gouraud
350
170
  3
GouraudWithEdges
350
171
  3
Hidden
350
174
  3
JitterOff
350
17E
  3
Linepattern
350
17B
  3
OverhangOff
350
17F
  3
Realistic
350
176
  3
Shaded
350
185
  3
Shaded with edges
350
184
  3
Shades of Gray
350
181
  3
Sketchy
350
182
  3
Thicken
350
17A
  3
Wireframe
350
173
  3
X-Ray
350
183
  0
XRECORD
  5
1A2
102
{ACAD_REACTORS
330
C
102
}
330
C
100
AcDbXrecord
280
     1
 90
        1
330
18B
  0
DICTIONARY
  5
191
102
{ACAD_REACTORS
330
C
102
}
330
C
100
AcDbDictionary
281
     1
  3
CANNOSCALE
350
192
  3
CMLEADERSTYLE
350
198
  3
CTABLESTYLE
350
197
  3
MSLTSCALE
350
199
  0
DICTIONARY
  5
18E
102
{ACAD_REACTORS
330
C
102
}
330
C
100
AcDbDictionary
281
     1
  0
LAYOUT
  5
1E
102
{ACAD_REACTORS
330
1A
102
}
330
1A
100
AcDbPlotSettings
  1

  2
none_device
  4
Letter_(8.50_x_11.00_Inches)
  6

 40
6.35
 41
6.35
 42
6.35
 43
6.35
 44
215.9
 45
279.4
 46
0.0
 47
0.0
 48
0.0
 49
0.0
140
0.0
141
0.0
142
1.0
143
1.0
 70
  1712
 72
     0
 73
     0
 74
     0
  7

 75
     0
 76
     0
 77
     2
 78
   300
147
1.0
148
0.0
149
0.0
100
AcDbLayout
  1
Model
 70
     1
 71
     0
 10
1540.066283385656
 20
914.333572028338
 11
2590.066283385656
 21
2399.333572028338
 12
0.0
 22
0.0
 32
0.0
 14
1577.566283385414
 24
947.2697085215659
 34
0.0
 15
2552.566283385656
 25
2371.197953007166
 35
0.0
146
0.0
 13
0.0
 23
0.0
 33
0.0
 16
1.0
 26
0.0
 36
0.0
 17
0.0
 27
1.0
 37
0.0
 76
     0
330
1D
331
146
  0
LAYOUT
  5
1C
102
{ACAD_REACTORS
330
1A
102
}
330
1A
100
AcDbPlotSettings
  1

  2
none_device
  4

  6

 40
0.0
 41
0.0
 42
0.0
 43
0.0
 44
0.0
 45
0.0
 46
0.0
 47
0.0
 48
0.0
 49
0.0
140
0.0
141
0.0
142
1.0
143
1.0
 70
   688
 72
     0
 73
     0
 74
     5
  7

 75
    16
 76
     0
 77
     2
 78
   300
147
1.0
148
0.0
149
0.0
100
AcDbLayout
  1
シート 1
 70
     1
 71
     1
 10
0.0
 20
0.0
 11
0.0
 21
0.0
 12
0.0
 22
0.0
 32
0.0
 14
1.000000000000000E+20
 24
1.000000000000000E+20
 34
1.000000000000000E+20
 15
-1.000000000000000E+20
 25
-1.000000000000000E+20
 35
-1.000000000000000E+20
146
0.0
 13
0.0
 23
0.0
 33
0.0
 16
1.0
 26
0.0
 36
0.0
 17
0.0
 27
1.0
 37
0.0
 76
     0
330
1B
  0
MATERIAL
  5
188
102
{ACAD_REACTORS
330
186
102
}
330
186
100
AcDbMaterial
  1
ByBlock
 72
     1
 94
      127
  0
MATERIAL
  5
187
102
{ACAD_REACTORS
330
186
102
}
330
186
100
AcDbMaterial
  1
ByLayer
 72
     1
 94
      127
  0
MATERIAL
  5
189
102
{ACAD_REACTORS
330
186
102
}
330
186
100
AcDbMaterial
  1
Global
 72
     1
 94
      127
  0
MLEADERSTYLE
  5
18D
102
{ACAD_REACTORS
330
18C
102
}
330
18C
100
AcDbMLeaderStyle
170
     2
171
     1
172
     0
 90
        2
 40
0.0
 41
0.0
173
     1
 91
-1056964608
340
14
 92
       -2
290
     1
 42
0.09
291
     1
 43
0.36
  3
Standard
341
0
 44
0.18
300

342
11
174
     1
178
     6
175
     1
176
     0
 93
-1056964608
 45
0.18
292
     0
297
     0
 46
0.18
343
0
 94
-1056964608
 47
1.0
 49
1.0
140
1.0
293
     1
141
0.0
294
     1
177
     0
142
1.0
295
     0
296
     0
143
0.125
1001
ACAD_MLEADERVER
1070
     2
  0
MLINESTYLE
  5
18
102
{ACAD_REACTORS
330
17
102
}
330
17
100
AcDbMlineStyle
  2
Standard
 70
     0
  3

 62
   256
 51
90.0
 52
90.0
 71
     2
 49
0.5
 62
   256
  6
BYLAYER
 49
-0.5
 62
   256
  6
BYLAYER
  0
ACDBPLACEHOLDER
  5
F
102
{ACAD_REACTORS
330
E
102
}
330
E
  0
SCALE
  5
148
102
{ACAD_REACTORS
330
147
102
}
330
147
100
AcDbScale
 70
     0
300
1:1
140
1.0
141
1.0
290
     1
  0
SCALE
  5
149
102
{ACAD_REACTORS
330
147
102
}
330
147
100
AcDbScale
 70
     0
300
1:2
140
1.0
141
2.0
290
     0
  0
SCALE
  5
14A
102
{ACAD_REACTORS
330
147
102
}
330
147
100
AcDbScale
 70
     0
300
1:4
140
1.0
141
4.0
290
     0
  0
SCALE
  5
14B
102
{ACAD_REACTORS
330
147
102
}
330
147
100
AcDbScale
 70
     0
300
1:5
140
1.0
141
5.0
290
     0
  0
SCALE
  5
14C
102
{ACAD_REACTORS
330
147
102
}
330
147
100
AcDbScale
 70
     0
300
1:8
140
1.0
141
8.0
290
     0
  0
SCALE
  5
14D
102
{ACAD_REACTORS
330
147
102
}
330
147
100
AcDbScale
 70
     0
300
1:10
140
1.0
141
10.0
290
     0
  0
SCALE
  5
14E
102
{ACAD_REACTORS
330
147
102
}
330
147
100
AcDbScale
 70
     0
300
1:16
140
1.0
141
16.0
290
     0
  0
SCALE
  5
14F
102
{ACAD_REACTORS
330
147
102
}
330
147
100
AcDbScale
 70
     0
300
1:20
140
1.0
141
20.0
290
     0
  0
SCALE
  5
150
102
{ACAD_REACTORS
330
147
102
}
330
147
100
AcDbScale
 70
     0
300
1:30
140
1.0
141
30.0
290
     0
  0
SCALE
  5
151
102
{ACAD_REACTORS
330
147
102
}
330
147
100
AcDbScale
 70
     0
300
1:40
140
1.0
141
40.0
290
     0
  0
SCALE
  5
152
102
{ACAD_REACTORS
330
147
102
}
330
147
100
AcDbScale
 70
     0
300
1:50
140
1.0
141
50.0
290
     0
  0
SCALE
  5
153
102
{ACAD_REACTORS
330
147
102
}
330
147
100
AcDbScale
 70
     0
300
1:100
140
1.0
141
100.0
290
     0
  0
SCALE
  5
154
102
{ACAD_REACTORS
330
147
102
}
330
147
100
AcDbScale
 70
     0
300
2:1
140
2.0
141
1.0
290
     0
  0
SCALE
  5
155
102
{ACAD_REACTORS
330
147
102
}
330
147
100
AcDbScale
 70
     0
300
4:1
140
4.0
141
1.0
290
     0
  0
SCALE
  5
156
102
{ACAD_REACTORS
330
147
102
}
330
147
100
AcDbScale
 70
     0
300
8:1
140
8.0
141
1.0
290
     0
  0
SCALE
  5
157
102
{ACAD_REACTORS
330
147
102
}
330
147
100
AcDbScale
 70
     0
300
10:1
140
10.0
141
1.0
290
     0
  0
SCALE
  5
158
102
{ACAD_REACTORS
330
147
102
}
330
147
100
AcDbScale
 70
     0
300
100:1
140
100.0
141
1.0
290
     0
  0
SCALE
  5
159
102
{ACAD_REACTORS
330
147
102
}
330
147
100
AcDbScale
 70
     0
300
1/128" = 1'-0"
140
0.0078125
141
12.0
290
     0
  0
SCALE
  5
15A
102
{ACAD_REACTORS
330
147
102
}
330
147
100
AcDbScale
 70
     0
300
1/64" = 1'-0"
140
0.015625
141
12.0
290
     0
  0
SCALE
  5
15B
102
{ACAD_REACTORS
330
147
102
}
330
147
100
AcDbScale
 70
     0
300
1/32" = 1'-0"
140
0.03125
141
12.0
290
     0
  0
SCALE
  5
15C
102
{ACAD_REACTORS
330
147
102
}
330
147
100
AcDbScale
 70
     0
300
1/16" = 1'-0"
140
0.0625
141
12.0
290
     0
  0
SCALE
  5
15D
102
{ACAD_REACTORS
330
147
102
}
330
147
100
AcDbScale
 70
     0
300
3/32" = 1'-0"
140
0.09375
141
12.0
290
     0
  0
SCALE
  5
15E
102
{ACAD_REACTORS
330
147
102
}
330
147
100
AcDbScale
 70
     0
300
1/8" = 1'-0"
140
0.125
141
12.0
290
     0
  0
SCALE
  5
15F
102
{ACAD_REACTORS
330
147
102
}
330
147
100
AcDbScale
 70
     0
300
3/16" = 1'-0"
140
0.1875
141
12.0
290
     0
  0
SCALE
  5
160
102
{ACAD_REACTORS
330
147
102
}
330
147
100
AcDbScale
 70
     0
300
1/4" = 1'-0"
140
0.25
141
12.0
290
     0
  0
SCALE
  5
161
102
{ACAD_REACTORS
330
147
102
}
330
147
100
AcDbScale
 70
     0
300
3/8" = 1'-0"
140
0.375
141
12.0
290
     0
  0
SCALE
  5
162
102
{ACAD_REACTORS
330
147
102
}
330
147
100
AcDbScale
 70
     0
300
1/2" = 1'-0"
140
0.5
141
12.0
290
     0
  0
SCALE
  5
163
102
{ACAD_REACTORS
330
147
102
}
330
147
100
AcDbScale
 70
     0
300
3/4" = 1'-0"
140
0.75
141
12.0
290
     0
  0
SCALE
  5
164
102
{ACAD_REACTORS
330
147
102
}
330
147
100
AcDbScale
 70
     0
300
1" = 1'-0"
140
1.0
141
12.0
290
     0
  0
SCALE
  5
165
102
{ACAD_REACTORS
330
147
102
}
330
147
100
AcDbScale
 70
     0
300
1-1/2" = 1'-0"
140
1.5
141
12.0
290
     0
  0
SCALE
  5
166
102
{ACAD_REACTORS
330
147
102
}
330
147
100
AcDbScale
 70
     0
300
3" = 1'-0"
140
3.0
141
12.0
290
     0
  0
SCALE
  5
167
102
{ACAD_REACTORS
330
147
102
}
330
147
100
AcDbScale
 70
     0
300
6" = 1'-0"
140
6.0
141
12.0
290
     0
  0
SCALE
  5
168
102
{ACAD_REACTORS
330
147
102
}
330
147
100
AcDbScale
 70
     0
300
1'-0" = 1'-0"
140
12.0
141
12.0
290
     0
  0
TABLESTYLE
  5
18B
102
{ACAD_REACTORS
330
18A
102
}
102
{ACAD_XDICTIONARY
360
19F
102
}
330
18A
100
AcDbTableStyle
  3
Standard
 70
     0
 71
     0
 40
0.06
 41
0.06
280
     0
281
     0
  7
STANDARD
140
0.18
170
     2
 62
     0
 63
   257
283
     0
 90
        4
 91
        0
  1

274
    -2
284
     1
 64
     0
275
    -2
285
     1
 65
     0
276
    -2
286
     1
 66
     0
277
    -2
287
     1
 67
     0
278
    -2
288
     1
 68
     0
279
    -2
289
     1
 69
     0
  7
STANDARD
140
0.25
170
     5
 62
     0
 63
   257
283
     0
 90
        4
 91
        0
  1

274
    -2
284
     1
 64
     0
275
    -2
285
     1
 65
     0
276
    -2
286
     1
 66
     0
277
    -2
287
     1
 67
     0
278
    -2
288
     1
 68
     0
279
    -2
289
     1
 69
     0
  7
STANDARD
140
0.18
170
     5
 62
     0
 63
   257
283
     0
 90
        4
 91
        0
  1

274
    -2
284
     1
 64
     0
275
    -2
285
     1
 65
     0
276
    -2
286
     1
 66
     0
277
    -2
287
     1
 67
     0
278
    -2
288
     1
 68
     0
279
    -2
289
     1
 69
     0
  0
VISUALSTYLE
  5
172
102
{ACAD_REACTORS
330
16D
102
}
330
16D
100
AcDbVisualStyle
  2
2dWireframe
 70
     4
 71
     0
 72
     2
 73
     0
 90
        0
 40
0.6
 41
30.0
 62
     5
 63
     7
421
 16777215
 74
     1
 91
        4
 64
     7
 65
   257
 75
     1
175
     1
 42
1.0
 92
        0
 66
   257
 43
1.0
 76
     1
 77
     6
 78
     2
 67
     7
 79
     5
170
     0
171
     0
290
     0
174
     0
 93
        1
 44
0.0
173
     0
291
     0
 45
0.0
  0
VISUALSTYLE
  5
175
102
{ACAD_REACTORS
330
16D
102
}
330
16D
100
AcDbVisualStyle
  2
Basic
 70
     7
 71
     1
 72
     0
 73
     1
 90
        0
 40
0.6
 41
30.0
 62
     5
 63
     7
421
 16777215
 74
     0
 91
        4
 64
     7
 65
   257
 75
     1
175
     1
 42
1.0
 92
        8
 66
     7
 43
1.0
 76
     1
 77
     6
 78
     2
 67
     7
 79
     5
170
     0
171
     0
290
     0
174
     0
 93
        1
 44
0.0
173
     0
291
     1
 45
0.0
  0
VISUALSTYLE
  5
179
102
{ACAD_REACTORS
330
16D
102
}
330
16D
100
AcDbVisualStyle
  2
Brighten
 70
    12
 71
     2
 72
     2
 73
     0
 90
        0
 40
0.6
 41
30.0
 62
     5
 63
     7
421
 16777215
 74
     1
 91
        4
 64
     7
 65
   257
 75
     1
175
     1
 42
1.0
 92
        8
 66
     7
 43
1.0
 76
     1
 77
     6
 78
     2
 67
     7
 79
     5
170
     0
171
     0
290
     0
174
     0
 93
        1
 44
50.0
173
     0
291
     1
 45
0.0
  0
VISUALSTYLE
  5
17D
102
{ACAD_REACTORS
330
16D
102
}
330
16D
100
AcDbVisualStyle
  2
ColorChange
 70
    16
 71
     2
 72
     2
 73
     3
 90
        0
 40
0.6
 41
30.0
 62
     5
 63
     8
421
  8421504
 74
     1
 91
        4
 64
     7
 65
   257
 75
     1
175
     1
 42
1.0
 92
        8
 66
     8
424
  8421504
 43
1.0
 76
     1
 77
     6
 78
     2
 67
     7
 79
     5
170
     0
171
     0
290
     0
174
     0
 93
        1
 44
0.0
173
     0
291
     1
 45
0.0
  0
VISUALSTYLE
  5
177
102
{ACAD_REACTORS
330
16D
102
}
330
16D
100
AcDbVisualStyle
  2
Conceptual
 70
     9
 71
     3
 72
     2
 73
     0
 90
        0
 40
0.6
 41
30.0
 62
     5
 63
     7
421
 16777215
 74
     2
 91
        2
 64
     7
 65
   257
 75
     1
175
     1
 42
179.0
 92
        8
 66
     7
 43
1.0
 76
     1
 77
     6
 78
     2
 67
     7
 79
     3
170
     0
171
     0
290
     0
174
     0
 93
        1
 44
0.0
173
     0
291
     0
 45
0.0
  0
VISUALSTYLE
  5
178
102
{ACAD_REACTORS
330
16D
102
}
330
16D
100
AcDbVisualStyle
  2
Dim
 70
    11
 71
     2
 72
     2
 73
     0
 90
        0
 40
0.6
 41
30.0
 62
     5
 63
     7
421
 16777215
 74
     1
 91
        4
 64
     7
 65
   257
 75
     1
175
     1
 42
1.0
 92
        8
 66
     7
 43
1.0
 76
     1
 77
     6
 78
     2
 67
     7
 79
     5
170
     0
171
     0
290
     0
174
     0
 93
        1
 44
-50.0
173
     0
291
     1
 45
0.0
  0
VISUALSTYLE
  5
180
102
{ACAD_REACTORS
330
16D
102
}
330
16D
100
AcDbVisualStyle
  2
EdgeColorOff
 70
    22
 71
     2
 72
     2
 73
     0
 90
        0
 40
0.6
 41
30.0
 62
     5
 63
     7
421
 16777215
 74
     1
 91
        4
 64
     7
 65
   257
 75
     1
175
     1
 42
1.0
 92
        8
 66
     7
 43
1.0
 76
     1
 77
     6
 78
     2
 67
     7
 79
     5
170
     0
171
     0
290
     0
174
     0
 93
        1
 44
0.0
173
     0
291
     1
 45
0.0
  0
VISUALSTYLE
  5
17C
102
{ACAD_REACTORS
330
16D
102
}
330
16D
100
AcDbVisualStyle
  2
Facepattern
 70
    15
 71
     2
 72
     2
 73
     0
 90
        0
 40
0.6
 41
30.0
 62
     5
 63
     7
421
 16777215
 74
     1
 91
        4
 64
     7
 65
   257
 75
     1
175
     1
 42
1.0
 92
        8
 66
     7
 43
1.0
 76
     1
 77
     6
 78
     2
 67
     7
 79
     5
170
     0
171
     0
290
     0
174
     0
 93
        1
 44
0.0
173
     0
291
     1
 45
0.0
  0
VISUALSTYLE
  5
16E
102
{ACAD_REACTORS
330
16D
102
}
330
16D
100
AcDbVisualStyle
  2
Flat
 70
     0
 71
     2
 72
     1
 73
     1
 90
        2
 40
0.6
 41
30.0
 62
     5
 63
     7
421
 16777215
 74
     0
 91
        0
 64
     7
 65
   257
 75
     1
175
     1
 42
1.0
 92
        8
 66
     7
 43
1.0
 76
     1
 77
     6
 78
     2
 67
     7
 79
     5
170
     0
171
     0
290
     0
174
     0
 93
       13
 44
0.0
173
     0
291
     1
 45
0.0
  0
VISUALSTYLE
  5
16F
102
{ACAD_REACTORS
330
16D
102
}
330
16D
100
AcDbVisualStyle
  2
FlatWithEdges
 70
     1
 71
     2
 72
     1
 73
     1
 90
        2
 40
0.6
 41
30.0
 62
     5
 63
     7
421
 16777215
 74
     1
 91
        0
 64
     7
 65
   257
 75
     1
175
     1
 42
1.0
 92
        0
 66
   257
 43
1.0
 76
     1
 77
     6
 78
     2
 67
     7
 79
     5
170
     0
171
     0
290
     0
174
     0
 93
       13
 44
0.0
173
     0
291
     1
 45
0.0
  0
VISUALSTYLE
  5
170
102
{ACAD_REACTORS
330
16D
102
}
330
16D
100
AcDbVisualStyle
  2
Gouraud
 70
     2
 71
     2
 72
     2
 73
     1
 90
        2
 40
0.6
 41
30.0
 62
     5
 63
     7
421
 16777215
 74
     0
 91
        0
 64
     7
 65
   257
 75
     1
175
     1
 42
1.0
 92
        0
 66
     7
 43
1.0
 76
     1
 77
     6
 78
     2
 67
     7
 79
     5
170
     0
171
     0
290
     0
174
     0
 93
       13
 44
0.0
173
     0
291
     1
 45
0.0
  0
VISUALSTYLE
  5
171
102
{ACAD_REACTORS
330
16D
102
}
330
16D
100
AcDbVisualStyle
  2
GouraudWithEdges
 70
     3
 71
     2
 72
     2
 73
     1
 90
        2
 40
0.6
 41
30.0
 62
     5
 63
     7
421
 16777215
 74
     1
 91
        0
 64
     7
 65
   257
 75
     1
175
     1
 42
1.0
 92
        0
 66
   257
 43
1.0
 76
     1
 77
     6
 78
     2
 67
     7
 79
     5
170
     0
171
     0
290
     0
174
     0
 93
       13
 44
0.0
173
     0
291
     1
 45
0.0
  0
VISUALSTYLE
  5
174
102
{ACAD_REACTORS
330
16D
102
}
330
16D
100
AcDbVisualStyle
  2
Hidden
 70
     6
 71
     1
 72
     2
 73
     2
 90
        0
 40
0.6
 41
30.0
 62
     5
 63
     7
421
 16777215
 74
     2
 91
        2
 64
     7
 65
   257
 75
     2
175
     1
 42
40.0
 92
        0
 66
   257
 43
1.0
 76
     1
 77
     6
 78
     2
 67
     7
 79
     3
170
     0
171
     0
290
     0
174
     0
 93
        1
 44
0.0
173
     0
291
     0
 45
0.0
  0
VISUALSTYLE
  5
17E
102
{ACAD_REACTORS
330
16D
102
}
330
16D
100
AcDbVisualStyle
  2
JitterOff
 70
    20
 71
     2
 72
     2
 73
     0
 90
        0
 40
0.6
 41
30.0
 62
     5
 63
     7
421
 16777215
 74
     1
 91
        4
 64
     7
 65
   257
 75
     1
175
     1
 42
1.0
 92
       10
 66
     7
 43
1.0
 76
     1
 77
     6
 78
     2
 67
     7
 79
     5
170
     0
171
     0
290
     0
174
     0
 93
        1
 44
0.0
173
     0
291
     1
 45
0.0
  0
VISUALSTYLE
  5
17B
102
{ACAD_REACTORS
330
16D
102
}
330
16D
100
AcDbVisualStyle
  2
Linepattern
 70
    14
 71
     2
 72
     2
 73
     0
 90
        0
 40
0.6
 41
30.0
 62
     5
 63
     7
421
 16777215
 74
     1
 91
        4
 64
     7
 65
   257
 75
     7
175
     7
 42
1.0
 92
        8
 66
     7
 43
1.0
 76
     1
 77
     6
 78
     2
 67
     7
 79
     5
170
     0
171
     0
290
     0
174
     0
 93
        1
 44
0.0
173
     0
291
     1
 45
0.0
  0
VISUALSTYLE
  5
17F
102
{ACAD_REACTORS
330
16D
102
}
330
16D
100
AcDbVisualStyle
  2
OverhangOff
 70
    21
 71
     2
 72
     2
 73
     0
 90
        0
 40
0.6
 41
30.0
 62
     5
 63
     7
421
 16777215
 74
     1
 91
        4
 64
     7
 65
   257
 75
     1
175
     1
 42
1.0
 92
        9
 66
     7
 43
1.0
 76
     1
 77
     6
 78
     2
 67
     7
 79
     5
170
     0
171
     0
290
     0
174
     0
 93
        1
 44
0.0
173
     0
291
     1
 45
0.0
  0
VISUALSTYLE
  5
176
102
{ACAD_REACTORS
330
16D
102
}
330
16D
100
AcDbVisualStyle
  2
Realistic
 70
     8
 71
     2
 72
     3
 73
     0
 90
        2
 40
0.6
 41
30.0
 62
     5
 63
     7
421
 16777215
 74
     0
 91
        0
 64
     7
 65
   257
 75
     1
175
     1
 42
1.0
 92
        8
 66
   257
 43
1.0
 76
     1
 77
     6
 78
     2
 67
     7
 79
     3
170
     0
171
     0
290
     0
174
     0
 93
       13
 44
0.0
173
     0
291
     0
 45
0.0
  0
VISUALSTYLE
  5
185
102
{ACAD_REACTORS
330
16D
102
}
330
16D
100
AcDbVisualStyle
  2
Shaded
 70
    27
 71
     2
 72
     2
 73
     1
 90
        2
 40
0.6
 41
30.0
 62
     5
 63
     7
421
 16777215
 74
     0
 91
        4
 64
     7
 65
   257
 75
     1
175
     1
 42
1.0
 92
        8
 66
   257
 43
1.0
 76
     1
 77
     6
 78
     2
 67
     8
425
  7895160
 79
     3
170
     0
171
     0
290
     0
174
     0
 93
        5
 44
0.0
173
     0
291
     0
 45
0.0
  0
VISUALSTYLE
  5
184
102
{ACAD_REACTORS
330
16D
102
}
330
16D
100
AcDbVisualStyle
  2
Shaded with edges
 70
    26
 71
     2
 72
     2
 73
     1
 90
        2
 40
0.6
 41
30.0
 62
     5
 63
     7
421
 16777215
 74
     1
 91
       10
 64
     7
 65
   257
 75
     2
175
     1
 42
1.0
 92
        8
 66
   257
 43
1.0
 76
     1
 77
     6
 78
     2
 67
     7
 79
     3
170
     0
171
     0
290
     0
174
     0
 93
        5
 44
0.0
173
     0
291
     0
 45
0.0
  0
VISUALSTYLE
  5
181
102
{ACAD_REACTORS
330
16D
102
}
330
16D
100
AcDbVisualStyle
  2
Shades of Gray
 70
    23
 71
     2
 72
     2
 73
     3
 90
        0
 40
0.6
 41
30.0
 62
     5
 63
     7
421
 16777215
 74
     2
 91
        2
 64
     7
 65
     7
 75
     1
175
     1
 42
40.0
 92
        8
 66
     7
 43
1.0
 76
     1
 77
     6
 78
     2
 67
     7
 79
     3
170
     0
171
     0
290
     0
174
     0
 93
        1
 44
0.0
173
     0
291
     0
 45
0.0
  0
VISUALSTYLE
  5
182
102
{ACAD_REACTORS
330
16D
102
}
330
16D
100
AcDbVisualStyle
  2
Sketchy
 70
    24
 71
     1
 72
     2
 73
     2
 90
        0
 40
0.6
 41
30.0
 62
     5
 63
     7
421
 16777215
 74
     2
 91
        2
 64
     7
 65
     7
 75
     1
175
     1
 42
40.0
 92
       11
 66
     7
 43
1.0
 76
     1
 77
     6
 78
     2
 67
     7
 79
     6
170
     0
171
     0
290
     0
174
     0
 93
        1
 44
0.0
173
     0
291
     0
 45
0.0
  0
VISUALSTYLE
  5
17A
102
{ACAD_REACTORS
330
16D
102
}
330
16D
100
AcDbVisualStyle
  2
Thicken
 70
    13
 71
     2
 72
     2
 73
     0
 90
        0
 40
0.6
 41
30.0
 62
     5
 63
     7
421
 16777215
 74
     1
 91
        4
 64
     7
 65
   257
 75
     1
175
     1
 42
1.0
 92
       12
 66
     7
 43
1.0
 76
     1
 77
     6
 78
     2
 67
     7
 79
     5
170
     0
171
     0
290
     0
174
     0
 93
        1
 44
0.0
173
     0
291
     1
 45
0.0
  0
VISUALSTYLE
  5
173
102
{ACAD_REACTORS
330
16D
102
}
330
16D
100
AcDbVisualStyle
  2
Wireframe
 70
     5
 71
     0
 72
     2
 73
     0
 90
        0
 40
0.6
 41
30.0
 62
     5
 63
     7
421
 16777215
 74
     1
 91
        4
 64
     7
 65
   257
 75
     1
175
     1
 42
1.0
 92
        0
 66
   257
 43
1.0
 76
     1
 77
     6
 78
     2
 67
     7
 79
     3
170
     0
171
     0
290
     0
174
     0
 93
        1
 44
0.0
173
     0
291
     0
 45
0.0
  0
VISUALSTYLE
  5
183
102
{ACAD_REACTORS
330
16D
102
}
330
16D
100
AcDbVisualStyle
  2
X-Ray
 70
    25
 71
     2
 72
     2
 73
     1
 90
        1
 40
0.5
 41
30.0
 62
     5
 63
     7
421
 16777215
 74
     1
 91
        0
 64
     7
 65
   257
 75
     1
175
     1
 42
1.0
 92
        8
 66
     7
 43
1.0
 76
     1
 77
     6
 78
     2
 67
     7
 79
     3
170
     0
171
     0
290
     0
174
     0
 93
       13
 44
0.0
173
     0
291
     0
 45
0.0
  0
DICTIONARYVAR
  5
192
102
{ACAD_REACTORS
330
191
102
}
330
191
100
DictionaryVariables
280
     0
  1
1:1
  0
DICTIONARYVAR
  5
198
102
{ACAD_REACTORS
330
191
102
}
330
191
100
DictionaryVariables
280
     0
  1
Standard
  0
DICTIONARYVAR
  5
197
102
{ACAD_REACTORS
330
191
102
}
330
191
100
DictionaryVariables
280
     0
  1
Standard
  0
DICTIONARYVAR
  5
199
102
{ACAD_REACTORS
330
191
102
}
330
191
100
DictionaryVariables
280
     0
  1
0
  0
DICTIONARY
  5
19F
330
18B
100
AcDbDictionary
280
     1
281
     1
  3
ACAD_ROUNDTRIP_2008_TABLESTYLE_CELLSTYLEMAP
360
1A0
  0
CELLSTYLEMAP
  5
1A0
102
{ACAD_REACTORS
330
19F
102
}
330
19F
100
AcDbCellStyleMap
 90
        3
300
CELLSTYLE
  1
TABLEFORMAT_BEGIN
 90
        5
170
     1
 91
        0
 92
    32768
 62
   257
 93
        1
300
CONTENTFORMAT
  1
CONTENTFORMAT_BEGIN
 90
        0
 91
        0
 92
        4
 93
        0
300

 40
0.0
140
1.0
 94
        5
 62
     0
340
11
144
0.25
309
CONTENTFORMAT_END
171
     1
301
MARGIN
  1
CELLMARGIN_BEGIN
 40
0.06
 40
0.06
 40
0.06
 40
0.06
 40
0.06
 40
0.06
309
CELLMARGIN_END
 94
        6
 95
        1
302
GRIDFORMAT
  1
GRIDFORMAT_BEGIN
 90
        0
 91
        1
 62
     0
 92
       -2
340
14
 93
        0
 40
0.045
309
GRIDFORMAT_END
 95
        2
302
GRIDFORMAT
  1
GRIDFORMAT_BEGIN
 90
        0
 91
        1
 62
     0
 92
       -2
340
14
 93
        0
 40
0.045
309
GRIDFORMAT_END
 95
        4
302
GRIDFORMAT
  1
GRIDFORMAT_BEGIN
 90
        0
 91
        1
 62
     0
 92
       -2
340
14
 93
        0
 40
0.045
309
GRIDFORMAT_END
 95
        8
302
GRIDFORMAT
  1
GRIDFORMAT_BEGIN
 90
        0
 91
        1
 62
     0
 92
       -2
340
14
 93
        0
 40
0.045
309
GRIDFORMAT_END
 95
       16
302
GRIDFORMAT
  1
GRIDFORMAT_BEGIN
 90
        0
 91
        1
 62
     0
 92
       -2
340
14
 93
        0
 40
0.045
309
GRIDFORMAT_END
 95
       32
302
GRIDFORMAT
  1
GRIDFORMAT_BEGIN
 90
        0
 91
        1
 62
     0
 92
       -2
340
14
 93
        0
 40
0.045
309
GRIDFORMAT_END
309
TABLEFORMAT_END
  1
CELLSTYLE_BEGIN
 90
        1
 91
        1
300
_TITLE
309
CELLSTYLE_END
300
CELLSTYLE
  1
TABLEFORMAT_BEGIN
 90
        5
170
     1
 91
        0
 92
        0
 62
   257
 93
        1
300
CONTENTFORMAT
  1
CONTENTFORMAT_BEGIN
 90
        0
 91
        0
 92
        4
 93
        0
300

 40
0.0
140
1.0
 94
        5
 62
     0
340
11
144
0.18
309
CONTENTFORMAT_END
171
     1
301
MARGIN
  1
CELLMARGIN_BEGIN
 40
0.06
 40
0.06
 40
0.06
 40
0.06
 40
0.06
 40
0.06
309
CELLMARGIN_END
 94
        6
 95
        1
302
GRIDFORMAT
  1
GRIDFORMAT_BEGIN
 90
        0
 91
        1
 62
     0
 92
       -2
340
14
 93
        0
 40
0.045
309
GRIDFORMAT_END
 95
        2
302
GRIDFORMAT
  1
GRIDFORMAT_BEGIN
 90
        0
 91
        1
 62
     0
 92
       -2
340
14
 93
        0
 40
0.045
309
GRIDFORMAT_END
 95
        4
302
GRIDFORMAT
  1
GRIDFORMAT_BEGIN
 90
        0
 91
        1
 62
     0
 92
       -2
340
14
 93
        0
 40
0.045
309
GRIDFORMAT_END
 95
        8
302
GRIDFORMAT
  1
GRIDFORMAT_BEGIN
 90
        0
 91
        1
 62
     0
 92
       -2
340
14
 93
        0
 40
0.045
309
GRIDFORMAT_END
 95
       16
302
GRIDFORMAT
  1
GRIDFORMAT_BEGIN
 90
        0
 91
        1
 62
     0
 92
       -2
340
14
 93
        0
 40
0.045
309
GRIDFORMAT_END
 95
       32
302
GRIDFORMAT
  1
GRIDFORMAT_BEGIN
 90
        0
 91
        1
 62
     0
 92
       -2
340
14
 93
        0
 40
0.045
309
GRIDFORMAT_END
309
TABLEFORMAT_END
  1
CELLSTYLE_BEGIN
 90
        2
 91
        1
300
_HEADER
309
CELLSTYLE_END
300
CELLSTYLE
  1
TABLEFORMAT_BEGIN
 90
        5
170
     1
 91
        0
 92
        0
 62
   257
 93
        1
300
CONTENTFORMAT
  1
CONTENTFORMAT_BEGIN
 90
        0
 91
        0
 92
        4
 93
        0
300

 40
0.0
140
1.0
 94
        2
 62
     0
340
11
144
0.18
309
CONTENTFORMAT_END
171
     1
301
MARGIN
  1
CELLMARGIN_BEGIN
 40
0.06
 40
0.06
 40
0.06
 40
0.06
 40
0.06
 40
0.06
309
CELLMARGIN_END
 94
        6
 95
        1
302
GRIDFORMAT
  1
GRIDFORMAT_BEGIN
 90
        0
 91
        1
 62
     0
 92
       -2
340
14
 93
        0
 40
0.045
309
GRIDFORMAT_END
 95
        2
302
GRIDFORMAT
  1
GRIDFORMAT_BEGIN
 90
        0
 91
        1
 62
     0
 92
       -2
340
14
 93
        0
 40
0.045
309
GRIDFORMAT_END
 95
        4
302
GRIDFORMAT
  1
GRIDFORMAT_BEGIN
 90
        0
 91
        1
 62
     0
 92
       -2
340
14
 93
        0
 40
0.045
309
GRIDFORMAT_END
 95
        8
302
GRIDFORMAT
  1
GRIDFORMAT_BEGIN
 90
        0
 91
        1
 62
     0
 92
       -2
340
14
 93
        0
 40
0.045
309
GRIDFORMAT_END
 95
       16
302
GRIDFORMAT
  1
GRIDFORMAT_BEGIN
 90
        0
 91
        1
 62
     0
 92
       -2
340
14
 93
        0
 40
0.045
309
GRIDFORMAT_END
 95
       32
302
GRIDFORMAT
  1
GRIDFORMAT_BEGIN
 90
        0
 91
        1
 62
     0
 92
       -2
340
14
 93
        0
 40
0.045
309
GRIDFORMAT_END
309
TABLEFORMAT_END
  1
CELLSTYLE_BEGIN
 90
        3
 91
        2
300
_DATA
309
CELLSTYLE_END
  0
ENDSEC
  0
EOF
