  0
SECTION
  2
HEADER
  9
$ACADVER
  1
AC1009
  9
$INSBASE
 10
0
 20
0
 30
0
  9
$EXTMIN
 10
0
 20
0
  9
$EXTMAX
 10
4205
 20
2970
  9
$LIMMIN
 10
0
 20
0
  9
$LIMMAX
 10
4205
 20
2970
  9
$LTSCALE
 40
5
  0
ENDSEC
  0
SECTION
  2
TABLES
  0
TABLE
  2
LTYPE
 70
     9
  0
LTYPE
  2
CONTINUOUS
 70
    64
  3
実線
 72
    65
 73
     0
 40
0.0
  0
LTYPE
  2
DASHED1
 70
    64
  3
--  --  --  --  --  --  --  --  
 72
    65
 73
     2
 40
2.5
 49
1.25
 49
-1.25
  0
LTYPE
  2
DASHED2
 70
    64
  3
----    ----    ----    ----    
 72
    65
 73
     2
 40
5.0
 49
2.5
 49
-2.5
  0
LTYPE
  2
DASHED3
 70
    64
  3
------  ------  ------  ------  
 72
    65
 73
     2
 40
5.0
 49
3.75
 49
-1.25
  0
LTYPE
  2
CENTER1
 70
    64
  3
----- - ----- - ----- - ----- - 
 72
    65
 73
     4
 40
10.0
 49
6.25
 49
-1.25
 49
1.25
 49
-1.25
  0
LTYPE
  2
CENTER2
 70
    64
  3
----------  --  ----------  --  
 72
    65
 73
     4
 40
20.0
 49
12.5
 49
-2.5
 49
2.5
 49
-2.5
  0
LTYPE
  2
PHANTOM1
 70
    64
  3
--- - - --- - - --- - - --- - - 
 72
    65
 73
     6
 40
10.0
 49
3.25
 49
-1.25
 49
1.25
 49
-1.25
 49
1.25
 49
-1.25
  0
LTYPE
  2
PHANTOM2
 70
    64
  3
--------  -  -  --------  -  -  
 72
    65
 73
     6
 40
20.0
 49
10.0
 49
-2.5
 49
1.25
 49
-2.5
 49
1.25
 49
-2.5
  0
LTYPE
  2
DOT
 70
    64
  3
-   -   -   -   -   -   -   -   
 72
    65
 73
     2
 40
2.5
 49
0.625
 49
-1.875
  0
LTYPE
  2
DUMMY
 70
    64
  3
ダミー
 72
    65
 73
     0
 40
0.0
  0
LTYPE
  2
RAND1
 70
    64
  3
ランダム線1
 72
    65
 73
     4
 40
10.0
 49
1.0
 49
-2.0
 49
3.0
 49
-4.0
  0
LTYPE
  2
RAND2
 70
    64
  3
ランダム線2
 72
    65
 73
     4
 40
14.0
 49
2.0
 49
-3.0
 49
4.0
 49
-5.0
  0
LTYPE
  2
RAND3
 70
    64
  3
ランダム線3
 72
    65
 73
     4
 40
18.0
 49
3.0
 49
-4.0
 49
5.0
 49
-6.0
  0
LTYPE
  2
RAND4
 70
    64
  3
ランダム線4
 72
    65
 73
     4
 40
22.0
 49
4.0
 49
-5.0
 49
6.0
 49
-7.0
  0
LTYPE
  2
RAND5
 70
    64
  3
ランダム線5
 72
    65
 73
     4
 40
26.0
 49
5.0
 49
-6.0
 49
7.0
 49
-8.0
  0
LTYPE
  2
LONG1
 70
    64
  3
----------  --  ----------  --  
 72
    65
 73
     4
 40
40.0
 49
32.5
 49
-2.5
 49
2.5
 49
-2.5
  0
LTYPE
  2
LONG2
 70
    64
  3
--------  -  -  --------  -  -  
 72
    65
 73
     6
 40
40.0
 49
30.0
 49
-2.5
 49
1.25
 49
-2.5
 49
1.25
 49
-2.5
  0
LTYPE
  2
LONG3
 70
    64
  3
+++++++++++++++..+++++++++++++++
 72
    65
 73
     2
 40
40.0
 49
37.5
 49
-2.5
  0
LTYPE
  2
LONG4
 70
    64
  3
+++++++++++++++..+++++++++++++++
 72
    65
 73
     2
 40
80.0
 49
75.0
 49
-5.0
  0
LTYPE
  2
LONG5
 70
    64
  3
----------  --  ----------  --  
 72
    65
 73
     4
 40
60.0
 49
37.5
 49
-7.5
 49
7.5
 49
-7.5
  0
LTYPE
  2
dashed
 70
   64
  3
-------   -------------   ------
 72
   65
 73
    2
 40
7.5
 49
6
 49
-1.5
  0
LTYPE
  2
dashed_spaced
 70
   64
  3
----        --------        ----
 72
   65
 73
    2
 40
12
 49
6
 49
-6
  0
LTYPE
  2
long_dashed_dotted
 70
   64
  3
------------- --- --------------
 72
   65
 73
    4
 40
15.25
 49
12
 49
-1.5
 49
0.25
 49
-1.5
  0
LTYPE
  2
long_dashed_double-dotted
 70
   64
  3
----------- --- --- ------------
 72
   65
 73
    6
 40
17
 49
12
 49
-1.5
 49
0.25
 49
-1.5
 49
0.25
 49
-1.5
  0
LTYPE
  2
long_dashed_triplicate-dotted
 70
   64
  3
--------- --- --- --- ----------
 72
   65
 73
    8
 40
18.75
 49
12
 49
-1.5
 49
0.25
 49
-1.5
 49
0.25
 49
-1.5
 49
0.25
 49
-1.5
  0
LTYPE
  2
dotted
 70
   64
  3
   -       -       -       -    
 72
   65
 73
    2
 40
1.75
 49
0.25
 49
-1.5
  0
LTYPE
  2
chain
 70
   64
  3
-------------- -- --------------
 72
   65
 73
    4
 40
18.5
 49
12
 49
-1.5
 49
3.5
 49
-1.5
  0
LTYPE
  2
chain_double_dash
 70
   64
  3
------------ -- -- -------------
 72
   65
 73
    6
 40
23.5
 49
12
 49
-1.5
 49
3.5
 49
-1.5
 49
3.5
 49
-1.5
  0
LTYPE
  2
dashed_dotted
 70
   64
  3
-----------     -     ----------
 72
   65
 73
    4
 40
9.25
 49
6
 49
-1.5
 49
0.25
 49
-1.5
  0
LTYPE
  2
double-dashed_dotted
 70
   64
  3
------   -----------   -   -----
 72
   65
 73
    6
 40
16.75
 49
6
 49
-1.5
 49
6
 49
-1.5
 49
0.25
 49
-1.5
  0
LTYPE
  2
dashed_double-dotted
 70
   64
  3
---------    -    -    ---------
 72
   65
 73
    6
 40
11
 49
6
 49
-1.5
 49
0.25
 49
-1.5
 49
0.25
 49
-1.5
  0
LTYPE
  2
double-dashed_double-dotted
 70
   64
  3
-----   ---------   -   -   ----
 72
   65
 73
    8
 40
18.5
 49
6
 49
-1.5
 49
6
 49
-1.5
 49
0.25
 49
-1.5
 49
0.25
 49
-1.5
  0
LTYPE
  2
dashed_triplicate-dotted
 70
   64
  3
-------    -    -    -    ------
 72
   65
 73
    8
 40
12.75
 49
6
 49
-1.5
 49
0.25
 49
-1.5
 49
0.25
 49
-1.5
 49
0.25
 49
-1.5
  0
LTYPE
  2
double-dashed_triplicate-dotted
 70
   64
  3
-----  ---------  -  -  -  -----
 72
   65
 73
   10
 40
20.25
 49
6
 49
-1.5
 49
6
 49
-1.5
 49
0.25
 49
-1.5
 49
0.25
 49
-1.5
 49
0.25
 49
-1.5
  0
LTYPE
  2
undefined
 70
   64
  3
--------------------------------
 72
   65
 73
    0
 40
0
  0
ENDTAB
  0
TABLE
  2
STYLE
  5
3
100
AcDbSymbolTable
 70
     1
  0
STYLE
  5
10
100
AcDbSymbolTableRecord
100
AcDbTextStyleTableRecord
  2
STANDARD
 70
     0
 40
0.0
 41
1.0
 50
0.0
 71
     0
 42
0.2
  3
txt
  4
bigfont.shx
  0
STYLE
  5
26
100
AcDbSymbolTableRecord
100
AcDbTextStyleTableRecord
  2
TATEGAKI
 70
    68
 40
0.0
 41
1.0
 50
0.0
 71
     0
 42
1.0
  3
txt
  4
bigfont.shx
  0
ENDTAB
  0
TABLE
  2
LAYER
 70
    4
  0
LAYER
  2
_0-0_FRF74-0901
 70
   64
 62
    7
  6
CONTINUOUS
  0
LAYER
  2
_0-1_
 70
   64
 62
    7
  6
CONTINUOUS
  0
LAYER
  2
_0-2_
 70
   64
 62
    7
  6
CONTINUOUS
  0
LAYER
  2
ADD_LINE
 70
   64
 62
    7
  6
CONTINUOUS
  0
ENDTAB
  0
ENDSEC
  0
SECTION
  2
BLOCKS
  0
ENDSEC
  0
SECTION
  2
ENTITIES
  0
LINE
  8
_0-2_
  6
CONTINUOUS
 62
    7
 10
2552.566283385414
 20
1056.1979530071658
 11
1577.5662833854144
 21
1056.1979530071658
  0
LINE
  8
_0-2_
  6
CONTINUOUS
 62
    7
 10
2552.5662833856559
 20
2371.1979530071658
 11
1577.5662833856554
 21
2371.1979530071658
  0
LINE
  8
_0-2_
  6
CONTINUOUS
 62
    7
 10
1577.5662833856554
 20
2371.1979530071658
 11
1577.5662833856554
 21
971.19795300716578
  0
LINE
  8
_0-2_
  6
CONTINUOUS
 62
    7
 10
1577.5662833856554
 20
971.19795300716578
 11
2552.5662833856559
 21
971.19795300716578
  0
LINE
  8
_0-2_
  6
CONTINUOUS
 62
    7
 10
2552.5662833856559
 20
971.19795300716578
 11
2552.5662833856559
 21
2371.1979530071658
  0
LINE
  8
_0-2_
  6
CONTINUOUS
 62
    7
 10
2552.566283385414
 20
1098.6979530071658
 11
1577.5662833854144
 21
1098.6979530071658
  0
LINE
  8
_0-2_
  6
CONTINUOUS
 62
    7
 10
2552.5662833856559
 20
1013.6979530071658
 11
2176.0662833856559
 21
1013.6979530071658
  0
LINE
  8
_0-2_
  6
CONTINUOUS
 62
    7
 10
2427.066283385785
 20
1013.6979530071658
 11
2427.066283385785
 21
1056.1979530071658
  0
LINE
  8
_0-2_
  6
CONTINUOUS
 62
    7
 10
2301.566283385785
 20
1013.6979530071658
 11
2301.566283385785
 21
1056.1979530071658
  0
LINE
  8
_0-2_
  6
CONTINUOUS
 62
    7
 10
2176.066283385785
 20
971.19795300716578
 11
2176.066283385785
 21
1098.6979530071658
  0
TEXT
  8
_0-2_
 62
    7
 10
2196.3388549397118
 20
983.13221232091132
 40
15
 41
1
 50
0
  1
大洋金物株式会社 ティーフォルム事業部
  0
TEXT
  8
_0-2_
 62
    7
 10
1582.8750828572131
 20
1080.7343511503877
 40
11
 41
1
 50
0
  1
品名
  0
TEXT
  8
_0-2_
 62
    7
 10
1584.6653190366922
 20
1037.1766457401898
 40
11
 41
1
 50
0
  1
仕様
  0
TEXT
  8
_0-2_
 62
    7
 10
2183.0590642652819
 20
1080.1315954814579
 40
11
 41
1
 50
0
  1
品番
  0
TEXT
  8
_0-2_
 62
    7
 10
2183.0568574992371
 20
1037.182349606808
 40
11
 41
1
 50
0
  1
重量
  0
TEXT
  8
_0-2_
 62
    7
 10
2308.1776163454042
 20
1037.5114084130682
 40
11
 41
1
 50
0
  1
容量
  0
TEXT
  8
_0-2_
 62
    7
 10
2433.6646030852935
 20
1037.4114153200876
 40
11
 41
1
 50
0
  1
縮尺
  0
TEXT
  8
_0-2_
 62
    7
 10
2211.5256034060785
 20
1065.334252852228
 40
15
 41
1
 50
0
  1
FRF74-0901
  0
TEXT
  8
_0-2_
 62
    7
 10
1578.1476923649509
 20
947.26970852156592
 40
15
 41
1
 50
0
  1
120912S
  0
LINE
  8
_0-1_
  6
CONTINUOUS
 62
    4
 10
1685.3048221386759
 20
1933.6367981307585
 11
2245.3048221386762
 21
1933.6367981307585
  0
POINT
  8
_0-1_
 62
    7
 10
1685.3048221386759
 20
1933.6367981307585
  0
POINT
  8
_0-1_
 62
    7
 10
2245.3048221386762
 20
1933.6367981307585
  0
LINE
  8
_0-1_
  6
CONTINUOUS
 62
    4
 10
1685.3048221386759
 20
1933.6367981307585
 11
1685.3048221386759
 21
1898.6367981307585
  0
LINE
  8
_0-1_
  6
CONTINUOUS
 62
    4
 10
2245.3048221386762
 20
1933.6367981307585
 11
2245.3048221386762
 21
1900.3976069523426
  0
TEXT
  8
_0-1_
 62
    4
 10
1955.9298221386759
 20
1936.1367981307585
 40
12.5
 41
1
 50
0
  1
560
  0
LINE
  8
_0-1_
  6
CONTINUOUS
 62
    4
 10
2452.263698046384
 20
1933.6367981307585
 11
2438.7636973655576
 21
1933.6367981307585
  0
POINT
  8
_0-1_
 62
    7
 10
2452.263698046384
 20
1933.6367981307585
  0
POINT
  8
_0-1_
 62
    7
 10
2438.7636973655576
 20
1933.6367981307585
  0
LINE
  8
_0-1_
  6
CONTINUOUS
 62
    4
 10
2452.263698046384
 20
1933.6367981307585
 11
2452.263698046384
 21
1898.6367981307585
  0
LINE
  8
_0-1_
  6
CONTINUOUS
 62
    4
 10
2438.7636973655576
 20
1933.6367981307585
 11
2438.7636973655576
 21
1898.1368064591652
  0
TEXT
  8
_0-1_
 62
    4
 10
2433.013697705971
 20
1936.1367981307585
 40
12.5
 41
1
 50
0
  1
13.5
  0
LINE
  8
_0-1_
  6
CONTINUOUS
 62
    4
 10
2502.263698046384
 20
1833.6368011109907
 11
2502.263698046384
 21
1883.6367981307585
  0
POINT
  8
_0-1_
 62
    7
 10
2502.263698046384
 20
1833.6368011109907
  0
POINT
  8
_0-1_
 62
    7
 10
2502.263698046384
 20
1883.6367981307585
  0
LINE
  8
_0-1_
  6
CONTINUOUS
 62
    4
 10
2502.263698046384
 20
1833.6368011109907
 11
2467.263698046384
 21
1833.6368011109907
  0
LINE
  8
_0-1_
  6
CONTINUOUS
 62
    4
 10
2502.263698046384
 20
1883.6367981307585
 11
2467.263698046384
 21
1883.6367981307585
  0
TEXT
  8
_0-1_
 62
    4
 10
2499.763698046384
 20
1852.3867996208746
 40
12.5
 41
1
 50
90
  1
50
  0
LINE
  8
_0-1_
  6
CONTINUOUS
 62
    4
 10
2327.9636976023294
 20
1868.1368064591652
 11
2327.9636976023294
 21
1849.1368064591652
  0
POINT
  8
_0-1_
 62
    7
 10
2327.9636976023294
 20
1868.1368064591652
  0
POINT
  8
_0-1_
 62
    7
 10
2327.9636976023294
 20
1849.1368064591652
  0
LINE
  8
_0-1_
  6
CONTINUOUS
 62
    4
 10
2327.9636976023294
 20
1868.1368064591652
 11
2363.4636976842858
 21
1868.1368064591652
  0
LINE
  8
_0-1_
  6
CONTINUOUS
 62
    4
 10
2327.9636976023294
 20
1849.1368064591652
 11
2363.4636973655579
 21
1849.1368064591652
  0
TEXT
  8
_0-1_
 62
    4
 10
2325.4636976023294
 20
1852.3868064591652
 40
12.5
 41
1
 50
90
  1
19
  0
TEXT
  8
_0-1_
 62
    4
 10
2325.8408780701734
 20
1841.2969807405289
 40
12.5
 41
1
 50
90
  1
φ
  0
TEXT
  8
_0-1_
 62
    4
 10
2499.0236230514779
 20
1839.4185812058099
 40
12.5
 41
1
 50
90
  1
φ
  0
LINE
  8
_0-1_
  6
CONTINUOUS
 62
    4
 10
2320.3048138102695
 20
1593.5348636938081
 11
2320.3048138102695
 21
1519.234863012982
  0
POINT
  8
_0-1_
 62
    7
 10
2320.3048138102695
 20
1593.5348636938081
  0
POINT
  8
_0-1_
 62
    7
 10
2320.3048138102695
 20
1519.234863012982
  0
LINE
  8
_0-1_
  6
CONTINUOUS
 62
    4
 10
2320.3048138102695
 20
1593.5348636938081
 11
2285.3048138102695
 21
1593.5348636938081
  0
LINE
  8
_0-1_
  6
CONTINUOUS
 62
    4
 10
2320.3048138102695
 20
1519.234863012982
 11
2269.3048221386762
 21
1519.234863012982
  0
TEXT
  8
_0-1_
 62
    4
 10
2317.8048138102695
 20
1543.8848633533951
 40
12.5
 41
1
 50
90
  1
74.3
  0
LINE
  8
_0-1_
  6
CONTINUOUS
 62
    4
 10
2104.2790130129206
 20
1533.734863007144
 11
2104.2790130129206
 21
1520.7348625643001
  0
POINT
  8
_0-1_
 62
    7
 10
2104.2790130129206
 20
1533.734863007144
  0
POINT
  8
_0-1_
 62
    7
 10
2104.2790130129206
 20
1520.7348625643001
  0
TEXT
  8
_0-1_
 62
    4
 10
2102.3259761232193
 20
1499.1432379676075
 40
12.5
 41
1
 50
90
  1
13
  0
TEXT
  8
_0-1_
 62
    4
 10
2102.3259761232193
 20
1489.7689428499939
 40
12.5
 41
1
 50
90
  1
φ
  0
LINE
  8
_0-1_
  6
CONTINUOUS
 62
    7
 10
2104.2790130129206
 20
1520.7348625643001
 11
2104.2790130129206
 21
1490.2572020724192
  0
LINE
  8
_0-0_FRF74-0901
  6
CONTINUOUS
 62
    7
 10
2242.8048102339908
 20
1833.7621127550894
 11
2242.8048102339908
 21
1833.2512487953002
  0
LINE
  8
_0-0_FRF74-0901
  6
CONTINUOUS
 62
    7
 10
2247.8048352679416
 20
1833.2512487953002
 11
2247.8048352679416
 21
1833.7621127550894
  0
LINE
  8
_0-0_FRF74-0901
  6
CONTINUOUS
 62
    7
 10
2242.8048102339908
 20
1833.2512487953002
 11
2243.3048335990115
 21
1832.7512496446664
  0
LINE
  8
_0-0_FRF74-0901
  6
CONTINUOUS
 62
    7
 10
2247.3048119029208
 20
1832.7512496446664
 11
2247.8048352679416
 21
1833.2512487953002
  0
LINE
  8
_0-0_FRF74-0901
  6
CONTINUOUS
 62
    7
 10
1682.8048078498048
 20
1833.2512487953002
 11
1683.3048312148255
 21
1832.7512496446664
  0
LINE
  8
_0-0_FRF74-0901
  6
CONTINUOUS
 62
    7
 10
1687.3048095187348
 20
1832.7512496446664
 11
1687.8048328837556
 21
1833.2512487953002
  0
LINE
  8
_0-0_FRF74-0901
  6
CONTINUOUS
 62
    7
 10
1682.8048078498048
 20
1833.7621127550894
 11
1682.8048078498048
 21
1833.2512487953002
  0
LINE
  8
_0-0_FRF74-0901
  6
CONTINUOUS
 62
    7
 10
1687.8048328837556
 20
1833.2512487953002
 11
1687.8048328837556
 21
1833.7621127550894
  0
LINE
  8
_0-0_FRF74-0901
  6
CONTINUOUS
 62
    7
 10
1692.2330109557313
 20
1852.136798127781
 11
2238.3766172608539
 21
1852.136798127781
  0
LINE
  8
_0-0_FRF74-0901
  6
CONTINUOUS
 62
    7
 10
2238.3766172608539
 20
1865.136798221379
 11
1692.2330109557313
 21
1865.136798221379
  0
LINE
  8
_0-0_FRF74-0901
  6
CONTINUOUS
 62
    7
 10
2247.1028713664218
 20
1833.2512487953002
 11
2247.8048352679416
 21
1833.2512487953002
  0
LINE
  8
_0-0_FRF74-0901
  6
CONTINUOUS
 62
    7
 10
2242.8048102339908
 20
1833.2512487953002
 11
2247.1028713664218
 21
1833.2512487953002
  0
LINE
  8
_0-0_FRF74-0901
  6
CONTINUOUS
 62
    7
 10
2246.7432467421695
 20
1832.7512496446664
 11
2243.3048335990115
 21
1832.7512496446664
  0
LINE
  8
_0-0_FRF74-0901
  6
CONTINUOUS
 62
    7
 10
2247.3048119029208
 20
1832.7512496446664
 11
2246.7432467421695
 21
1832.7512496446664
  0
LINE
  8
_0-0_FRF74-0901
  6
CONTINUOUS
 62
    7
 10
1687.1028689822358
 20
1833.2512487953002
 11
1687.8048328837556
 21
1833.2512487953002
  0
LINE
  8
_0-0_FRF74-0901
  6
CONTINUOUS
 62
    7
 10
1682.8048078498048
 20
1833.2512487953002
 11
1687.1028689822358
 21
1833.2512487953002
  0
LINE
  8
_0-0_FRF74-0901
  6
CONTINUOUS
 62
    7
 10
1686.7432443579835
 20
1832.7512496446664
 11
1683.3048312148255
 21
1832.7512496446664
  0
LINE
  8
_0-0_FRF74-0901
  6
CONTINUOUS
 62
    7
 10
1687.3048095187348
 20
1832.7512496446664
 11
1686.7432443579835
 21
1832.7512496446664
  0
ARC
  8
_0-0_FRF74-0901
  6
CONTINUOUS
 62
    7
 10
1685.3048221386759
 20
1858.6367981307585
 40
20.99999999999994
 50
18.030535393338013
 51
341.96946460666283
  0
ARC
  8
_0-0_FRF74-0901
  6
CONTINUOUS
 62
    7
 10
1685.3048221386759
 20
1858.6367981307585
 40
24.999999999999986
 50
15.070062144888844
 51
344.92993785511192
  0
ARC
  8
_0-0_FRF74-0901
  6
CONTINUOUS
 62
    7
 10
1685.3048221386759
 20
1858.6367981307585
 40
15.99999999999997
 50
23.969482317759727
 51
336.03051768224111
  0
ARC
  8
_0-0_FRF74-0901
  6
CONTINUOUS
 62
    7
 10
2245.3048221386762
 20
1858.6367981307585
 40
25.000000000000018
 50
195.07006214488962
 51
0
  0
ARC
  8
_0-0_FRF74-0901
  6
CONTINUOUS
 62
    7
 10
2245.3048221386762
 20
1858.6367981307585
 40
25
 50
0
 51
164.92993785511121
  0
ARC
  8
_0-0_FRF74-0901
  6
CONTINUOUS
 62
    7
 10
2245.3048221386762
 20
1858.6367981307585
 40
16.000000000000011
 50
203.96948231776051
 51
0
  0
ARC
  8
_0-0_FRF74-0901
  6
CONTINUOUS
 62
    7
 10
2245.3048221386762
 20
1858.6367981307585
 40
16
 50
0
 51
156.03051768224032
  0
ARC
  8
_0-0_FRF74-0901
  6
CONTINUOUS
 62
    7
 10
2245.3048221386762
 20
1858.6367981307585
 40
21
 50
0
 51
161.96946460666209
  0
ARC
  8
_0-0_FRF74-0901
  6
CONTINUOUS
 62
    7
 10
2245.3048221386762
 20
1858.6367981307585
 40
20.999999999999975
 50
198.03053539333879
 51
0
  0
LINE
  8
_0-0_FRF74-0901
  6
CONTINUOUS
 62
    7
 10
1687.238558956067
 20
1867.9379054640824
 11
1685.7597379168672
 21
1868.1258994450266
  0
LINE
  8
_0-0_FRF74-0901
  6
CONTINUOUS
 62
    7
 10
1685.7597379168672
 20
1868.1258994450266
 11
1685.3048352679414
 21
1868.1367977817947
  0
ARC
  8
_0-0_FRF74-0901
  6
CONTINUOUS
 62
    7
 10
1685.3048221386759
 20
1858.6367981307585
 40
9.500000000000016
 50
43.173551107258362
 51
78.255206190708066
  0
ARC
  8
_0-0_FRF74-0901
  6
CONTINUOUS
 62
    7
 10
2245.3048221386762
 20
1858.6367981307585
 40
9.4999999999999982
 50
78.255206190707398
 51
136.82644889274067
  0
ARC
  8
_0-0_FRF74-0901
  6
CONTINUOUS
 62
    7
 10
2245.3048221386762
 20
1858.6367981307585
 40
9.5000000000001137
 50
0
 51
78.255206190707554
  0
CIRCLE
  8
_0-0_FRF74-0901
  6
CONTINUOUS
 62
    7
 10
1685.3048221386759
 20
1858.6367981307585
 40
9.5
  0
CIRCLE
  8
_0-0_FRF74-0901
  6
CONTINUOUS
 62
    7
 10
2245.3048221386762
 20
1858.6367981307585
 40
9.5
  0
LINE
  8
_0-0_FRF74-0901
  6
CONTINUOUS
 62
    7
 10
2235.8521668395206
 20
1533.6654569780742
 11
2235.868573017995
 21
1533.6413298153141
  0
LINE
  8
_0-0_FRF74-0901
  6
CONTINUOUS
 62
    7
 10
2235.868573017995
 20
1533.6413298153141
 11
2236.2243233403369
 21
1533.1047388261006
  0
LINE
  8
_0-0_FRF74-0901
  6
CONTINUOUS
 62
    7
 10
2236.2243233403369
 20
1533.1047388261006
 11
2236.8512449940845
 21
1532.0787205362515
  0
LINE
  8
_0-0_FRF74-0901
  6
CONTINUOUS
 62
    7
 10
2236.8512449940845
 20
1532.0787205362515
 11
2237.6805840214893
 21
1530.4174678401844
  0
LINE
  8
_0-0_FRF74-0901
  6
CONTINUOUS
 62
    7
 10
2237.6805840214893
 20
1530.4174678401844
 11
2238.2358608922168
 21
1528.6385157612906
  0
LINE
  8
_0-0_FRF74-0901
  6
CONTINUOUS
 62
    7
 10
2238.2358608922168
 20
1528.6385157612906
 11
2238.3730260810062
 21
1527.0118505229996
  0
LINE
  8
_0-0_FRF74-0901
  6
CONTINUOUS
 62
    7
 10
2238.3730260810062
 20
1527.0118505229996
 11
2238.1401507338687
 21
1525.4093437922941
  0
LINE
  8
_0-0_FRF74-0901
  6
CONTINUOUS
 62
    7
 10
2238.1401507338687
 20
1525.4093437922941
 11
2237.4622075041934
 21
1523.559740884398
  0
LINE
  8
_0-0_FRF74-0901
  6
CONTINUOUS
 62
    7
 10
2237.4622075041934
 20
1523.559740884398
 11
2236.6631178340122
 21
1522.0696825070129
  0
LINE
  8
_0-0_FRF74-0901
  6
CONTINUOUS
 62
    7
 10
2236.6631178340122
 20
1522.0696825070129
 11
2236.2762389859363
 21
1521.4456172196017
  0
LINE
  8
_0-0_FRF74-0901
  6
CONTINUOUS
 62
    7
 10
2236.2762389859363
 20
1521.4456172196017
 11
2235.9764574250385
 21
1520.9883890582071
  0
LINE
  8
_0-0_FRF74-0901
  6
CONTINUOUS
 62
    7
 10
2235.9764574250385
 20
1520.9883890582071
 11
2235.8048258504077
 21
1520.7348625643001
  0
LINE
  8
_0-0_FRF74-0901
  6
CONTINUOUS
 62
    7
 10
1660.3048293074769
 20
1593.5348636938081
 11
1660.3048293074769
 21
1580.5348634255872
  0
LINE
  8
_0-0_FRF74-0901
  6
CONTINUOUS
 62
    7
 10
1710.3048114260835
 20
1580.5348634255872
 11
1710.3048114260835
 21
1593.5348636938081
  0
ARC
  8
_0-0_FRF74-0901
  6
CONTINUOUS
 62
    7
 10
1709.8048221386762
 20
1580.534863012982
 40
0.5
 50
270
 51
0
  0
ARC
  8
_0-0_FRF74-0901
  6
CONTINUOUS
 62
    7
 10
1660.8048221386762
 20
1580.534863012982
 40
0.5
 50
180
 51
270
  0
LINE
  8
_0-0_FRF74-0901
  6
CONTINUOUS
 62
    7
 10
2220.3048167905017
 20
1593.5348636938081
 11
2220.3048167905017
 21
1580.5348634255872
  0
LINE
  8
_0-0_FRF74-0901
  6
CONTINUOUS
 62
    7
 10
2270.3048138102695
 20
1580.5348634255872
 11
2270.3048138102695
 21
1593.5348636938081
  0
ARC
  8
_0-0_FRF74-0901
  6
CONTINUOUS
 62
    7
 10
2269.8048221386762
 20
1580.534863012982
 40
0.5
 50
270
 51
0
  0
ARC
  8
_0-0_FRF74-0901
  6
CONTINUOUS
 62
    7
 10
2220.8048221386762
 20
1580.534863012982
 40
0.5
 50
180
 51
270
  0
LINE
  8
_0-0_FRF74-0901
  6
CONTINUOUS
 62
    7
 10
1675.8048085650605
 20
1580.0348624123083
 11
1675.8048085650605
 21
1535.2348629619748
  0
LINE
  8
_0-0_FRF74-0901
  6
CONTINUOUS
 62
    7
 10
1694.8048321684998
 20
1535.2348629619748
 11
1694.8048321684998
 21
1580.0348624123083
  0
LINE
  8
_0-0_FRF74-0901
  6
CONTINUOUS
 62
    7
 10
2235.8048258504077
 20
1580.0348624123083
 11
2235.8048258504077
 21
1535.2348629619748
  0
LINE
  8
_0-0_FRF74-0901
  6
CONTINUOUS
 62
    7
 10
2254.8048345526859
 20
1535.2348629619748
 11
2254.8048345526859
 21
1580.0348624123083
  0
LINE
  8
_0-0_FRF74-0901
  6
CONTINUOUS
 62
    7
 10
1694.8048321684998
 20
1533.734863007144
 11
1694.8048321684998
 21
1535.2348629619748
  0
LINE
  8
_0-0_FRF74-0901
  6
CONTINUOUS
 62
    7
 10
1694.8048321684998
 20
1519.7348633317099
 11
1694.8048321684998
 21
1520.7348625643001
  0
LINE
  8
_0-0_FRF74-0901
  6
CONTINUOUS
 62
    7
 10
1675.8048085650605
 20
1535.2348629619748
 11
1675.8048085650605
 21
1519.7348633317099
  0
ARC
  8
_0-0_FRF74-0901
  6
CONTINUOUS
 62
    7
 10
1676.3048221386759
 20
1519.734863012982
 40
0.5
 50
180
 51
270
  0
ARC
  8
_0-0_FRF74-0901
  6
CONTINUOUS
 62
    7
 10
1694.3048221386762
 20
1519.734863012982
 40
0.5
 50
270
 51
0
  0
LINE
  8
_0-0_FRF74-0901
  6
CONTINUOUS
 62
    7
 10
2254.8048345526859
 20
1519.7348633317099
 11
2254.8048345526859
 21
1535.2348629619748
  0
LINE
  8
_0-0_FRF74-0901
  6
CONTINUOUS
 62
    7
 10
2235.8048258504077
 20
1520.7348625643001
 11
2235.8048258504077
 21
1519.7348633317099
  0
LINE
  8
_0-0_FRF74-0901
  6
CONTINUOUS
 62
    7
 10
2235.8048258504077
 20
1535.2348629619748
 11
2235.8048258504077
 21
1533.734863007144
  0
ARC
  8
_0-0_FRF74-0901
  6
CONTINUOUS
 62
    7
 10
2236.3048221386762
 20
1519.734863012982
 40
0.5
 50
180
 51
270
  0
ARC
  8
_0-0_FRF74-0901
  6
CONTINUOUS
 62
    7
 10
2254.3048221386762
 20
1519.734863012982
 40
0.5000000000001135
 50
270
 51
0
  0
LINE
  8
_0-0_FRF74-0901
  6
CONTINUOUS
 62
    7
 10
1694.8048321684998
 20
1520.7348625643001
 11
2235.8048258504077
 21
1520.7348625643001
  0
LINE
  8
_0-0_FRF74-0901
  6
CONTINUOUS
 62
    7
 10
2235.8048258504077
 20
1533.734863007144
 11
1694.8048321684998
 21
1533.734863007144
  0
LINE
  8
_0-0_FRF74-0901
  6
CONTINUOUS
 62
    7
 10
1660.3048293074769
 20
1593.5348636938081
 11
1710.3048114260835
 21
1593.5348636938081
  0
LINE
  8
_0-0_FRF74-0901
  6
CONTINUOUS
 62
    7
 10
1709.8048178633851
 20
1580.0348624123083
 11
1660.8048228701753
 21
1580.0348624123083
  0
LINE
  8
_0-0_FRF74-0901
  6
CONTINUOUS
 62
    7
 10
2220.3048167905017
 20
1593.5348636938081
 11
2270.3048138102695
 21
1593.5348636938081
  0
LINE
  8
_0-0_FRF74-0901
  6
CONTINUOUS
 62
    7
 10
2269.8048202475711
 20
1580.0348624123083
 11
2220.8048252543613
 21
1580.0348624123083
  0
LINE
  8
_0-0_FRF74-0901
  6
CONTINUOUS
 62
    7
 10
1687.238558956067
 20
1535.2348629619748
 11
1675.8048085650605
 21
1535.2348629619748
  0
LINE
  8
_0-0_FRF74-0901
  6
CONTINUOUS
 62
    7
 10
1694.8048321684998
 20
1535.2348629619748
 11
1687.238558956067
 21
1535.2348629619748
  0
LINE
  8
_0-0_FRF74-0901
  6
CONTINUOUS
 62
    7
 10
2247.238561340253
 20
1535.2348629619748
 11
2235.8048258504077
 21
1535.2348629619748
  0
LINE
  8
_0-0_FRF74-0901
  6
CONTINUOUS
 62
    7
 10
2254.8048345526859
 20
1535.2348629619748
 11
2247.238561340253
 21
1535.2348629619748
  0
LINE
  8
_0-0_FRF74-0901
  6
CONTINUOUS
 62
    7
 10
1694.8048321684998
 20
1535.2348629619748
 11
1675.8048085650605
 21
1535.2348629619748
  0
LINE
  8
_0-0_FRF74-0901
  6
CONTINUOUS
 62
    7
 10
1694.3048088034791
 20
1519.2348632497535
 11
1676.3048319300813
 21
1519.2348632497535
  0
LINE
  8
_0-0_FRF74-0901
  6
CONTINUOUS
 62
    7
 10
2254.8048345526859
 20
1535.2348629619748
 11
2235.8048258504077
 21
1535.2348629619748
  0
LINE
  8
_0-0_FRF74-0901
  6
CONTINUOUS
 62
    7
 10
2254.3048111876651
 20
1519.2348632497535
 11
2236.3048194131061
 21
1519.2348632497535
  0
LINE
  8
_0-0_FRF74-0901
  6
CONTINUOUS
 62
    7
 10
1694.6969477614564
 20
1521.081922250037
 11
1694.8685793360871
 21
1520.82839575613
  0
LINE
  8
_0-0_FRF74-0901
  6
CONTINUOUS
 62
    7
 10
1694.3971662005586
 20
1521.5391504114316
 11
1694.6969477614564
 21
1521.081922250037
  0
LINE
  8
_0-0_FRF74-0901
  6
CONTINUOUS
 62
    7
 10
1694.0102873524827
 20
1522.1632156988428
 11
1694.3971662005586
 21
1521.5391504114316
  0
LINE
  8
_0-0_FRF74-0901
  6
CONTINUOUS
 62
    7
 10
1693.2111976823014
 20
1523.6532740762279
 11
1694.0102873524827
 21
1522.1632156988428
  0
LINE
  8
_0-0_FRF74-0901
  6
CONTINUOUS
 62
    7
 10
1692.5332544526261
 20
1525.502876984124
 11
1693.2111976823014
 21
1523.6532740762279
  0
LINE
  8
_0-0_FRF74-0901
  6
CONTINUOUS
 62
    7
 10
1692.3003791054887
 20
1527.1053837148295
 11
1692.5332544526261
 21
1525.502876984124
  0
LINE
  8
_0-0_FRF74-0901
  6
CONTINUOUS
 62
    7
 10
1692.437544294278
 20
1528.7320489531205
 11
1692.3003791054887
 21
1527.1053837148295
  0
LINE
  8
_0-0_FRF74-0901
  6
CONTINUOUS
 62
    7
 10
1692.9928211650056
 20
1530.5110010320143
 11
1692.437544294278
 21
1528.7320489531205
  0
LINE
  8
_0-0_FRF74-0901
  6
CONTINUOUS
 62
    7
 10
1693.8221601924104
 20
1532.1722537280814
 11
1692.9928211650056
 21
1530.5110010320143
  0
LINE
  8
_0-0_FRF74-0901
  6
CONTINUOUS
 62
    7
 10
1694.4490818461579
 20
1533.1982720179305
 11
1693.8221601924104
 21
1532.1722537280814
  0
LINE
  8
_0-0_FRF74-0901
  6
CONTINUOUS
 62
    7
 10
1694.8048321684998
 20
1533.734863007144
 11
1694.4490818461579
 21
1533.1982720179305
  0
LINE
  8
_0-0_FRF74-0901
  6
CONTINUOUS
 62
    7
 10
1694.8212383469743
 20
1533.7589901699041
 11
1694.8048321684998
 21
1533.734863007144
  0
LINE
  8
_0-0_FRF74-0901
  6
CONTINUOUS
 62
    7
 10
2452.263698046384
 20
1833.6368011109907
 11
2439.2636977781631
 21
1833.6368011109907
  0
LINE
  8
_0-0_FRF74-0901
  6
CONTINUOUS
 62
    7
 10
2439.2636977781631
 20
1883.6367981307585
 11
2452.263698046384
 21
1883.6367981307585
  0
ARC
  8
_0-0_FRF74-0901
  6
CONTINUOUS
 62
    7
 10
2439.2636973655581
 20
1883.1368064591652
 40
0.5
 50
90
 51
180
  0
ARC
  8
_0-0_FRF74-0901
  6
CONTINUOUS
 62
    7
 10
2439.2636973655581
 20
1834.1368064591654
 40
0.5
 50
180
 51
270
  0
LINE
  8
_0-0_FRF74-0901
  6
CONTINUOUS
 62
    7
 10
2438.7636967648841
 20
1849.1368101708968
 11
2393.9636973145507
 21
1849.1368101708968
  0
LINE
  8
_0-0_FRF74-0901
  6
CONTINUOUS
 62
    7
 10
2393.9636973145507
 20
1868.1368188731749
 11
2438.7636967648841
 21
1868.1368188731749
  0
LINE
  8
_0-0_FRF74-0901
  6
CONTINUOUS
 62
    7
 10
2378.4636976842858
 20
1868.1368188731749
 11
2393.9636973145507
 21
1868.1368188731749
  0
ARC
  8
_0-0_FRF74-0901
  6
CONTINUOUS
 62
    7
 10
2378.4636973655579
 20
1849.6368064591652
 40
0.5
 50
180
 51
270
  0
ARC
  8
_0-0_FRF74-0901
  6
CONTINUOUS
 62
    7
 10
2378.4636973655579
 20
1867.6368064591652
 40
0.5000000000001135
 50
90
 51
180
  0
LINE
  8
_0-0_FRF74-0901
  6
CONTINUOUS
 62
    7
 10
2452.263698046384
 20
1833.6368011109907
 11
2452.263698046384
 21
1883.6367981307585
  0
LINE
  8
_0-0_FRF74-0901
  6
CONTINUOUS
 62
    7
 10
2438.7636967648841
 20
1883.1368045680601
 11
2438.7636967648841
 21
1834.1368095748503
  0
LINE
  8
_0-0_FRF74-0901
  6
CONTINUOUS
 62
    7
 10
2393.9636973145507
 20
1860.570545660742
 11
2393.9636973145507
 21
1849.1368101708968
  0
LINE
  8
_0-0_FRF74-0901
  6
CONTINUOUS
 62
    7
 10
2393.9636973145507
 20
1868.1368188731749
 11
2393.9636973145507
 21
1860.570545660742
  0
LINE
  8
_0-0_FRF74-0901
  6
CONTINUOUS
 62
    7
 10
2393.9636973145507
 20
1868.1368188731749
 11
2393.9636973145507
 21
1849.1368101708968
  0
LINE
  8
_0-0_FRF74-0901
  6
CONTINUOUS
 62
    7
 10
2377.9636976023294
 20
1867.6367955081541
 11
2377.9636976023294
 21
1849.6368037335951
  0
LINE
  8
_0-0_FRF74-0901
  6
CONTINUOUS
 62
    7
 10
2393.9636973145507
 20
1849.1368101708968
 11
2378.4636976842858
 21
1849.1368101708968
  0
TEXT
  8
_0-2_
 62
    7
 10
1614.6943364596746
 20
1066.3317848654224
 40
15
 41
1
 50
0
  1
タオルバー　-LANGBERGER,Orta-
  0
TEXT
  8
_0-2_
 62
    7
 10
1613.1401356379224
 20
1018.1913530824659
 40
15
 41
1
 50
0
  1
クローム
  0
LINE
  8
_0-1_
  6
CONTINUOUS
 62
    4
 10
1660.3048221386759
 20
1973.6367981307585
 11
2270.3048221386762
 21
1973.6367981307585
  0
POINT
  8
_0-1_
 62
    7
 10
1660.3048221386759
 20
1973.6367981307585
  0
POINT
  8
_0-1_
 62
    7
 10
2270.3048221386762
 20
1973.6367981307585
  0
TEXT
  8
_0-1_
 62
    4
 10
1955.9298221386759
 20
1976.1367981307585
 40
12.5
 41
1
 50
0
  1
610
  0
LINE
  8
_0-1_
  6
CONTINUOUS
 62
    4
 10
2270.3048221386762
 20
1973.6367981307585
 11
2270.3048221386762
 21
1873.6367981307585
  0
LINE
  8
_0-1_
  6
CONTINUOUS
 62
    4
 10
1660.3048221386759
 20
1973.6367981307585
 11
1660.3048221386759
 21
1873.6367981307585
  0
ENDSEC
  0
EOF
