  0
SECTION
  2
HEADER
  9
$ACADVER
  1
AC1009
  9
$INSBASE
 10
0
 20
0
 30
0
  9
$EXTMIN
 10
0
 20
0
  9
$EXTMAX
 10
4205
 20
2970
  9
$LIMMIN
 10
0
 20
0
  9
$LIMMAX
 10
4205
 20
2970
  9
$LTSCALE
 40
5
  0
ENDSEC
  0
SECTION
  2
TABLES
  0
TABLE
  2
LTYPE
 70
     9
  0
LTYPE
  2
CONTINUOUS
 70
    64
  3
実線
 72
    65
 73
     0
 40
0.0
  0
LTYPE
  2
DASHED1
 70
    64
  3
--  --  --  --  --  --  --  --  
 72
    65
 73
     2
 40
2.5
 49
1.25
 49
-1.25
  0
LTYPE
  2
DASHED2
 70
    64
  3
----    ----    ----    ----    
 72
    65
 73
     2
 40
5.0
 49
2.5
 49
-2.5
  0
LTYPE
  2
DASHED3
 70
    64
  3
------  ------  ------  ------  
 72
    65
 73
     2
 40
5.0
 49
3.75
 49
-1.25
  0
LTYPE
  2
CENTER1
 70
    64
  3
----- - ----- - ----- - ----- - 
 72
    65
 73
     4
 40
10.0
 49
6.25
 49
-1.25
 49
1.25
 49
-1.25
  0
LTYPE
  2
CENTER2
 70
    64
  3
----------  --  ----------  --  
 72
    65
 73
     4
 40
20.0
 49
12.5
 49
-2.5
 49
2.5
 49
-2.5
  0
LTYPE
  2
PHANTOM1
 70
    64
  3
--- - - --- - - --- - - --- - - 
 72
    65
 73
     6
 40
10.0
 49
3.25
 49
-1.25
 49
1.25
 49
-1.25
 49
1.25
 49
-1.25
  0
LTYPE
  2
PHANTOM2
 70
    64
  3
--------  -  -  --------  -  -  
 72
    65
 73
     6
 40
20.0
 49
10.0
 49
-2.5
 49
1.25
 49
-2.5
 49
1.25
 49
-2.5
  0
LTYPE
  2
DOT
 70
    64
  3
-   -   -   -   -   -   -   -   
 72
    65
 73
     2
 40
2.5
 49
0.625
 49
-1.875
  0
LTYPE
  2
DUMMY
 70
    64
  3
ダミー
 72
    65
 73
     0
 40
0.0
  0
LTYPE
  2
RAND1
 70
    64
  3
ランダム線1
 72
    65
 73
     4
 40
10.0
 49
1.0
 49
-2.0
 49
3.0
 49
-4.0
  0
LTYPE
  2
RAND2
 70
    64
  3
ランダム線2
 72
    65
 73
     4
 40
14.0
 49
2.0
 49
-3.0
 49
4.0
 49
-5.0
  0
LTYPE
  2
RAND3
 70
    64
  3
ランダム線3
 72
    65
 73
     4
 40
18.0
 49
3.0
 49
-4.0
 49
5.0
 49
-6.0
  0
LTYPE
  2
RAND4
 70
    64
  3
ランダム線4
 72
    65
 73
     4
 40
22.0
 49
4.0
 49
-5.0
 49
6.0
 49
-7.0
  0
LTYPE
  2
RAND5
 70
    64
  3
ランダム線5
 72
    65
 73
     4
 40
26.0
 49
5.0
 49
-6.0
 49
7.0
 49
-8.0
  0
LTYPE
  2
LONG1
 70
    64
  3
----------  --  ----------  --  
 72
    65
 73
     4
 40
40.0
 49
32.5
 49
-2.5
 49
2.5
 49
-2.5
  0
LTYPE
  2
LONG2
 70
    64
  3
--------  -  -  --------  -  -  
 72
    65
 73
     6
 40
40.0
 49
30.0
 49
-2.5
 49
1.25
 49
-2.5
 49
1.25
 49
-2.5
  0
LTYPE
  2
LONG3
 70
    64
  3
+++++++++++++++..+++++++++++++++
 72
    65
 73
     2
 40
40.0
 49
37.5
 49
-2.5
  0
LTYPE
  2
LONG4
 70
    64
  3
+++++++++++++++..+++++++++++++++
 72
    65
 73
     2
 40
80.0
 49
75.0
 49
-5.0
  0
LTYPE
  2
LONG5
 70
    64
  3
----------  --  ----------  --  
 72
    65
 73
     4
 40
60.0
 49
37.5
 49
-7.5
 49
7.5
 49
-7.5
  0
LTYPE
  2
dashed
 70
   64
  3
-------   -------------   ------
 72
   65
 73
    2
 40
7.5
 49
6
 49
-1.5
  0
LTYPE
  2
dashed_spaced
 70
   64
  3
----        --------        ----
 72
   65
 73
    2
 40
12
 49
6
 49
-6
  0
LTYPE
  2
long_dashed_dotted
 70
   64
  3
------------- --- --------------
 72
   65
 73
    4
 40
15.25
 49
12
 49
-1.5
 49
0.25
 49
-1.5
  0
LTYPE
  2
long_dashed_double-dotted
 70
   64
  3
----------- --- --- ------------
 72
   65
 73
    6
 40
17
 49
12
 49
-1.5
 49
0.25
 49
-1.5
 49
0.25
 49
-1.5
  0
LTYPE
  2
long_dashed_triplicate-dotted
 70
   64
  3
--------- --- --- --- ----------
 72
   65
 73
    8
 40
18.75
 49
12
 49
-1.5
 49
0.25
 49
-1.5
 49
0.25
 49
-1.5
 49
0.25
 49
-1.5
  0
LTYPE
  2
dotted
 70
   64
  3
   -       -       -       -    
 72
   65
 73
    2
 40
1.75
 49
0.25
 49
-1.5
  0
LTYPE
  2
chain
 70
   64
  3
-------------- -- --------------
 72
   65
 73
    4
 40
18.5
 49
12
 49
-1.5
 49
3.5
 49
-1.5
  0
LTYPE
  2
chain_double_dash
 70
   64
  3
------------ -- -- -------------
 72
   65
 73
    6
 40
23.5
 49
12
 49
-1.5
 49
3.5
 49
-1.5
 49
3.5
 49
-1.5
  0
LTYPE
  2
dashed_dotted
 70
   64
  3
-----------     -     ----------
 72
   65
 73
    4
 40
9.25
 49
6
 49
-1.5
 49
0.25
 49
-1.5
  0
LTYPE
  2
double-dashed_dotted
 70
   64
  3
------   -----------   -   -----
 72
   65
 73
    6
 40
16.75
 49
6
 49
-1.5
 49
6
 49
-1.5
 49
0.25
 49
-1.5
  0
LTYPE
  2
dashed_double-dotted
 70
   64
  3
---------    -    -    ---------
 72
   65
 73
    6
 40
11
 49
6
 49
-1.5
 49
0.25
 49
-1.5
 49
0.25
 49
-1.5
  0
LTYPE
  2
double-dashed_double-dotted
 70
   64
  3
-----   ---------   -   -   ----
 72
   65
 73
    8
 40
18.5
 49
6
 49
-1.5
 49
6
 49
-1.5
 49
0.25
 49
-1.5
 49
0.25
 49
-1.5
  0
LTYPE
  2
dashed_triplicate-dotted
 70
   64
  3
-------    -    -    -    ------
 72
   65
 73
    8
 40
12.75
 49
6
 49
-1.5
 49
0.25
 49
-1.5
 49
0.25
 49
-1.5
 49
0.25
 49
-1.5
  0
LTYPE
  2
double-dashed_triplicate-dotted
 70
   64
  3
-----  ---------  -  -  -  -----
 72
   65
 73
   10
 40
20.25
 49
6
 49
-1.5
 49
6
 49
-1.5
 49
0.25
 49
-1.5
 49
0.25
 49
-1.5
 49
0.25
 49
-1.5
  0
LTYPE
  2
undefined
 70
   64
  3
--------------------------------
 72
   65
 73
    0
 40
0
  0
ENDTAB
  0
TABLE
  2
STYLE
  5
3
100
AcDbSymbolTable
 70
     1
  0
STYLE
  5
10
100
AcDbSymbolTableRecord
100
AcDbTextStyleTableRecord
  2
STANDARD
 70
     0
 40
0.0
 41
1.0
 50
0.0
 71
     0
 42
0.2
  3
txt
  4
bigfont.shx
  0
STYLE
  5
26
100
AcDbSymbolTableRecord
100
AcDbTextStyleTableRecord
  2
TATEGAKI
 70
    68
 40
0.0
 41
1.0
 50
0.0
 71
     0
 42
1.0
  3
txt
  4
bigfont.shx
  0
ENDTAB
  0
TABLE
  2
LAYER
 70
    4
  0
LAYER
  2
_0-0_FRF74-0902
 70
   64
 62
    7
  6
CONTINUOUS
  0
LAYER
  2
_0-1_
 70
   64
 62
    7
  6
CONTINUOUS
  0
LAYER
  2
_0-2_
 70
   64
 62
    7
  6
CONTINUOUS
  0
LAYER
  2
ADD_LINE
 70
   64
 62
    7
  6
CONTINUOUS
  0
ENDTAB
  0
ENDSEC
  0
SECTION
  2
BLOCKS
  0
ENDSEC
  0
SECTION
  2
ENTITIES
  0
LINE
  8
_0-2_
  6
CONTINUOUS
 62
    7
 10
2552.566283385414
 20
1056.1979530071658
 11
1577.5662833854144
 21
1056.1979530071658
  0
LINE
  8
_0-2_
  6
CONTINUOUS
 62
    7
 10
2552.5662833856559
 20
2371.1979530071658
 11
1577.5662833856554
 21
2371.1979530071658
  0
LINE
  8
_0-2_
  6
CONTINUOUS
 62
    7
 10
1577.5662833856554
 20
2371.1979530071658
 11
1577.5662833856554
 21
971.19795300716578
  0
LINE
  8
_0-2_
  6
CONTINUOUS
 62
    7
 10
1577.5662833856554
 20
971.19795300716578
 11
2552.5662833856559
 21
971.19795300716578
  0
LINE
  8
_0-2_
  6
CONTINUOUS
 62
    7
 10
2552.5662833856559
 20
971.19795300716578
 11
2552.5662833856559
 21
2371.1979530071658
  0
LINE
  8
_0-2_
  6
CONTINUOUS
 62
    7
 10
2552.566283385414
 20
1098.6979530071658
 11
1577.5662833854144
 21
1098.6979530071658
  0
LINE
  8
_0-2_
  6
CONTINUOUS
 62
    7
 10
2552.5662833856559
 20
1013.6979530071658
 11
2176.0662833856559
 21
1013.6979530071658
  0
LINE
  8
_0-2_
  6
CONTINUOUS
 62
    7
 10
2427.066283385785
 20
1013.6979530071658
 11
2427.066283385785
 21
1056.1979530071658
  0
LINE
  8
_0-2_
  6
CONTINUOUS
 62
    7
 10
2301.566283385785
 20
1013.6979530071658
 11
2301.566283385785
 21
1056.1979530071658
  0
LINE
  8
_0-2_
  6
CONTINUOUS
 62
    7
 10
2176.066283385785
 20
971.19795300716578
 11
2176.066283385785
 21
1098.6979530071658
  0
TEXT
  8
_0-2_
 62
    7
 10
2196.3388549397118
 20
983.13221232091132
 40
15
 41
1
 50
0
  1
大洋金物株式会社 ティーフォルム事業部
  0
TEXT
  8
_0-2_
 62
    7
 10
1582.8750828572131
 20
1080.7343511503877
 40
11
 41
1
 50
0
  1
品名
  0
TEXT
  8
_0-2_
 62
    7
 10
1584.6653190366922
 20
1037.1766457401898
 40
11
 41
1
 50
0
  1
仕様
  0
TEXT
  8
_0-2_
 62
    7
 10
2183.0590642652819
 20
1080.1315954814579
 40
11
 41
1
 50
0
  1
品番
  0
TEXT
  8
_0-2_
 62
    7
 10
2183.0568574992371
 20
1037.182349606808
 40
11
 41
1
 50
0
  1
重量
  0
TEXT
  8
_0-2_
 62
    7
 10
2308.1776163454042
 20
1037.5114084130682
 40
11
 41
1
 50
0
  1
容量
  0
TEXT
  8
_0-2_
 62
    7
 10
2433.6646030852935
 20
1037.4114153200876
 40
11
 41
1
 50
0
  1
縮尺
  0
TEXT
  8
_0-2_
 62
    7
 10
2211.5256034060785
 20
1065.334252852228
 40
15
 41
1
 50
0
  1
FRF74-0902
  0
TEXT
  8
_0-2_
 62
    7
 10
1578.1476923649509
 20
947.26970852156592
 40
15
 41
1
 50
0
  1
120912S
  0
TEXT
  8
_0-1_
 62
    4
 10
2287.8265579027211
 20
1842.2628236494988
 40
12.5
 41
1
 50
90
  1
φ
  0
LINE
  8
_0-1_
  6
CONTINUOUS
 62
    4
 10
1674.4397778680038
 20
1933.8909173586126
 11
2234.4397778680041
 21
1933.8909173586126
  0
LINE
  8
_0-1_
  6
CONTINUOUS
 62
    4
 10
1674.4397778680038
 20
1933.8909173586126
 11
1674.4397778680038
 21
1898.8909173586126
  0
LINE
  8
_0-1_
  6
CONTINUOUS
 62
    4
 10
2234.4397778680041
 20
1933.8909173586126
 11
2234.4397778680041
 21
1898.8909173586128
  0
POINT
  8
_0-1_
 62
    7
 10
1674.4397778680038
 20
1933.8909173586126
  0
POINT
  8
_0-1_
 62
    7
 10
2234.4397778680041
 20
1933.8909173586126
  0
TEXT
  8
_0-1_
 62
    4
 10
1945.0647778680038
 20
1936.3909173586126
 40
12.5
 41
1
 50
0
  1
560
  0
LINE
  8
_0-1_
  6
CONTINUOUS
 62
    4
 10
2526.2565901276585
 20
1883.8909173586128
 11
2526.2565901276585
 21
1833.890920338845
  0
POINT
  8
_0-1_
 62
    7
 10
2526.2565901276585
 20
1883.8909173586128
  0
POINT
  8
_0-1_
 62
    7
 10
2526.2565901276585
 20
1833.890920338845
  0
LINE
  8
_0-1_
  6
CONTINUOUS
 62
    4
 10
2526.2565901276585
 20
1883.8909173586128
 11
2491.2565901276585
 21
1883.8909173586128
  0
LINE
  8
_0-1_
  6
CONTINUOUS
 62
    4
 10
2526.2565901276585
 20
1833.890920338845
 11
2491.2565901276585
 21
1833.890920338845
  0
TEXT
  8
_0-1_
 62
    4
 10
2523.7565901276585
 20
1852.6409188487289
 40
12.5
 41
1
 50
90
  1
50
  0
LINE
  8
_0-1_
  6
CONTINUOUS
 62
    4
 10
2476.2565901276585
 20
1933.8909173586128
 11
2462.7565925714489
 21
1933.8909173586128
  0
POINT
  8
_0-1_
 62
    7
 10
2476.2565901276585
 20
1933.8909173586128
  0
POINT
  8
_0-1_
 62
    7
 10
2462.7565925714489
 20
1933.8909173586128
  0
LINE
  8
_0-1_
  6
CONTINUOUS
 62
    4
 10
2476.2565901276585
 20
1933.8909173586128
 11
2476.2565901276585
 21
1898.8909173586128
  0
LINE
  8
_0-1_
  6
CONTINUOUS
 62
    4
 10
2462.7565925714489
 20
1933.8909173586128
 11
2462.7565925714489
 21
1898.3909088947532
  0
TEXT
  8
_0-1_
 62
    4
 10
2457.0065913495537
 20
1936.3909173586128
 40
12.5
 41
1
 50
0
  1
13.5
  0
LINE
  8
_0-1_
  6
CONTINUOUS
 62
    4
 10
2290.6565913592731
 20
1868.3909082987068
 11
2290.6565913592731
 21
1849.3908995964287
  0
POINT
  8
_0-1_
 62
    7
 10
2290.6565913592731
 20
1868.3909082987068
  0
POINT
  8
_0-1_
 62
    7
 10
2290.6565913592731
 20
1849.3908995964287
  0
LINE
  8
_0-1_
  6
CONTINUOUS
 62
    4
 10
2290.6565913592731
 20
1868.3909082987068
 11
2326.1565914523717
 21
1868.3909082987068
  0
LINE
  8
_0-1_
  6
CONTINUOUS
 62
    4
 10
2290.6565913592731
 20
1849.3908995964287
 11
2326.1565914523717
 21
1849.3908995964287
  0
TEXT
  8
_0-1_
 62
    4
 10
2288.1565913592731
 20
1852.6409039475677
 40
12.5
 41
1
 50
90
  1
19
  0
TEXT
  8
_0-1_
 62
    4
 10
2523.4163257978175
 20
1842.2628236494988
 40
12.5
 41
1
 50
90
  1
φ
  0
POINT
  8
_0-1_
 62
    7
 10
2284.4397546384362
 20
1624.5682324236977
  0
POINT
  8
_0-1_
 62
    7
 10
2284.4397546384362
 20
1558.2682324236976
  0
LINE
  8
_0-1_
  6
CONTINUOUS
 62
    4
 10
2284.4397546384362
 20
1624.5682324236977
 11
2274.9397618072367
 21
1624.5682324236977
  0
LINE
  8
_0-1_
  6
CONTINUOUS
 62
    4
 10
2284.4397546384362
 20
1558.2682324236976
 11
2258.9397753808526
 21
1558.2682324236976
  0
TEXT
  8
_0-1_
 62
    4
 10
2281.9397546384362
 20
1578.9182324236976
 40
12.5
 41
1
 50
90
  1
66.3
  0
LINE
  8
_0-1_
  6
CONTINUOUS
 62
    4
 10
2309.4397546384362
 20
1624.5682324236977
 11
2309.4397546384362
 21
1488.9682324236978
  0
POINT
  8
_0-1_
 62
    7
 10
2309.4397546384362
 20
1624.5682324236977
  0
POINT
  8
_0-1_
 62
    7
 10
2309.4397546384362
 20
1488.9682324236978
  0
LINE
  8
_0-1_
  6
CONTINUOUS
 62
    4
 10
2309.4397546384362
 20
1624.5682324236977
 11
2289.9397618072367
 21
1624.5682324236977
  0
LINE
  8
_0-1_
  6
CONTINUOUS
 62
    4
 10
2309.4397546384362
 20
1488.9682324236978
 11
2258.4397618072371
 21
1488.9682324236978
  0
TEXT
  8
_0-1_
 62
    4
 10
2306.9397546384362
 20
1541.1432324236978
 40
12.5
 41
1
 50
90
  1
135.6
  0
LINE
  8
_0-0_FRF74-0902
  6
CONTINUOUS
 62
    7
 10
1671.9397635791327
 20
1833.5053678393476
 11
1672.4397869441534
 21
1833.0053686887138
  0
LINE
  8
_0-0_FRF74-0902
  6
CONTINUOUS
 62
    7
 10
1676.4397652480627
 20
1833.0053686887138
 11
1676.9397886130835
 21
1833.5053678393476
  0
LINE
  8
_0-0_FRF74-0902
  6
CONTINUOUS
 62
    7
 10
1671.9397635791327
 20
1834.0162317991369
 11
1671.9397635791327
 21
1833.5053678393476
  0
LINE
  8
_0-0_FRF74-0902
  6
CONTINUOUS
 62
    7
 10
1676.9397886130835
 20
1833.5053678393476
 11
1676.9397886130835
 21
1834.0162317991369
  0
LINE
  8
_0-0_FRF74-0902
  6
CONTINUOUS
 62
    7
 10
2231.9397659633187
 20
1834.0162317991369
 11
2231.9397659633187
 21
1833.5053678393476
  0
LINE
  8
_0-0_FRF74-0902
  6
CONTINUOUS
 62
    7
 10
2236.9397909972695
 20
1833.5053678393476
 11
2236.9397909972695
 21
1834.0162317991369
  0
LINE
  8
_0-0_FRF74-0902
  6
CONTINUOUS
 62
    7
 10
2231.9397659633187
 20
1833.5053678393476
 11
2232.4397893283394
 21
1833.0053686887138
  0
LINE
  8
_0-0_FRF74-0902
  6
CONTINUOUS
 62
    7
 10
2236.4397676322487
 20
1833.0053686887138
 11
2236.9397909972695
 21
1833.5053678393476
  0
LINE
  8
_0-0_FRF74-0902
  6
CONTINUOUS
 62
    7
 10
1681.3679666850592
 20
1852.3909174628668
 11
2227.5115729901818
 21
1852.3909174628668
  0
LINE
  8
_0-0_FRF74-0902
  6
CONTINUOUS
 62
    7
 10
2227.5115729901818
 20
1865.3909172654264
 11
1681.3679666850592
 21
1865.3909172654264
  0
LINE
  8
_0-0_FRF74-0902
  6
CONTINUOUS
 62
    7
 10
1671.9397635791327
 20
1833.5053678393476
 11
1676.9397886130835
 21
1833.5053678393476
  0
LINE
  8
_0-0_FRF74-0902
  6
CONTINUOUS
 62
    7
 10
1676.4397652480627
 20
1833.0053686887138
 11
1672.4397869441534
 21
1833.0053686887138
  0
LINE
  8
_0-0_FRF74-0902
  6
CONTINUOUS
 62
    7
 10
2231.9397659633187
 20
1833.5053678393476
 11
2236.9397909972695
 21
1833.5053678393476
  0
LINE
  8
_0-0_FRF74-0902
  6
CONTINUOUS
 62
    7
 10
2236.4397676322487
 20
1833.0053686887138
 11
2232.4397893283394
 21
1833.0053686887138
  0
ARC
  8
_0-0_FRF74-0902
  6
CONTINUOUS
 62
    7
 10
2234.4397778680041
 20
1858.8909173586126
 40
21.000000000000117
 50
0
 51
161.96946460666186
  0
ARC
  8
_0-0_FRF74-0902
  6
CONTINUOUS
 62
    7
 10
2234.4397778680041
 20
1858.8909173586126
 40
21.000000000000099
 50
198.03053539333888
 51
0
  0
ARC
  8
_0-0_FRF74-0902
  6
CONTINUOUS
 62
    7
 10
2234.4397778680041
 20
1858.8909173586126
 40
25.000000000000142
 50
195.07006214488968
 51
0
  0
ARC
  8
_0-0_FRF74-0902
  6
CONTINUOUS
 62
    7
 10
2234.4397778680041
 20
1858.8909173586126
 40
25.000000000000114
 50
0
 51
164.92993785511095
  0
ARC
  8
_0-0_FRF74-0902
  6
CONTINUOUS
 62
    7
 10
2234.4397778680041
 20
1858.8909173586126
 40
16.000000000000011
 50
203.96948231776051
 51
0
  0
ARC
  8
_0-0_FRF74-0902
  6
CONTINUOUS
 62
    7
 10
2234.4397778680041
 20
1858.8909173586126
 40
16
 50
0
 51
156.0305176822398
  0
ARC
  8
_0-0_FRF74-0902
  6
CONTINUOUS
 62
    7
 10
1674.4397778680038
 20
1858.8909173586126
 40
16.000000000000025
 50
23.969482317759422
 51
336.03051768224145
  0
ARC
  8
_0-0_FRF74-0902
  6
CONTINUOUS
 62
    7
 10
1674.4397778680038
 20
1858.8909173586126
 40
25.000000000000032
 50
15.070062144888951
 51
344.92993785511197
  0
ARC
  8
_0-0_FRF74-0902
  6
CONTINUOUS
 62
    7
 10
1674.4397778680038
 20
1858.8909173586126
 40
21.000000000000036
 50
18.030535393338088
 51
341.96946460666288
  0
CIRCLE
  8
_0-0_FRF74-0902
  6
CONTINUOUS
 62
    7
 10
2234.4397778680041
 20
1858.8909173586126
 40
9.5000000000001137
  0
CIRCLE
  8
_0-0_FRF74-0902
  6
CONTINUOUS
 62
    7
 10
1674.4397778680038
 20
1858.8909173586126
 40
9.5
  0
LINE
  8
_0-0_FRF74-0902
  6
CONTINUOUS
 62
    7
 10
2401.956591546249
 20
1849.3908995964287
 11
2417.9565941688534
 21
1849.3908995964287
  0
LINE
  8
_0-0_FRF74-0902
  6
CONTINUOUS
 62
    7
 10
2417.9565941688534
 20
1868.3909082987068
 11
2416.4565911290165
 21
1868.3909082987068
  0
LINE
  8
_0-0_FRF74-0902
  6
CONTINUOUS
 62
    7
 10
2476.2565901276585
 20
1883.8909173586128
 11
2463.2565935847279
 21
1883.8909173586128
  0
LINE
  8
_0-0_FRF74-0902
  6
CONTINUOUS
 62
    7
 10
2463.2565935847279
 20
1833.890920338845
 11
2476.2565901276585
 21
1833.890920338845
  0
ARC
  8
_0-0_FRF74-0902
  6
CONTINUOUS
 62
    7
 10
2463.256591359273
 20
1834.3909120104381
 40
0.5
 50
180
 51
270
  0
ARC
  8
_0-0_FRF74-0902
  6
CONTINUOUS
 62
    7
 10
2463.256591359273
 20
1883.3909120104386
 40
0.5
 50
90
 51
180
  0
LINE
  8
_0-0_FRF74-0902
  6
CONTINUOUS
 62
    7
 10
2417.9565941688534
 20
1849.3908995964287
 11
2462.7565925714489
 21
1849.3908995964287
  0
LINE
  8
_0-0_FRF74-0902
  6
CONTINUOUS
 62
    7
 10
2356.6565913154673
 20
1849.3908995964287
 11
2401.956591546249
 21
1849.3908995964287
  0
LINE
  8
_0-0_FRF74-0902
  6
CONTINUOUS
 62
    7
 10
2341.1565914523717
 20
1849.3908995964287
 11
2356.6565913154673
 21
1849.3908995964287
  0
ARC
  8
_0-0_FRF74-0902
  6
CONTINUOUS
 62
    7
 10
2341.1565913592731
 20
1867.8909120104386
 40
0.5000000000001135
 50
90
 51
180
  0
ARC
  8
_0-0_FRF74-0902
  6
CONTINUOUS
 62
    7
 10
2341.1565913592731
 20
1849.8909120104383
 40
0.5000000000001135
 50
180
 51
270
  0
LINE
  8
_0-0_FRF74-0902
  6
CONTINUOUS
 62
    7
 10
2401.956591546249
 20
1849.3908995964287
 11
2401.956591546249
 21
1868.3909082987068
  0
LINE
  8
_0-0_FRF74-0902
  6
CONTINUOUS
 62
    7
 10
2417.9565941688534
 20
1849.3908995964287
 11
2417.9565941688534
 21
1868.3909082987068
  0
LINE
  8
_0-0_FRF74-0902
  6
CONTINUOUS
 62
    7
 10
2476.2565901276585
 20
1883.8909173586128
 11
2476.2565901276585
 21
1833.890920338845
  0
LINE
  8
_0-0_FRF74-0902
  6
CONTINUOUS
 62
    7
 10
2462.7565925714489
 20
1834.3909139015434
 11
2462.7565925714489
 21
1883.3909088947532
  0
LINE
  8
_0-0_FRF74-0902
  6
CONTINUOUS
 62
    7
 10
2356.6565913154673
 20
1849.3908995964287
 11
2356.6565913154673
 21
1868.3909082987068
  0
LINE
  8
_0-0_FRF74-0902
  6
CONTINUOUS
 62
    7
 10
2340.6565913704153
 20
1849.8909229614494
 11
2340.6565913704153
 21
1867.8909147360084
  0
LINE
  8
_0-0_FRF74-0902
  6
CONTINUOUS
 62
    7
 10
2462.7565925714489
 20
1868.3909082987068
 11
2341.1565914523717
 21
1868.3909082987068
  0
LINE
  8
_0-0_FRF74-0902
  6
CONTINUOUS
 62
    7
 10
2224.9397815797356
 20
1564.7682321934408
 11
2224.95618775821
 21
1564.7441050452326
  0
LINE
  8
_0-0_FRF74-0902
  6
CONTINUOUS
 62
    7
 10
2224.95618775821
 20
1564.7441050452326
 11
2225.311938080552
 21
1564.2075140269153
  0
LINE
  8
_0-0_FRF74-0902
  6
CONTINUOUS
 62
    7
 10
2225.311938080552
 20
1564.2075140269153
 11
2225.9388597342995
 21
1563.1814956497547
  0
LINE
  8
_0-0_FRF74-0902
  6
CONTINUOUS
 62
    7
 10
2225.9388597342995
 20
1563.1814956497547
 11
2226.7681987617043
 21
1561.5202430701029
  0
LINE
  8
_0-0_FRF74-0902
  6
CONTINUOUS
 62
    7
 10
2226.7681987617043
 20
1561.5202430701029
 11
2227.3234756324318
 21
1559.7412912240397
  0
LINE
  8
_0-0_FRF74-0902
  6
CONTINUOUS
 62
    7
 10
2227.3234756324318
 20
1559.7412912240397
 11
2227.4606408212212
 21
1558.1146255200874
  0
LINE
  8
_0-0_FRF74-0902
  6
CONTINUOUS
 62
    7
 10
2227.4606408212212
 20
1558.1146255200874
 11
2227.2277654740838
 21
1556.5121187893819
  0
LINE
  8
_0-0_FRF74-0902
  6
CONTINUOUS
 62
    7
 10
2227.2277654740838
 20
1556.5121187893819
 11
2226.5498222444085
 21
1554.6625168128085
  0
LINE
  8
_0-0_FRF74-0902
  6
CONTINUOUS
 62
    7
 10
2226.5498222444085
 20
1554.6625168128085
 11
2225.7507325742272
 21
1553.1724575041007
  0
LINE
  8
_0-0_FRF74-0902
  6
CONTINUOUS
 62
    7
 10
2225.7507325742272
 20
1553.1724575041007
 11
2225.3638537261513
 21
1552.5483922166895
  0
LINE
  8
_0-0_FRF74-0902
  6
CONTINUOUS
 62
    7
 10
2225.3638537261513
 20
1552.5483922166895
 11
2225.0640721652535
 21
1552.0911640552949
  0
LINE
  8
_0-0_FRF74-0902
  6
CONTINUOUS
 62
    7
 10
2225.0640721652535
 20
1552.0911640552949
 11
2224.8924405906228
 21
1551.8376384927105
  0
LINE
  8
_0-0_FRF74-0902
  6
CONTINUOUS
 62
    7
 10
1683.9397878978277
 20
1564.7682321934408
 11
1683.9397878978277
 21
1566.2682352332777
  0
LINE
  8
_0-0_FRF74-0902
  6
CONTINUOUS
 62
    7
 10
1683.9397878978277
 20
1550.2682326106733
 11
1683.9397878978277
 21
1551.7682319252199
  0
LINE
  8
_0-0_FRF74-0902
  6
CONTINUOUS
 62
    7
 10
1664.9397642943884
 20
1566.2682352332777
 11
1664.9397642943884
 21
1550.2682326106733
  0
LINE
  8
_0-0_FRF74-0902
  6
CONTINUOUS
 62
    7
 10
1649.4397850368048
 20
1624.5682311920827
 11
1649.4397850368048
 21
1611.5682346491521
  0
LINE
  8
_0-0_FRF74-0902
  6
CONTINUOUS
 62
    7
 10
1699.4397671554113
 20
1611.5682346491521
 11
1699.4397671554113
 21
1624.5682311920827
  0
ARC
  8
_0-0_FRF74-0902
  6
CONTINUOUS
 62
    7
 10
1698.9397778680041
 20
1611.5682324236977
 40
0.5
 50
270
 51
0
  0
ARC
  8
_0-0_FRF74-0902
  6
CONTINUOUS
 62
    7
 10
1649.9397778680041
 20
1611.5682324236977
 40
0.5
 50
180
 51
270
  0
LINE
  8
_0-0_FRF74-0902
  6
CONTINUOUS
 62
    7
 10
1664.9397642943884
 20
1550.2682326106733
 11
1664.9397642943884
 21
1504.9682323798916
  0
LINE
  8
_0-0_FRF74-0902
  6
CONTINUOUS
 62
    7
 10
1664.9397642943884
 20
1611.0682336358732
 11
1664.9397642943884
 21
1566.2682352332777
  0
LINE
  8
_0-0_FRF74-0902
  6
CONTINUOUS
 62
    7
 10
1683.9397878978277
 20
1566.2682352332777
 11
1683.9397878978277
 21
1611.0682336358732
  0
LINE
  8
_0-0_FRF74-0902
  6
CONTINUOUS
 62
    7
 10
1683.9397878978277
 20
1503.4682324250607
 11
1683.9397878978277
 21
1504.9682323798916
  0
LINE
  8
_0-0_FRF74-0902
  6
CONTINUOUS
 62
    7
 10
1683.9397878978277
 20
1489.468232516796
 11
1683.9397878978277
 21
1490.4682326807088
  0
LINE
  8
_0-0_FRF74-0902
  6
CONTINUOUS
 62
    7
 10
1664.9397642943884
 20
1504.9682323798916
 11
1664.9397642943884
 21
1489.468232516796
  0
ARC
  8
_0-0_FRF74-0902
  6
CONTINUOUS
 62
    7
 10
1665.4397778680038
 20
1489.4682324236978
 40
0.5
 50
180
 51
270
  0
ARC
  8
_0-0_FRF74-0902
  6
CONTINUOUS
 62
    7
 10
1683.4397778680041
 20
1489.4682324236978
 40
0.5
 50
270
 51
0
  0
LINE
  8
_0-0_FRF74-0902
  6
CONTINUOUS
 62
    7
 10
1683.9397878978277
 20
1566.2682352332777
 11
1664.9397642943884
 21
1566.2682352332777
  0
LINE
  8
_0-0_FRF74-0902
  6
CONTINUOUS
 62
    7
 10
1683.9397878978277
 20
1550.2682326106733
 11
1664.9397642943884
 21
1550.2682326106733
  0
LINE
  8
_0-0_FRF74-0902
  6
CONTINUOUS
 62
    7
 10
1649.4397850368048
 20
1624.5682311920827
 11
1699.4397671554113
 21
1624.5682311920827
  0
LINE
  8
_0-0_FRF74-0902
  6
CONTINUOUS
 62
    7
 10
1698.939773592713
 20
1611.0682336358732
 11
1649.9397785995031
 21
1611.0682336358732
  0
LINE
  8
_0-0_FRF74-0902
  6
CONTINUOUS
 62
    7
 10
1683.9397878978277
 20
1504.9682323798916
 11
1664.9397642943884
 21
1504.9682323798916
  0
LINE
  8
_0-0_FRF74-0902
  6
CONTINUOUS
 62
    7
 10
1683.439764532807
 20
1488.9682324348396
 11
1665.4397876594091
 21
1488.9682324348396
  0
LINE
  8
_0-0_FRF74-0902
  6
CONTINUOUS
 62
    7
 10
1683.9397878978277
 20
1551.7682319252199
 11
2224.9397815797356
 21
1551.7682319252199
  0
LINE
  8
_0-0_FRF74-0902
  6
CONTINUOUS
 62
    7
 10
2224.9397815797356
 20
1564.7682321934408
 11
1683.9397878978277
 21
1564.7682321934408
  0
LINE
  8
_0-0_FRF74-0902
  6
CONTINUOUS
 62
    7
 10
1683.9397878978277
 20
1490.4682326807088
 11
2224.9397815797356
 21
1490.4682326807088
  0
LINE
  8
_0-0_FRF74-0902
  6
CONTINUOUS
 62
    7
 10
2224.9397815797356
 20
1503.4682324250607
 11
1683.9397878978277
 21
1503.4682324250607
  0
LINE
  8
_0-0_FRF74-0902
  6
CONTINUOUS
 62
    7
 10
2224.9397517774132
 20
1564.7682321934408
 11
2224.9397517774132
 21
1566.2682352332777
  0
LINE
  8
_0-0_FRF74-0902
  6
CONTINUOUS
 62
    7
 10
2224.9397517774132
 20
1550.2682326106733
 11
2224.9397517774132
 21
1551.7682319252199
  0
LINE
  8
_0-0_FRF74-0902
  6
CONTINUOUS
 62
    7
 10
2243.9397753808526
 20
1566.2682352332777
 11
2243.9397753808526
 21
1550.2682326106733
  0
LINE
  8
_0-0_FRF74-0902
  6
CONTINUOUS
 62
    7
 10
2259.4397546384362
 20
1624.5682311920827
 11
2259.4397546384362
 21
1611.5682346491521
  0
LINE
  8
_0-0_FRF74-0902
  6
CONTINUOUS
 62
    7
 10
2209.4397725198296
 20
1611.5682346491521
 11
2209.4397725198296
 21
1624.5682311920827
  0
ARC
  8
_0-0_FRF74-0902
  6
CONTINUOUS
 62
    7
 10
2209.9397618072371
 20
1611.5682324236977
 40
0.5
 50
180
 51
270
  0
ARC
  8
_0-0_FRF74-0902
  6
CONTINUOUS
 62
    7
 10
2258.9397618072371
 20
1611.5682324236977
 40
0.5
 50
270
 51
0
  0
LINE
  8
_0-0_FRF74-0902
  6
CONTINUOUS
 62
    7
 10
2243.9397753808526
 20
1550.2682326106733
 11
2243.9397753808526
 21
1504.9682323798916
  0
LINE
  8
_0-0_FRF74-0902
  6
CONTINUOUS
 62
    7
 10
2224.9397517774132
 20
1504.9682323798916
 11
2224.9397517774132
 21
1550.2682326106733
  0
LINE
  8
_0-0_FRF74-0902
  6
CONTINUOUS
 62
    7
 10
2243.9397753808526
 20
1611.0682336358732
 11
2243.9397753808526
 21
1566.2682352332777
  0
LINE
  8
_0-0_FRF74-0902
  6
CONTINUOUS
 62
    7
 10
2224.9397517774132
 20
1566.2682352332777
 11
2224.9397517774132
 21
1611.0682336358732
  0
LINE
  8
_0-0_FRF74-0902
  6
CONTINUOUS
 62
    7
 10
2224.9397517774132
 20
1503.4682324250607
 11
2224.9397517774132
 21
1504.9682323798916
  0
LINE
  8
_0-0_FRF74-0902
  6
CONTINUOUS
 62
    7
 10
2224.9397517774132
 20
1489.468232516796
 11
2224.9397517774132
 21
1490.4682326807088
  0
LINE
  8
_0-0_FRF74-0902
  6
CONTINUOUS
 62
    7
 10
2243.9397753808526
 20
1504.9682323798916
 11
2243.9397753808526
 21
1489.468232516796
  0
ARC
  8
_0-0_FRF74-0902
  6
CONTINUOUS
 62
    7
 10
2243.4397618072371
 20
1489.4682324236978
 40
0.5
 50
270
 51
0
  0
ARC
  8
_0-0_FRF74-0902
  6
CONTINUOUS
 62
    7
 10
2225.4397618072371
 20
1489.4682324236978
 40
0.5
 50
180
 51
270
  0
LINE
  8
_0-0_FRF74-0902
  6
CONTINUOUS
 62
    7
 10
2224.9397517774132
 20
1566.2682352332777
 11
2243.9397753808526
 21
1566.2682352332777
  0
LINE
  8
_0-0_FRF74-0902
  6
CONTINUOUS
 62
    7
 10
2224.9397517774132
 20
1550.2682326106733
 11
2243.9397753808526
 21
1550.2682326106733
  0
LINE
  8
_0-0_FRF74-0902
  6
CONTINUOUS
 62
    7
 10
2259.4397546384362
 20
1624.5682311920827
 11
2209.4397725198296
 21
1624.5682311920827
  0
LINE
  8
_0-0_FRF74-0902
  6
CONTINUOUS
 62
    7
 10
2209.939766082528
 20
1611.0682336358732
 11
2258.9397610757378
 21
1611.0682336358732
  0
LINE
  8
_0-0_FRF74-0902
  6
CONTINUOUS
 62
    7
 10
2224.9397517774132
 20
1504.9682323798916
 11
2243.9397753808526
 21
1504.9682323798916
  0
LINE
  8
_0-0_FRF74-0902
  6
CONTINUOUS
 62
    7
 10
2225.439775142434
 20
1488.9682324348396
 11
2243.4397520158318
 21
1488.9682324348396
  0
LINE
  8
_0-0_FRF74-0902
  6
CONTINUOUS
 62
    7
 10
2224.9397815797356
 20
1503.4682324250607
 11
2224.95618775821
 21
1503.4441052768525
  0
LINE
  8
_0-0_FRF74-0902
  6
CONTINUOUS
 62
    7
 10
2224.95618775821
 20
1503.4441052768525
 11
2225.311938080552
 21
1502.9075142585352
  0
LINE
  8
_0-0_FRF74-0902
  6
CONTINUOUS
 62
    7
 10
2225.311938080552
 20
1502.9075142585352
 11
2225.9388597342995
 21
1501.8814958813746
  0
LINE
  8
_0-0_FRF74-0902
  6
CONTINUOUS
 62
    7
 10
2225.9388597342995
 20
1501.8814958813746
 11
2226.7681987617043
 21
1500.2202433017228
  0
LINE
  8
_0-0_FRF74-0902
  6
CONTINUOUS
 62
    7
 10
2226.7681987617043
 20
1500.2202433017228
 11
2227.3234756324318
 21
1498.4412914556597
  0
LINE
  8
_0-0_FRF74-0902
  6
CONTINUOUS
 62
    7
 10
2227.3234756324318
 20
1498.4412914556597
 11
2227.4606408212212
 21
1496.8146257517074
  0
LINE
  8
_0-0_FRF74-0902
  6
CONTINUOUS
 62
    7
 10
2227.4606408212212
 20
1496.8146257517074
 11
2227.2277654740838
 21
1495.2121190210019
  0
LINE
  8
_0-0_FRF74-0902
  6
CONTINUOUS
 62
    7
 10
2227.2277654740838
 20
1495.2121190210019
 11
2226.5498222444085
 21
1493.3625170444284
  0
LINE
  8
_0-0_FRF74-0902
  6
CONTINUOUS
 62
    7
 10
2226.5498222444085
 20
1493.3625170444284
 11
2225.7507325742272
 21
1491.8724577357207
  0
LINE
  8
_0-0_FRF74-0902
  6
CONTINUOUS
 62
    7
 10
2225.7507325742272
 20
1491.8724577357207
 11
2225.3638537261513
 21
1491.2483924483095
  0
LINE
  8
_0-0_FRF74-0902
  6
CONTINUOUS
 62
    7
 10
2225.3638537261513
 20
1491.2483924483095
 11
2225.0640721652535
 21
1490.7911642869149
  0
LINE
  8
_0-0_FRF74-0902
  6
CONTINUOUS
 62
    7
 10
2225.0640721652535
 20
1490.7911642869149
 11
2224.8924405906228
 21
1490.5376387243305
  0
LINE
  8
_0-0_FRF74-0902
  6
CONTINUOUS
 62
    7
 10
1683.9397580955053
 20
1564.7682321934408
 11
1683.9233519170309
 21
1564.7441050452326
  0
LINE
  8
_0-0_FRF74-0902
  6
CONTINUOUS
 62
    7
 10
1683.9233519170309
 20
1564.7441050452326
 11
1683.567601594689
 21
1564.2075140269153
  0
LINE
  8
_0-0_FRF74-0902
  6
CONTINUOUS
 62
    7
 10
1683.567601594689
 20
1564.2075140269153
 11
1682.9406799409414
 21
1563.1814956497547
  0
LINE
  8
_0-0_FRF74-0902
  6
CONTINUOUS
 62
    7
 10
1682.9406799409414
 20
1563.1814956497547
 11
1682.1113409135367
 21
1561.5202430701029
  0
LINE
  8
_0-0_FRF74-0902
  6
CONTINUOUS
 62
    7
 10
1682.1113409135367
 20
1561.5202430701029
 11
1681.5560640428091
 21
1559.7412912240397
  0
LINE
  8
_0-0_FRF74-0902
  6
CONTINUOUS
 62
    7
 10
1681.5560640428091
 20
1559.7412912240397
 11
1681.4188988540197
 21
1558.1146255200874
  0
LINE
  8
_0-0_FRF74-0902
  6
CONTINUOUS
 62
    7
 10
1681.4188988540197
 20
1558.1146255200874
 11
1681.6517742011572
 21
1556.5121187893819
  0
LINE
  8
_0-0_FRF74-0902
  6
CONTINUOUS
 62
    7
 10
1681.6517742011572
 20
1556.5121187893819
 11
1682.3297174308325
 21
1554.6625168128085
  0
LINE
  8
_0-0_FRF74-0902
  6
CONTINUOUS
 62
    7
 10
1682.3297174308325
 20
1554.6625168128085
 11
1683.1288071010138
 21
1553.1724575041007
  0
LINE
  8
_0-0_FRF74-0902
  6
CONTINUOUS
 62
    7
 10
1683.1288071010138
 20
1553.1724575041007
 11
1683.5156859490896
 21
1552.5483922166895
  0
LINE
  8
_0-0_FRF74-0902
  6
CONTINUOUS
 62
    7
 10
1683.5156859490896
 20
1552.5483922166895
 11
1683.8154675099875
 21
1552.0911640552949
  0
LINE
  8
_0-0_FRF74-0902
  6
CONTINUOUS
 62
    7
 10
1683.8154675099875
 20
1552.0911640552949
 11
1683.9870990846182
 21
1551.8376384927105
  0
LINE
  8
_0-0_FRF74-0902
  6
CONTINUOUS
 62
    7
 10
1683.9397580955053
 20
1503.4682324250607
 11
1683.9233519170309
 21
1503.4441052768525
  0
LINE
  8
_0-0_FRF74-0902
  6
CONTINUOUS
 62
    7
 10
1683.9233519170309
 20
1503.4441052768525
 11
1683.567601594689
 21
1502.9075142585352
  0
LINE
  8
_0-0_FRF74-0902
  6
CONTINUOUS
 62
    7
 10
1683.567601594689
 20
1502.9075142585352
 11
1682.9406799409414
 21
1501.8814958813746
  0
LINE
  8
_0-0_FRF74-0902
  6
CONTINUOUS
 62
    7
 10
1682.9406799409414
 20
1501.8814958813746
 11
1682.1113409135367
 21
1500.2202433017228
  0
LINE
  8
_0-0_FRF74-0902
  6
CONTINUOUS
 62
    7
 10
1682.1113409135367
 20
1500.2202433017228
 11
1681.5560640428091
 21
1498.4412914556597
  0
LINE
  8
_0-0_FRF74-0902
  6
CONTINUOUS
 62
    7
 10
1681.5560640428091
 20
1498.4412914556597
 11
1681.4188988540197
 21
1496.8146257517074
  0
LINE
  8
_0-0_FRF74-0902
  6
CONTINUOUS
 62
    7
 10
1681.4188988540197
 20
1496.8146257517074
 11
1681.6517742011572
 21
1495.2121190210019
  0
LINE
  8
_0-0_FRF74-0902
  6
CONTINUOUS
 62
    7
 10
1681.6517742011572
 20
1495.2121190210019
 11
1682.3297174308325
 21
1493.3625170444284
  0
LINE
  8
_0-0_FRF74-0902
  6
CONTINUOUS
 62
    7
 10
1682.3297174308325
 20
1493.3625170444284
 11
1683.1288071010138
 21
1491.8724577357207
  0
LINE
  8
_0-0_FRF74-0902
  6
CONTINUOUS
 62
    7
 10
1683.1288071010138
 20
1491.8724577357207
 11
1683.5156859490896
 21
1491.2483924483095
  0
LINE
  8
_0-0_FRF74-0902
  6
CONTINUOUS
 62
    7
 10
1683.5156859490896
 20
1491.2483924483095
 11
1683.8154675099875
 21
1490.7911642869149
  0
LINE
  8
_0-0_FRF74-0902
  6
CONTINUOUS
 62
    7
 10
1683.8154675099875
 20
1490.7911642869149
 11
1683.9870990846182
 21
1490.5376387243305
  0
LINE
  8
_0-0_FRF74-0902
  6
CONTINUOUS
 62
    7
 10
1683.9397878978277
 20
1503.4682324250607
 11
1683.9397878978277
 21
1550.2682326106733
  0
POINT
  8
_0-1_
 62
    7
 10
2284.4397546384362
 20
1496.2682324236976
  0
LINE
  8
_0-1_
  6
CONTINUOUS
 62
    4
 10
2284.4397546384362
 20
1496.2682324236976
 11
2258.9397753808526
 21
1496.2682324236976
  0
LINE
  8
_0-1_
  6
CONTINUOUS
 62
    4
 10
2284.4397546384362
 20
1624.5682324236977
 11
2284.4397546384362
 21
1496.2682324236976
  0
TEXT
  8
_0-2_
 62
    4
 10
2281.2031867735795
 20
1520.3048988758496
 40
12.5
 41
1
 50
90
  1
62
  0
LINE
  8
_0-1_
  6
CONTINUOUS
 62
    4
 10
2089.6793610578538
 20
1503.4682324250607
 11
2089.6793610578538
 21
1490.4682326807088
  0
POINT
  8
_0-1_
 62
    7
 10
2089.6793610578538
 20
1503.4682324250607
  0
POINT
  8
_0-1_
 62
    7
 10
2089.6793610578538
 20
1490.4682326807088
  0
TEXT
  8
_0-1_
 62
    4
 10
2086.6551931102022
 20
1476.0376348315069
 40
12.5
 41
1
 50
90
  1
13
  0
TEXT
  8
_0-1_
 62
    4
 10
2087.1092142510192
 20
1465.0348314804583
 40
12.5
 41
1
 50
90
  1
φ
  0
LINE
  8
_0-1_
  6
CONTINUOUS
 62
    7
 10
2089.6793610578538
 20
1490.4682326807088
 11
2089.6793610578538
 21
1465.9428737620924
  0
TEXT
  8
_0-2_
 62
    7
 10
1614.6943364596746
 20
1066.3317848654224
 40
15
 41
1
 50
0
  1
タオルバー　-LANGBERGER,Orta-
  0
TEXT
  8
_0-1_
 62
    7
 10
1613.3184544405999
 20
1016.5547866205304
 40
15
 41
1
 50
0
  1
クローム
  0
LINE
  8
_0-1_
  6
CONTINUOUS
 62
    4
 10
1649.4397778680038
 20
1973.8909173586126
 11
2259.4397778680041
 21
1973.8909173586126
  0
POINT
  8
_0-1_
 62
    7
 10
1649.4397778680038
 20
1973.8909173586126
  0
POINT
  8
_0-1_
 62
    7
 10
2259.4397778680041
 20
1973.8909173586126
  0
LINE
  8
_0-1_
  6
CONTINUOUS
 62
    4
 10
1649.4397778680038
 20
1973.8909173586126
 11
1649.4397778680038
 21
1873.8909173641466
  0
LINE
  8
_0-1_
  6
CONTINUOUS
 62
    4
 10
2259.4397778680041
 20
1973.8909173586126
 11
2259.4397778680041
 21
1873.8909173641466
  0
TEXT
  8
_0-1_
 62
    4
 10
1945.0647778680041
 20
1976.3909173586126
 40
12.5
 41
1
 50
0
  1
610
  0
ENDSEC
  0
EOF
