  0
SECTION
  2
HEADER
  9
$ACADVER
  1
AC1009
  9
$INSBASE
 10
0
 20
0
 30
0
  9
$EXTMIN
 10
0
 20
0
  9
$EXTMAX
 10
4205
 20
2970
  9
$LIMMIN
 10
0
 20
0
  9
$LIMMAX
 10
4205
 20
2970
  9
$LTSCALE
 40
5
  0
ENDSEC
  0
SECTION
  2
TABLES
  0
TABLE
  2
LTYPE
 70
     9
  0
LTYPE
  2
CONTINUOUS
 70
    64
  3
実線
 72
    65
 73
     0
 40
0.0
  0
LTYPE
  2
DASHED1
 70
    64
  3
--  --  --  --  --  --  --  --  
 72
    65
 73
     2
 40
2.5
 49
1.25
 49
-1.25
  0
LTYPE
  2
DASHED2
 70
    64
  3
----    ----    ----    ----    
 72
    65
 73
     2
 40
5.0
 49
2.5
 49
-2.5
  0
LTYPE
  2
DASHED3
 70
    64
  3
------  ------  ------  ------  
 72
    65
 73
     2
 40
5.0
 49
3.75
 49
-1.25
  0
LTYPE
  2
CENTER1
 70
    64
  3
----- - ----- - ----- - ----- - 
 72
    65
 73
     4
 40
10.0
 49
6.25
 49
-1.25
 49
1.25
 49
-1.25
  0
LTYPE
  2
CENTER2
 70
    64
  3
----------  --  ----------  --  
 72
    65
 73
     4
 40
20.0
 49
12.5
 49
-2.5
 49
2.5
 49
-2.5
  0
LTYPE
  2
PHANTOM1
 70
    64
  3
--- - - --- - - --- - - --- - - 
 72
    65
 73
     6
 40
10.0
 49
3.25
 49
-1.25
 49
1.25
 49
-1.25
 49
1.25
 49
-1.25
  0
LTYPE
  2
PHANTOM2
 70
    64
  3
--------  -  -  --------  -  -  
 72
    65
 73
     6
 40
20.0
 49
10.0
 49
-2.5
 49
1.25
 49
-2.5
 49
1.25
 49
-2.5
  0
LTYPE
  2
DOT
 70
    64
  3
-   -   -   -   -   -   -   -   
 72
    65
 73
     2
 40
2.5
 49
0.625
 49
-1.875
  0
LTYPE
  2
DUMMY
 70
    64
  3
ダミー
 72
    65
 73
     0
 40
0.0
  0
LTYPE
  2
RAND1
 70
    64
  3
ランダム線1
 72
    65
 73
     4
 40
10.0
 49
1.0
 49
-2.0
 49
3.0
 49
-4.0
  0
LTYPE
  2
RAND2
 70
    64
  3
ランダム線2
 72
    65
 73
     4
 40
14.0
 49
2.0
 49
-3.0
 49
4.0
 49
-5.0
  0
LTYPE
  2
RAND3
 70
    64
  3
ランダム線3
 72
    65
 73
     4
 40
18.0
 49
3.0
 49
-4.0
 49
5.0
 49
-6.0
  0
LTYPE
  2
RAND4
 70
    64
  3
ランダム線4
 72
    65
 73
     4
 40
22.0
 49
4.0
 49
-5.0
 49
6.0
 49
-7.0
  0
LTYPE
  2
RAND5
 70
    64
  3
ランダム線5
 72
    65
 73
     4
 40
26.0
 49
5.0
 49
-6.0
 49
7.0
 49
-8.0
  0
LTYPE
  2
LONG1
 70
    64
  3
----------  --  ----------  --  
 72
    65
 73
     4
 40
40.0
 49
32.5
 49
-2.5
 49
2.5
 49
-2.5
  0
LTYPE
  2
LONG2
 70
    64
  3
--------  -  -  --------  -  -  
 72
    65
 73
     6
 40
40.0
 49
30.0
 49
-2.5
 49
1.25
 49
-2.5
 49
1.25
 49
-2.5
  0
LTYPE
  2
LONG3
 70
    64
  3
+++++++++++++++..+++++++++++++++
 72
    65
 73
     2
 40
40.0
 49
37.5
 49
-2.5
  0
LTYPE
  2
LONG4
 70
    64
  3
+++++++++++++++..+++++++++++++++
 72
    65
 73
     2
 40
80.0
 49
75.0
 49
-5.0
  0
LTYPE
  2
LONG5
 70
    64
  3
----------  --  ----------  --  
 72
    65
 73
     4
 40
60.0
 49
37.5
 49
-7.5
 49
7.5
 49
-7.5
  0
LTYPE
  2
dashed
 70
   64
  3
-------   -------------   ------
 72
   65
 73
    2
 40
7.5
 49
6
 49
-1.5
  0
LTYPE
  2
dashed_spaced
 70
   64
  3
----        --------        ----
 72
   65
 73
    2
 40
12
 49
6
 49
-6
  0
LTYPE
  2
long_dashed_dotted
 70
   64
  3
------------- --- --------------
 72
   65
 73
    4
 40
15.25
 49
12
 49
-1.5
 49
0.25
 49
-1.5
  0
LTYPE
  2
long_dashed_double-dotted
 70
   64
  3
----------- --- --- ------------
 72
   65
 73
    6
 40
17
 49
12
 49
-1.5
 49
0.25
 49
-1.5
 49
0.25
 49
-1.5
  0
LTYPE
  2
long_dashed_triplicate-dotted
 70
   64
  3
--------- --- --- --- ----------
 72
   65
 73
    8
 40
18.75
 49
12
 49
-1.5
 49
0.25
 49
-1.5
 49
0.25
 49
-1.5
 49
0.25
 49
-1.5
  0
LTYPE
  2
dotted
 70
   64
  3
   -       -       -       -    
 72
   65
 73
    2
 40
1.75
 49
0.25
 49
-1.5
  0
LTYPE
  2
chain
 70
   64
  3
-------------- -- --------------
 72
   65
 73
    4
 40
18.5
 49
12
 49
-1.5
 49
3.5
 49
-1.5
  0
LTYPE
  2
chain_double_dash
 70
   64
  3
------------ -- -- -------------
 72
   65
 73
    6
 40
23.5
 49
12
 49
-1.5
 49
3.5
 49
-1.5
 49
3.5
 49
-1.5
  0
LTYPE
  2
dashed_dotted
 70
   64
  3
-----------     -     ----------
 72
   65
 73
    4
 40
9.25
 49
6
 49
-1.5
 49
0.25
 49
-1.5
  0
LTYPE
  2
double-dashed_dotted
 70
   64
  3
------   -----------   -   -----
 72
   65
 73
    6
 40
16.75
 49
6
 49
-1.5
 49
6
 49
-1.5
 49
0.25
 49
-1.5
  0
LTYPE
  2
dashed_double-dotted
 70
   64
  3
---------    -    -    ---------
 72
   65
 73
    6
 40
11
 49
6
 49
-1.5
 49
0.25
 49
-1.5
 49
0.25
 49
-1.5
  0
LTYPE
  2
double-dashed_double-dotted
 70
   64
  3
-----   ---------   -   -   ----
 72
   65
 73
    8
 40
18.5
 49
6
 49
-1.5
 49
6
 49
-1.5
 49
0.25
 49
-1.5
 49
0.25
 49
-1.5
  0
LTYPE
  2
dashed_triplicate-dotted
 70
   64
  3
-------    -    -    -    ------
 72
   65
 73
    8
 40
12.75
 49
6
 49
-1.5
 49
0.25
 49
-1.5
 49
0.25
 49
-1.5
 49
0.25
 49
-1.5
  0
LTYPE
  2
double-dashed_triplicate-dotted
 70
   64
  3
-----  ---------  -  -  -  -----
 72
   65
 73
   10
 40
20.25
 49
6
 49
-1.5
 49
6
 49
-1.5
 49
0.25
 49
-1.5
 49
0.25
 49
-1.5
 49
0.25
 49
-1.5
  0
LTYPE
  2
undefined
 70
   64
  3
--------------------------------
 72
   65
 73
    0
 40
0
  0
ENDTAB
  0
TABLE
  2
STYLE
  5
3
100
AcDbSymbolTable
 70
     1
  0
STYLE
  5
10
100
AcDbSymbolTableRecord
100
AcDbTextStyleTableRecord
  2
STANDARD
 70
     0
 40
0.0
 41
1.0
 50
0.0
 71
     0
 42
0.2
  3
txt
  4
bigfont.shx
  0
STYLE
  5
26
100
AcDbSymbolTableRecord
100
AcDbTextStyleTableRecord
  2
TATEGAKI
 70
    68
 40
0.0
 41
1.0
 50
0.0
 71
     0
 42
1.0
  3
txt
  4
bigfont.shx
  0
ENDTAB
  0
TABLE
  2
LAYER
 70
    4
  0
LAYER
  2
_0-0_FRF74-0903
 70
   64
 62
    7
  6
CONTINUOUS
  0
LAYER
  2
_0-1_
 70
   64
 62
    7
  6
CONTINUOUS
  0
LAYER
  2
_0-2_
 70
   64
 62
    7
  6
CONTINUOUS
  0
LAYER
  2
ADD_LINE
 70
   64
 62
    7
  6
CONTINUOUS
  0
ENDTAB
  0
ENDSEC
  0
SECTION
  2
BLOCKS
  0
ENDSEC
  0
SECTION
  2
ENTITIES
  0
LINE
  8
_0-0_FRF74-0903
  6
CONTINUOUS
 62
    8
 10
1599.4484920395305
 20
1688.6777272977304
 11
1649.4484741581371
 21
1688.6777272977304
  0
LINE
  8
_0-2_
  6
CONTINUOUS
 62
    7
 10
2552.566283385414
 20
1056.1979530071658
 11
1577.5662833854144
 21
1056.1979530071658
  0
LINE
  8
_0-2_
  6
CONTINUOUS
 62
    7
 10
2552.5662833856559
 20
2371.1979530071658
 11
1577.5662833856554
 21
2371.1979530071658
  0
LINE
  8
_0-2_
  6
CONTINUOUS
 62
    7
 10
1577.5662833856554
 20
2371.1979530071658
 11
1577.5662833856554
 21
971.19795300716578
  0
LINE
  8
_0-2_
  6
CONTINUOUS
 62
    7
 10
1577.5662833856554
 20
971.19795300716578
 11
2552.5662833856559
 21
971.19795300716578
  0
LINE
  8
_0-2_
  6
CONTINUOUS
 62
    7
 10
2552.5662833856559
 20
971.19795300716578
 11
2552.5662833856559
 21
2371.1979530071658
  0
LINE
  8
_0-2_
  6
CONTINUOUS
 62
    7
 10
2552.566283385414
 20
1098.6979530071658
 11
1577.5662833854144
 21
1098.6979530071658
  0
LINE
  8
_0-2_
  6
CONTINUOUS
 62
    7
 10
2552.5662833856559
 20
1013.6979530071658
 11
2176.0662833856559
 21
1013.6979530071658
  0
LINE
  8
_0-2_
  6
CONTINUOUS
 62
    7
 10
2427.066283385785
 20
1013.6979530071658
 11
2427.066283385785
 21
1056.1979530071658
  0
LINE
  8
_0-2_
  6
CONTINUOUS
 62
    7
 10
2301.566283385785
 20
1013.6979530071658
 11
2301.566283385785
 21
1056.1979530071658
  0
LINE
  8
_0-2_
  6
CONTINUOUS
 62
    7
 10
2176.066283385785
 20
971.19795300716578
 11
2176.066283385785
 21
1098.6979530071658
  0
TEXT
  8
_0-2_
 62
    7
 10
2196.3388549397118
 20
983.13221232091132
 40
15
 41
1
 50
0
  1
大洋金物株式会社 ティーフォルム事業部
  0
TEXT
  8
_0-2_
 62
    7
 10
1582.8750828572131
 20
1080.7343511503877
 40
11
 41
1
 50
0
  1
品名
  0
TEXT
  8
_0-2_
 62
    7
 10
1584.6653190366922
 20
1037.1766457401898
 40
11
 41
1
 50
0
  1
仕様
  0
TEXT
  8
_0-2_
 62
    7
 10
2183.0590642652819
 20
1080.1315954814579
 40
11
 41
1
 50
0
  1
品番
  0
TEXT
  8
_0-2_
 62
    7
 10
2183.0568574992371
 20
1037.182349606808
 40
11
 41
1
 50
0
  1
重量
  0
TEXT
  8
_0-2_
 62
    7
 10
2308.1776163454042
 20
1037.5114084130682
 40
11
 41
1
 50
0
  1
容量
  0
TEXT
  8
_0-2_
 62
    7
 10
2433.6646030852935
 20
1037.4114153200876
 40
11
 41
1
 50
0
  1
縮尺
  0
TEXT
  8
_0-2_
 62
    7
 10
1578.1476923649509
 20
947.26970852156592
 40
15
 41
1
 50
0
  1
120911S
  0
LINE
  8
_0-1_
  6
CONTINUOUS
 62
    4
 10
1624.4484846039859
 20
1950.8366235449198
 11
2184.4484846039854
 21
1950.8366235449198
  0
POINT
  8
_0-1_
 62
    7
 10
1624.4484846039859
 20
1950.8366235449198
  0
POINT
  8
_0-1_
 62
    7
 10
2184.4484846039854
 20
1950.8366235449198
  0
LINE
  8
_0-1_
  6
CONTINUOUS
 62
    4
 10
1624.4484846039859
 20
1950.8366235449198
 11
1624.4484846039859
 21
1915.8366235449198
  0
LINE
  8
_0-1_
  6
CONTINUOUS
 62
    4
 10
2184.4484846039854
 20
1950.8366235449198
 11
2184.4484846039854
 21
1915.8366235449198
  0
LINE
  8
_0-1_
  6
CONTINUOUS
 62
    4
 10
2234.8502491343897
 20
1701.677723840661
 11
2234.8502491343897
 21
1614.1777210490436
  0
POINT
  8
_0-1_
 62
    7
 10
2234.8502491343897
 20
1701.677723840661
  0
POINT
  8
_0-1_
 62
    7
 10
2234.8502491343897
 20
1614.1777210490436
  0
LINE
  8
_0-1_
  6
CONTINUOUS
 62
    4
 10
2234.8502491343897
 20
1701.677723840661
 11
2224.4484765423231
 21
1701.677723840661
  0
LINE
  8
_0-1_
  6
CONTINUOUS
 62
    4
 10
2234.8502491343897
 20
1614.1777210490436
 11
2208.9484972847395
 21
1614.1777210490436
  0
TEXT
  8
_0-1_
 62
    4
 10
2232.3502491343897
 20
1645.4277224448524
 40
12.5
 41
1
 50
90
  1
87.5
  0
LINE
  8
_0-1_
  6
CONTINUOUS
 62
    4
 10
2234.8502491343897
 20
1614.1777210490436
 11
2234.8502491343893
 21
1531.6777210490443
  0
POINT
  8
_0-1_
 62
    7
 10
2234.8502491343893
 20
1531.6777210490443
  0
LINE
  8
_0-1_
  6
CONTINUOUS
 62
    4
 10
2234.8502491343893
 20
1531.6777210490443
 11
2208.9484972847395
 21
1531.6777210490443
  0
TEXT
  8
_0-1_
 62
    4
 10
2232.3502491343897
 20
1560.4277210490441
 40
12.5
 41
1
 50
90
  1
82.5
  0
LINE
  8
_0-1_
  6
CONTINUOUS
 62
    4
 10
2234.8502491343893
 20
1531.6777210490443
 11
2234.8502491343893
 21
1449.1777210490436
  0
POINT
  8
_0-1_
 62
    7
 10
2234.8502491343893
 20
1449.1777210490436
  0
LINE
  8
_0-1_
  6
CONTINUOUS
 62
    4
 10
2234.8502491343893
 20
1449.1777210490436
 11
2208.9484972847395
 21
1449.1777210490436
  0
TEXT
  8
_0-1_
 62
    4
 10
2232.3502491343893
 20
1477.9277210490441
 40
12.5
 41
1
 50
90
  1
82.5
  0
LINE
  8
_0-1_
  6
CONTINUOUS
 62
    4
 10
2259.4484765423231
 20
1701.677723840661
 11
2259.4484765423231
 21
1441.1777211882545
  0
POINT
  8
_0-1_
 62
    7
 10
2259.4484765423231
 20
1701.677723840661
  0
POINT
  8
_0-1_
 62
    7
 10
2259.4484765423231
 20
1441.1777211882545
  0
LINE
  8
_0-1_
  6
CONTINUOUS
 62
    4
 10
2259.4484765423231
 20
1701.677723840661
 11
2224.4484765423231
 21
1701.677723840661
  0
LINE
  8
_0-1_
  6
CONTINUOUS
 62
    4
 10
2259.4484765423231
 20
1441.1777211882545
 11
2208.4484739197187
 21
1441.1777211882545
  0
TEXT
  8
_0-1_
 62
    4
 10
2256.9484765423231
 20
1555.8027225144579
 40
12.5
 41
1
 50
90
  1
260.5
  0
TEXT
  8
_0-1_
 62
    4
 10
2098.885002815427
 20
1427.2924264353762
 40
12.5
 41
1
 50
90
  1
13
  0
TEXT
  8
_0-1_
 62
    4
 10
2098.885002815427
 20
1416.990459428654
 40
12.5
 41
1
 50
90
  1
φ
  0
TEXT
  8
_0-1_
 62
    4
 10
2542.4625266749335
 20
1858.5864302530081
 40
12.5
 41
1
 50
90
  1
φ
  0
LINE
  8
_0-1_
  6
CONTINUOUS
 62
    4
 10
2545.5538557080472
 20
1900.3133280945672
 11
2545.5538557080472
 21
1850.3133310747994
  0
POINT
  8
_0-1_
 62
    7
 10
2545.5538557080472
 20
1900.3133280945672
  0
POINT
  8
_0-1_
 62
    7
 10
2545.5538557080472
 20
1850.3133310747994
  0
LINE
  8
_0-1_
  6
CONTINUOUS
 62
    4
 10
2545.5538557080472
 20
1900.3133280945672
 11
2535.5538557080472
 21
1900.3133280945672
  0
LINE
  8
_0-1_
  6
CONTINUOUS
 62
    4
 10
2545.5538557080472
 20
1850.3133310747994
 11
2535.5538557080472
 21
1850.3133310747994
  0
TEXT
  8
_0-1_
 62
    4
 10
2543.0538557080472
 20
1869.0633295846833
 40
12.5
 41
1
 50
90
  1
50
  0
LINE
  8
_0-1_
  6
CONTINUOUS
 62
    4
 10
2235.5538529164301
 20
1865.813310332383
 11
2235.5538529164301
 21
1884.8133230131366
  0
POINT
  8
_0-1_
 62
    7
 10
2235.5538529164301
 20
1865.813310332383
  0
POINT
  8
_0-1_
 62
    7
 10
2235.5538529164301
 20
1884.8133230131366
  0
LINE
  8
_0-1_
  6
CONTINUOUS
 62
    4
 10
2235.5538529164301
 20
1865.813310332383
 11
2245.5538522062748
 21
1865.813310332383
  0
LINE
  8
_0-1_
  6
CONTINUOUS
 62
    4
 10
2235.5538529164301
 20
1884.8133230131366
 11
2245.5538529164301
 21
1884.8133230131366
  0
TEXT
  8
_0-1_
 62
    4
 10
2233.0538529164301
 20
1869.0633166727598
 40
12.5
 41
1
 50
90
  1
19
  0
TEXT
  8
_0-1_
 62
    4
 10
2233.2403203849872
 20
1858.6137600256359
 40
12.5
 41
1
 50
90
  1
φ
  0
LINE
  8
_0-1_
  6
CONTINUOUS
 62
    4
 10
2520.5538557080472
 20
1925.3133280945672
 11
2507.053850701257
 21
1925.3133280945672
  0
POINT
  8
_0-1_
 62
    7
 10
2520.5538557080472
 20
1925.3133280945672
  0
POINT
  8
_0-1_
 62
    7
 10
2507.053850701257
 20
1925.3133280945672
  0
LINE
  8
_0-1_
  6
CONTINUOUS
 62
    4
 10
2520.5538557080472
 20
1925.3133280945672
 11
2520.5538557080472
 21
1915.3133280945672
  0
LINE
  8
_0-1_
  6
CONTINUOUS
 62
    4
 10
2507.053850701257
 20
1925.3133280945672
 11
2507.053850701257
 21
1914.8133196307076
  0
TEXT
  8
_0-1_
 62
    4
 10
2501.3038532046521
 20
1927.8133280945672
 40
12.5
 41
1
 50
0
  1
13.5
  0
ARC
  8
_0-0_FRF74-0903
  6
CONTINUOUS
 62
    7
 10
2184.4484846039854
 20
1875.8366235449198
 40
21
 50
0
 51
161.96946460666987
  0
ARC
  8
_0-0_FRF74-0903
  6
CONTINUOUS
 62
    7
 10
2184.4484846039854
 20
1875.8366235449198
 40
21.000000000000007
 50
198.03053539334712
 51
0.0000000000000254
  0
ARC
  8
_0-0_FRF74-0903
  6
CONTINUOUS
 62
    7
 10
2184.4484846039854
 20
1875.8366235449198
 40
16.000000000000021
 50
203.96948231777168
 51
0
  0
ARC
  8
_0-0_FRF74-0903
  6
CONTINUOUS
 62
    7
 10
2184.4484846039854
 20
1875.8366235449198
 40
16.000000000000114
 50
0
 51
156.03051768225112
  0
ARC
  8
_0-0_FRF74-0903
  6
CONTINUOUS
 62
    7
 10
2184.4484846039854
 20
1875.8366235449198
 40
25.000000000000103
 50
195.07006214489633
 51
0
  0
ARC
  8
_0-0_FRF74-0903
  6
CONTINUOUS
 62
    7
 10
2184.4484846039854
 20
1875.8366235449198
 40
25.000000000000114
 50
0
 51
164.92993785511771
  0
CIRCLE
  8
_0-0_FRF74-0903
  6
CONTINUOUS
 62
    7
 10
2184.4484846039854
 20
1875.8366235449171
 40
9.4999999999998863
  0
LINE
  8
_0-0_FRF74-0903
  6
CONTINUOUS
 62
    7
 10
1631.3766736877849
 20
1869.3366234108066
 11
2177.5202799929075
 21
1869.3366234108066
  0
LINE
  8
_0-0_FRF74-0903
  6
CONTINUOUS
 62
    7
 10
2177.5202799929075
 20
1882.3366236790275
 11
1631.3766736877849
 21
1882.3366236790275
  0
ARC
  8
_0-0_FRF74-0903
  6
CONTINUOUS
 62
    7
 10
1624.4484846039859
 20
1875.8366235449198
 40
21.000000000000011
 50
18.030535393330119
 51
341.96946460665458
  0
ARC
  8
_0-0_FRF74-0903
  6
CONTINUOUS
 62
    7
 10
1624.4484846039859
 20
1875.8366235449198
 40
25.000000000000018
 50
15.070062144882348
 51
344.92993785510521
  0
ARC
  8
_0-0_FRF74-0903
  6
CONTINUOUS
 62
    7
 10
1624.4484846039859
 20
1875.8366235449198
 40
16.000000000000032
 50
23.969482317748945
 51
336.03051768223014
  0
ARC
  8
_0-0_FRF74-0903
  6
CONTINUOUS
 62
    7
 10
1624.4484846039859
 20
1875.8366235449198
 40
9.5000000000001137
 50
89.999999999999332
 51
214.19114119181438
  0
CIRCLE
  8
_0-0_FRF74-0903
  6
CONTINUOUS
 62
    7
 10
1624.4484846039859
 20
1875.8366235449198
 40
9.5
  0
LINE
  8
_0-0_FRF74-0903
  6
CONTINUOUS
 62
    7
 10
2260.053853055641
 20
1866.3133336974038
 11
2260.053853055641
 21
1884.3133254719628
  0
LINE
  8
_0-0_FRF74-0903
  6
CONTINUOUS
 62
    7
 10
2342.5538526086057
 20
1865.813310332383
 11
2358.55385523121
 21
1865.813310332383
  0
LINE
  8
_0-0_FRF74-0903
  6
CONTINUOUS
 62
    7
 10
2425.0538484362805
 20
1865.813310332383
 11
2441.0538510588849
 21
1865.813310332383
  0
LINE
  8
_0-0_FRF74-0903
  6
CONTINUOUS
 62
    7
 10
2520.5538557080472
 20
1900.3133280945672
 11
2507.5538591651166
 21
1900.3133280945672
  0
LINE
  8
_0-0_FRF74-0903
  6
CONTINUOUS
 62
    7
 10
2507.5538591651166
 20
1850.3133310747994
 11
2520.5538557080472
 21
1850.3133310747994
  0
ARC
  8
_0-0_FRF74-0903
  6
CONTINUOUS
 62
    7
 10
2507.5538529164305
 20
1850.8133230131371
 40
0.5
 50
180
 51
270
  0
ARC
  8
_0-0_FRF74-0903
  6
CONTINUOUS
 62
    7
 10
2507.5538529164305
 20
1899.8133230131366
 40
0.5000000000001135
 50
90
 51
180
  0
LINE
  8
_0-0_FRF74-0903
  6
CONTINUOUS
 62
    7
 10
2425.0538484362805
 20
1884.8133190346612
 11
2358.55385523121
 21
1884.8133190346612
  0
LINE
  8
_0-0_FRF74-0903
  6
CONTINUOUS
 62
    7
 10
2358.55385523121
 20
1865.813310332383
 11
2425.0538484362805
 21
1865.813310332383
  0
LINE
  8
_0-0_FRF74-0903
  6
CONTINUOUS
 62
    7
 10
2342.5538526086057
 20
1884.8133190346612
 11
2276.0538528842776
 21
1884.8133190346612
  0
LINE
  8
_0-0_FRF74-0903
  6
CONTINUOUS
 62
    7
 10
2276.0538528842776
 20
1865.813310332383
 11
2342.5538526086057
 21
1865.813310332383
  0
LINE
  8
_0-0_FRF74-0903
  6
CONTINUOUS
 62
    7
 10
2507.053850701257
 20
1884.8133190346612
 11
2441.0538510588849
 21
1884.8133190346612
  0
LINE
  8
_0-0_FRF74-0903
  6
CONTINUOUS
 62
    7
 10
2441.0538510588849
 20
1865.813310332383
 11
2507.053850701257
 21
1865.813310332383
  0
LINE
  8
_0-0_FRF74-0903
  6
CONTINUOUS
 62
    7
 10
2260.5538522062748
 20
1865.813310332383
 11
2276.0538528842776
 21
1865.813310332383
  0
ARC
  8
_0-0_FRF74-0903
  6
CONTINUOUS
 62
    7
 10
2260.5538529164301
 20
1884.3133230131368
 40
0.5
 50
90
 51
180
  0
ARC
  8
_0-0_FRF74-0903
  6
CONTINUOUS
 62
    7
 10
2260.5538529164301
 20
1866.3133230131371
 40
0.5
 50
180
 51
270
  0
LINE
  8
_0-0_FRF74-0903
  6
CONTINUOUS
 62
    7
 10
2358.55385523121
 20
1865.813310332383
 11
2358.55385523121
 21
1884.8133190346612
  0
LINE
  8
_0-0_FRF74-0903
  6
CONTINUOUS
 62
    7
 10
2342.5538526086057
 20
1865.813310332383
 11
2342.5538526086057
 21
1884.8133190346612
  0
LINE
  8
_0-0_FRF74-0903
  6
CONTINUOUS
 62
    7
 10
2441.0538510588849
 20
1865.813310332383
 11
2441.0538510588849
 21
1884.8133190346612
  0
LINE
  8
_0-0_FRF74-0903
  6
CONTINUOUS
 62
    7
 10
2425.0538484362805
 20
1865.813310332383
 11
2425.0538484362805
 21
1884.8133190346612
  0
LINE
  8
_0-0_FRF74-0903
  6
CONTINUOUS
 62
    7
 10
2520.5538557080472
 20
1900.3133280945672
 11
2520.5538557080472
 21
1850.3133310747994
  0
LINE
  8
_0-0_FRF74-0903
  6
CONTINUOUS
 62
    7
 10
2507.053850701257
 20
1850.8133246374978
 11
2507.053850701257
 21
1899.8133196307076
  0
LINE
  8
_0-0_FRF74-0903
  6
CONTINUOUS
 62
    7
 10
2276.0538528842776
 20
1865.813310332383
 11
2276.0538528842776
 21
1884.8133190346612
  0
LINE
  8
_0-0_FRF74-0903
  6
CONTINUOUS
 62
    7
 10
2342.5538526086057
 20
1884.8133190346612
 11
2358.55385523121
 21
1884.8133190346612
  0
LINE
  8
_0-0_FRF74-0903
  6
CONTINUOUS
 62
    7
 10
2425.0538484362805
 20
1884.8133190346612
 11
2441.0538510588849
 21
1884.8133190346612
  0
LINE
  8
_0-0_FRF74-0903
  6
CONTINUOUS
 62
    7
 10
2260.5538529164301
 20
1884.8133230131366
 11
2276.0538528842776
 21
1884.8133230131366
  0
LINE
  8
_0-0_FRF74-0903
  6
CONTINUOUS
 62
    7
 10
2193.9484972847395
 20
1523.6777207412194
 11
2193.9484972847395
 21
1539.6777233638238
  0
LINE
  8
_0-0_FRF74-0903
  6
CONTINUOUS
 62
    7
 10
2174.9484885824613
 20
1525.177720055766
 11
2174.9484885824613
 21
1523.6777207412194
  0
LINE
  8
_0-0_FRF74-0903
  6
CONTINUOUS
 62
    7
 10
2174.9484885824613
 20
1539.6777233638238
 11
2174.9484885824613
 21
1538.1777203239869
  0
LINE
  8
_0-0_FRF74-0903
  6
CONTINUOUS
 62
    7
 10
2193.9484972847395
 20
1606.1777165688943
 11
2193.9484972847395
 21
1622.1777191914987
  0
LINE
  8
_0-0_FRF74-0903
  6
CONTINUOUS
 62
    7
 10
2174.9484885824613
 20
1607.6777270593118
 11
2174.9484885824613
 21
1606.1777165688943
  0
LINE
  8
_0-0_FRF74-0903
  6
CONTINUOUS
 62
    7
 10
2174.9484885824613
 20
1622.1777191914987
 11
2174.9484885824613
 21
1620.6777236022424
  0
LINE
  8
_0-0_FRF74-0903
  6
CONTINUOUS
 62
    7
 10
2159.4484795225553
 20
1701.677723840661
 11
2159.4484795225553
 21
1688.6777272977304
  0
LINE
  8
_0-0_FRF74-0903
  6
CONTINUOUS
 62
    7
 10
2209.4484765423231
 20
1688.6777272977304
 11
2209.4484765423231
 21
1701.677723840661
  0
ARC
  8
_0-0_FRF74-0903
  6
CONTINUOUS
 62
    7
 10
2208.9484846039859
 20
1688.6777210490445
 40
0.5
 50
270
 51
0
  0
ARC
  8
_0-0_FRF74-0903
  6
CONTINUOUS
 62
    7
 10
2159.9484846039859
 20
1688.6777210490445
 40
0.5000000000001135
 50
180
 51
270
  0
LINE
  8
_0-0_FRF74-0903
  6
CONTINUOUS
 62
    7
 10
2174.9484885824613
 20
1606.1777165688943
 11
2174.9484885824613
 21
1539.6777233638238
  0
LINE
  8
_0-0_FRF74-0903
  6
CONTINUOUS
 62
    7
 10
2193.9484972847395
 20
1539.6777233638238
 11
2193.9484972847395
 21
1606.1777165688943
  0
LINE
  8
_0-0_FRF74-0903
  6
CONTINUOUS
 62
    7
 10
2174.9484885824613
 20
1523.6777207412194
 11
2174.9484885824613
 21
1457.1777210168912
  0
LINE
  8
_0-0_FRF74-0903
  6
CONTINUOUS
 62
    7
 10
2193.9484972847395
 20
1457.1777210168912
 11
2193.9484972847395
 21
1523.6777207412194
  0
LINE
  8
_0-0_FRF74-0903
  6
CONTINUOUS
 62
    7
 10
2174.9484885824613
 20
1688.1777188338708
 11
2174.9484885824613
 21
1622.1777191914987
  0
LINE
  8
_0-0_FRF74-0903
  6
CONTINUOUS
 62
    7
 10
2193.9484972847395
 20
1622.1777191914987
 11
2193.9484972847395
 21
1688.1777188338708
  0
LINE
  8
_0-0_FRF74-0903
  6
CONTINUOUS
 62
    7
 10
2193.9484972847395
 20
1441.6777203388883
 11
2193.9484972847395
 21
1457.1777210168912
  0
LINE
  8
_0-0_FRF74-0903
  6
CONTINUOUS
 62
    7
 10
2174.9484885824613
 20
1442.6777205028011
 11
2174.9484885824613
 21
1441.6777203388883
  0
LINE
  8
_0-0_FRF74-0903
  6
CONTINUOUS
 62
    7
 10
2174.9484885824613
 20
1457.1777210168912
 11
2174.9484885824613
 21
1455.677720771022
  0
ARC
  8
_0-0_FRF74-0903
  6
CONTINUOUS
 62
    7
 10
2175.4484846039859
 20
1441.6777210490436
 40
0.5
 50
180
 51
270
  0
ARC
  8
_0-0_FRF74-0903
  6
CONTINUOUS
 62
    7
 10
2193.4484846039859
 20
1441.6777210490436
 40
0.5
 50
270
 51
0
  0
LINE
  8
_0-0_FRF74-0903
  6
CONTINUOUS
 62
    7
 10
2193.9484972847395
 20
1539.6777233638238
 11
2174.9484885824613
 21
1539.6777233638238
  0
LINE
  8
_0-0_FRF74-0903
  6
CONTINUOUS
 62
    7
 10
2193.9484972847395
 20
1523.6777207412194
 11
2174.9484885824613
 21
1523.6777207412194
  0
LINE
  8
_0-0_FRF74-0903
  6
CONTINUOUS
 62
    7
 10
2174.9958295715742
 20
1538.1083181657266
 11
2175.0122357500486
 21
1538.0841857351732
  0
LINE
  8
_0-0_FRF74-0903
  6
CONTINUOUS
 62
    7
 10
2175.0122357500486
 20
1538.0841857351732
 11
2175.3679860723905
 21
1537.5475949205827
  0
LINE
  8
_0-0_FRF74-0903
  6
CONTINUOUS
 62
    7
 10
2175.3679860723905
 20
1537.5475949205827
 11
2175.9949077261381
 21
1536.5215754665803
  0
LINE
  8
_0-0_FRF74-0903
  6
CONTINUOUS
 62
    7
 10
2175.9949077261381
 20
1536.5215754665803
 11
2176.8242467535429
 21
1534.8603269614648
  0
LINE
  8
_0-0_FRF74-0903
  6
CONTINUOUS
 62
    7
 10
2176.8242467535429
 20
1534.8603269614648
 11
2177.3795236242704
 21
1533.0813741840791
  0
LINE
  8
_0-0_FRF74-0903
  6
CONTINUOUS
 62
    7
 10
2177.3795236242704
 20
1533.0813741840791
 11
2177.5166888130598
 21
1531.4547112740945
  0
LINE
  8
_0-0_FRF74-0903
  6
CONTINUOUS
 62
    7
 10
2177.5166888130598
 20
1531.4547112740945
 11
2177.2838134659223
 21
1529.8522031464051
  0
LINE
  8
_0-0_FRF74-0903
  6
CONTINUOUS
 62
    7
 10
2177.2838134659223
 20
1529.8522031464051
 11
2176.605870236247
 21
1528.0025965132188
  0
LINE
  8
_0-0_FRF74-0903
  6
CONTINUOUS
 62
    7
 10
2176.605870236247
 20
1528.0025965132188
 11
2175.8067805660658
 21
1526.5125399984788
  0
LINE
  8
_0-0_FRF74-0903
  6
CONTINUOUS
 62
    7
 10
2175.8067805660658
 20
1526.5125399984788
 11
2175.4199017179899
 21
1525.8884756423902
  0
LINE
  8
_0-0_FRF74-0903
  6
CONTINUOUS
 62
    7
 10
2175.4199017179899
 20
1525.8884756423902
 11
2175.1201201570921
 21
1525.4312484123182
  0
LINE
  8
_0-0_FRF74-0903
  6
CONTINUOUS
 62
    7
 10
2175.1201201570921
 20
1525.4312484123182
 11
2174.9484885824613
 21
1525.177720055766
  0
LINE
  8
_0-0_FRF74-0903
  6
CONTINUOUS
 62
    7
 10
2193.9484972847395
 20
1622.1777191914987
 11
2174.9484885824613
 21
1622.1777191914987
  0
LINE
  8
_0-0_FRF74-0903
  6
CONTINUOUS
 62
    7
 10
2193.9484972847395
 20
1606.1777165688943
 11
2174.9484885824613
 21
1606.1777165688943
  0
LINE
  8
_0-0_FRF74-0903
  6
CONTINUOUS
 62
    7
 10
2174.9958295715742
 20
1620.6083139934015
 11
2175.0122357500486
 21
1620.5841890134286
  0
LINE
  8
_0-0_FRF74-0903
  6
CONTINUOUS
 62
    7
 10
2175.0122357500486
 20
1620.5841890134286
 11
2175.3679860723905
 21
1620.0475981988382
  0
LINE
  8
_0-0_FRF74-0903
  6
CONTINUOUS
 62
    7
 10
2175.3679860723905
 20
1620.0475981988382
 11
2175.9949077261381
 21
1619.0215787448358
  0
LINE
  8
_0-0_FRF74-0903
  6
CONTINUOUS
 62
    7
 10
2175.9949077261381
 20
1619.0215787448358
 11
2176.8242467535429
 21
1617.3603227891397
  0
LINE
  8
_0-0_FRF74-0903
  6
CONTINUOUS
 62
    7
 10
2176.8242467535429
 20
1617.3603227891397
 11
2177.3795236242704
 21
1615.5813774623346
  0
LINE
  8
_0-0_FRF74-0903
  6
CONTINUOUS
 62
    7
 10
2177.3795236242704
 20
1615.5813774623346
 11
2177.5166888130598
 21
1613.9547071017694
  0
LINE
  8
_0-0_FRF74-0903
  6
CONTINUOUS
 62
    7
 10
2177.5166888130598
 20
1613.9547071017694
 11
2177.2838134659223
 21
1612.3522064246606
  0
LINE
  8
_0-0_FRF74-0903
  6
CONTINUOUS
 62
    7
 10
2177.2838134659223
 20
1612.3522064246606
 11
2176.605870236247
 21
1610.5025997914743
  0
LINE
  8
_0-0_FRF74-0903
  6
CONTINUOUS
 62
    7
 10
2176.605870236247
 20
1610.5025997914743
 11
2175.8067805660658
 21
1609.0125432767343
  0
LINE
  8
_0-0_FRF74-0903
  6
CONTINUOUS
 62
    7
 10
2175.8067805660658
 20
1609.0125432767343
 11
2175.4199017179899
 21
1608.3884826459359
  0
LINE
  8
_0-0_FRF74-0903
  6
CONTINUOUS
 62
    7
 10
2175.4199017179899
 20
1608.3884826459359
 11
2175.1201201570921
 21
1607.9312405147027
  0
LINE
  8
_0-0_FRF74-0903
  6
CONTINUOUS
 62
    7
 10
2175.1201201570921
 20
1607.9312405147027
 11
2174.9484885824613
 21
1607.6777270593118
  0
LINE
  8
_0-0_FRF74-0903
  6
CONTINUOUS
 62
    7
 10
2159.4484795225553
 20
1701.677723840661
 11
2209.4484765423231
 21
1701.677723840661
  0
LINE
  8
_0-0_FRF74-0903
  6
CONTINUOUS
 62
    7
 10
2208.9484829796247
 20
1688.1777188338708
 11
2159.9484879864149
 21
1688.1777188338708
  0
LINE
  8
_0-0_FRF74-0903
  6
CONTINUOUS
 62
    7
 10
2193.9484972847395
 20
1457.1777210168912
 11
2174.9484885824613
 21
1457.1777210168912
  0
LINE
  8
_0-0_FRF74-0903
  6
CONTINUOUS
 62
    7
 10
2174.9958295715742
 20
1455.6083148874714
 11
2175.0122357500486
 21
1455.5841880448534
  0
LINE
  8
_0-0_FRF74-0903
  6
CONTINUOUS
 62
    7
 10
2175.0122357500486
 20
1455.5841880448534
 11
2175.3679860723905
 21
1455.0475972302629
  0
LINE
  8
_0-0_FRF74-0903
  6
CONTINUOUS
 62
    7
 10
2175.3679860723905
 20
1455.0475972302629
 11
2175.9949077261381
 21
1454.0215787075831
  0
LINE
  8
_0-0_FRF74-0903
  6
CONTINUOUS
 62
    7
 10
2175.9949077261381
 20
1454.0215787075831
 11
2176.8242467535429
 21
1452.3603255458547
  0
LINE
  8
_0-0_FRF74-0903
  6
CONTINUOUS
 62
    7
 10
2176.8242467535429
 20
1452.3603255458547
 11
2177.3795236242704
 21
1450.5813736997916
  0
LINE
  8
_0-0_FRF74-0903
  6
CONTINUOUS
 62
    7
 10
2177.3795236242704
 20
1450.5813736997916
 11
2177.5166888130598
 21
1448.9547089271618
  0
LINE
  8
_0-0_FRF74-0903
  6
CONTINUOUS
 62
    7
 10
2177.5166888130598
 20
1448.9547089271618
 11
2177.2838134659223
 21
1447.3522017307951
  0
LINE
  8
_0-0_FRF74-0903
  6
CONTINUOUS
 62
    7
 10
2177.2838134659223
 20
1447.3522017307951
 11
2176.605870236247
 21
1445.502598822899
  0
LINE
  8
_0-0_FRF74-0903
  6
CONTINUOUS
 62
    7
 10
2176.605870236247
 20
1445.502598822899
 11
2175.8067805660658
 21
1444.0125404455139
  0
LINE
  8
_0-0_FRF74-0903
  6
CONTINUOUS
 62
    7
 10
2175.8067805660658
 20
1444.0125404455139
 11
2175.4199017179899
 21
1443.3884760894252
  0
LINE
  8
_0-0_FRF74-0903
  6
CONTINUOUS
 62
    7
 10
2175.4199017179899
 20
1443.3884760894252
 11
2175.1201201570921
 21
1442.9312469967081
  0
LINE
  8
_0-0_FRF74-0903
  6
CONTINUOUS
 62
    7
 10
2175.1201201570921
 20
1442.9312469967081
 11
2174.9484885824613
 21
1442.6777205028011
  0
LINE
  8
_0-0_FRF74-0903
  6
CONTINUOUS
 62
    7
 10
2193.4484739197187
 20
1441.1777211882545
 11
2175.4484821451597
 21
1441.1777211882545
  0
LINE
  8
_0-0_FRF74-0903
  6
CONTINUOUS
 62
    7
 10
1633.9484949005534
 20
1607.6777270593118
 11
2174.9484885824613
 21
1607.6777270593118
  0
LINE
  8
_0-0_FRF74-0903
  6
CONTINUOUS
 62
    7
 10
2174.9484885824613
 20
1620.6777236022424
 11
1633.9484949005534
 21
1620.6777236022424
  0
LINE
  8
_0-0_FRF74-0903
  6
CONTINUOUS
 62
    7
 10
1633.9484949005534
 20
1525.177720055766
 11
2174.9484885824613
 21
1525.177720055766
  0
LINE
  8
_0-0_FRF74-0903
  6
CONTINUOUS
 62
    7
 10
2174.9484885824613
 20
1538.1777203239869
 11
1633.9484949005534
 21
1538.1777203239869
  0
LINE
  8
_0-0_FRF74-0903
  6
CONTINUOUS
 62
    7
 10
1633.9484949005534
 20
1538.1777203239869
 11
1633.9484949005534
 21
1539.6777233638238
  0
LINE
  8
_0-0_FRF74-0903
  6
CONTINUOUS
 62
    7
 10
1633.9484949005534
 20
1523.6777207412194
 11
1633.9484949005534
 21
1525.177720055766
  0
LINE
  8
_0-0_FRF74-0903
  6
CONTINUOUS
 62
    7
 10
1614.9484712971141
 20
1539.6777233638238
 11
1614.9484712971141
 21
1523.6777207412194
  0
LINE
  8
_0-0_FRF74-0903
  6
CONTINUOUS
 62
    7
 10
1633.9484949005534
 20
1620.6777236022424
 11
1633.9484949005534
 21
1622.1777191914987
  0
LINE
  8
_0-0_FRF74-0903
  6
CONTINUOUS
 62
    7
 10
1633.9484949005534
 20
1606.1777165688943
 11
1633.9484949005534
 21
1607.6777270593118
  0
LINE
  8
_0-0_FRF74-0903
  6
CONTINUOUS
 62
    7
 10
1614.9484712971141
 20
1622.1777191914987
 11
1614.9484712971141
 21
1606.1777165688943
  0
LINE
  8
_0-0_FRF74-0903
  6
CONTINUOUS
 62
    7
 10
1599.4484920395305
 20
1701.677723840661
 11
1599.4484920395305
 21
1688.6777272977304
  0
LINE
  8
_0-0_FRF74-0903
  6
CONTINUOUS
 62
    7
 10
1649.4484741581371
 20
1688.6777272977304
 11
1649.4484741581371
 21
1701.677723840661
  0
ARC
  8
_0-0_FRF74-0903
  6
CONTINUOUS
 62
    7
 10
1648.9484846039859
 20
1688.6777210490445
 40
0.5
 50
270
 51
0
  0
ARC
  8
_0-0_FRF74-0903
  6
CONTINUOUS
 62
    7
 10
1599.9484846039857
 20
1688.6777210490445
 40
0.5
 50
180
 51
270
  0
LINE
  8
_0-0_FRF74-0903
  6
CONTINUOUS
 62
    7
 10
1614.9484712971141
 20
1523.6777207412194
 11
1614.9484712971141
 21
1457.1777210168912
  0
LINE
  8
_0-0_FRF74-0903
  6
CONTINUOUS
 62
    7
 10
1633.9484949005534
 20
1457.1777210168912
 11
1633.9484949005534
 21
1523.6777207412194
  0
LINE
  8
_0-0_FRF74-0903
  6
CONTINUOUS
 62
    7
 10
1614.9484712971141
 20
1606.1777165688943
 11
1614.9484712971141
 21
1539.6777233638238
  0
LINE
  8
_0-0_FRF74-0903
  6
CONTINUOUS
 62
    7
 10
1633.9484949005534
 20
1539.6777233638238
 11
1633.9484949005534
 21
1606.1777165688943
  0
LINE
  8
_0-0_FRF74-0903
  6
CONTINUOUS
 62
    7
 10
1614.9484712971141
 20
1688.1777188338708
 11
1614.9484712971141
 21
1622.1777191914987
  0
LINE
  8
_0-0_FRF74-0903
  6
CONTINUOUS
 62
    7
 10
1633.9484949005534
 20
1622.1777191914987
 11
1633.9484949005534
 21
1688.1777188338708
  0
LINE
  8
_0-0_FRF74-0903
  6
CONTINUOUS
 62
    7
 10
1633.9484949005534
 20
1455.677720771022
 11
1633.9484949005534
 21
1457.1777210168912
  0
LINE
  8
_0-0_FRF74-0903
  6
CONTINUOUS
 62
    7
 10
1633.9484949005534
 20
1441.6777203388883
 11
1633.9484949005534
 21
1442.6777205028011
  0
LINE
  8
_0-0_FRF74-0903
  6
CONTINUOUS
 62
    7
 10
1614.9484712971141
 20
1457.1777210168912
 11
1614.9484712971141
 21
1441.6777203388883
  0
ARC
  8
_0-0_FRF74-0903
  6
CONTINUOUS
 62
    7
 10
1615.4484846039854
 20
1441.6777210490436
 40
0.5
 50
180
 51
270
  0
ARC
  8
_0-0_FRF74-0903
  6
CONTINUOUS
 62
    7
 10
1633.4484846039857
 20
1441.6777210490436
 40
0.5
 50
270
 51
0
  0
LINE
  8
_0-0_FRF74-0903
  6
CONTINUOUS
 62
    7
 10
1633.9484949005534
 20
1442.6777205028011
 11
2174.9484885824613
 21
1442.6777205028011
  0
LINE
  8
_0-0_FRF74-0903
  6
CONTINUOUS
 62
    7
 10
2174.9484885824613
 20
1455.677720771022
 11
1633.9484949005534
 21
1455.677720771022
  0
LINE
  8
_0-0_FRF74-0903
  6
CONTINUOUS
 62
    7
 10
1633.9484949005534
 20
1523.6777207412194
 11
1614.9484712971141
 21
1523.6777207412194
  0
LINE
  8
_0-0_FRF74-0903
  6
CONTINUOUS
 62
    7
 10
1633.9484949005534
 20
1539.6777233638238
 11
1614.9484712971141
 21
1539.6777233638238
  0
LINE
  8
_0-0_FRF74-0903
  6
CONTINUOUS
 62
    7
 10
1633.9484949005534
 20
1606.1777165688943
 11
1614.9484712971141
 21
1606.1777165688943
  0
LINE
  8
_0-0_FRF74-0903
  6
CONTINUOUS
 62
    7
 10
1633.9484949005534
 20
1622.1777191914987
 11
1614.9484712971141
 21
1622.1777191914987
  0
LINE
  8
_0-0_FRF74-0903
  6
CONTINUOUS
 62
    7
 10
1599.4484920395305
 20
1701.677723840661
 11
1649.4484741581371
 21
1701.677723840661
  0
LINE
  8
_0-0_FRF74-0903
  6
CONTINUOUS
 62
    7
 10
1648.9484805954387
 20
1688.1777188338708
 11
1599.9484856022289
 21
1688.1777188338708
  0
LINE
  8
_0-0_FRF74-0903
  6
CONTINUOUS
 62
    7
 10
1633.9484949005534
 20
1457.1777210168912
 11
1614.9484712971141
 21
1457.1777210168912
  0
LINE
  8
_0-0_FRF74-0903
  6
CONTINUOUS
 62
    7
 10
1633.4484715355327
 20
1441.1777211882545
 11
1615.4484946621349
 21
1441.1777211882545
  0
LINE
  8
_0-0_FRF74-0903
  6
CONTINUOUS
 62
    8
 10
1614.9484712971141
 20
1441.6777203388883
 11
1633.9484949005534
 21
1441.6777203388883
  0
LINE
  8
_0-0_FRF74-0903
  6
CONTINUOUS
 62
    7
 10
1633.8192720306804
 20
1620.6083139934015
 11
1633.802865852206
 21
1620.5841890134286
  0
LINE
  8
_0-0_FRF74-0903
  6
CONTINUOUS
 62
    7
 10
1633.802865852206
 20
1620.5841890134286
 11
1633.447115529864
 21
1620.0475981988382
  0
LINE
  8
_0-0_FRF74-0903
  6
CONTINUOUS
 62
    7
 10
1633.447115529864
 20
1620.0475981988382
 11
1632.8201938761165
 21
1619.0215787448358
  0
LINE
  8
_0-0_FRF74-0903
  6
CONTINUOUS
 62
    7
 10
1632.8201938761165
 20
1619.0215787448358
 11
1631.9908548487117
 21
1617.3603227891397
  0
LINE
  8
_0-0_FRF74-0903
  6
CONTINUOUS
 62
    7
 10
1631.9908548487117
 20
1617.3603227891397
 11
1631.4355779779842
 21
1615.5813774623346
  0
LINE
  8
_0-0_FRF74-0903
  6
CONTINUOUS
 62
    7
 10
1631.4355779779842
 20
1615.5813774623346
 11
1631.2984127891948
 21
1613.9547071017694
  0
LINE
  8
_0-0_FRF74-0903
  6
CONTINUOUS
 62
    7
 10
1631.2984127891948
 20
1613.9547071017694
 11
1631.5312881363323
 21
1612.3522064246606
  0
LINE
  8
_0-0_FRF74-0903
  6
CONTINUOUS
 62
    7
 10
1631.5312881363323
 20
1612.3522064246606
 11
1632.2092313660075
 21
1610.5025997914743
  0
LINE
  8
_0-0_FRF74-0903
  6
CONTINUOUS
 62
    7
 10
1632.2092313660075
 20
1610.5025997914743
 11
1633.0083210361888
 21
1609.0125432767343
  0
LINE
  8
_0-0_FRF74-0903
  6
CONTINUOUS
 62
    7
 10
1633.0083210361888
 20
1609.0125432767343
 11
1633.3951998842647
 21
1608.3884826459359
  0
LINE
  8
_0-0_FRF74-0903
  6
CONTINUOUS
 62
    7
 10
1633.3951998842647
 20
1608.3884826459359
 11
1633.6949814451625
 21
1607.9312405147027
  0
LINE
  8
_0-0_FRF74-0903
  6
CONTINUOUS
 62
    7
 10
1633.6949814451625
 20
1607.9312405147027
 11
1633.8666130197932
 21
1607.6777270593118
  0
LINE
  8
_0-0_FRF74-0903
  6
CONTINUOUS
 62
    7
 10
1633.8192720306804
 20
1538.1083181657266
 11
1633.802865852206
 21
1538.0841857351732
  0
LINE
  8
_0-0_FRF74-0903
  6
CONTINUOUS
 62
    7
 10
1633.802865852206
 20
1538.0841857351732
 11
1633.447115529864
 21
1537.5475949205827
  0
LINE
  8
_0-0_FRF74-0903
  6
CONTINUOUS
 62
    7
 10
1633.447115529864
 20
1537.5475949205827
 11
1632.8201938761165
 21
1536.5215754665803
  0
LINE
  8
_0-0_FRF74-0903
  6
CONTINUOUS
 62
    7
 10
1632.8201938761165
 20
1536.5215754665803
 11
1631.9908548487117
 21
1534.8603269614648
  0
LINE
  8
_0-0_FRF74-0903
  6
CONTINUOUS
 62
    7
 10
1631.9908548487117
 20
1534.8603269614648
 11
1631.4355779779842
 21
1533.0813741840791
  0
LINE
  8
_0-0_FRF74-0903
  6
CONTINUOUS
 62
    7
 10
1631.4355779779842
 20
1533.0813741840791
 11
1631.2984127891948
 21
1531.4547112740945
  0
LINE
  8
_0-0_FRF74-0903
  6
CONTINUOUS
 62
    7
 10
1631.2984127891948
 20
1531.4547112740945
 11
1631.5312881363323
 21
1529.8522031464051
  0
LINE
  8
_0-0_FRF74-0903
  6
CONTINUOUS
 62
    7
 10
1631.5312881363323
 20
1529.8522031464051
 11
1632.2092313660075
 21
1528.0025965132188
  0
LINE
  8
_0-0_FRF74-0903
  6
CONTINUOUS
 62
    7
 10
1632.2092313660075
 20
1528.0025965132188
 11
1633.0083210361888
 21
1526.5125399984788
  0
LINE
  8
_0-0_FRF74-0903
  6
CONTINUOUS
 62
    7
 10
1633.0083210361888
 20
1526.5125399984788
 11
1633.3951998842647
 21
1525.8884756423902
  0
LINE
  8
_0-0_FRF74-0903
  6
CONTINUOUS
 62
    7
 10
1633.3951998842647
 20
1525.8884756423902
 11
1633.6949814451625
 21
1525.4312484123182
  0
LINE
  8
_0-0_FRF74-0903
  6
CONTINUOUS
 62
    7
 10
1633.6949814451625
 20
1525.4312484123182
 11
1633.8666130197932
 21
1525.177720055766
  0
LINE
  8
_0-0_FRF74-0903
  6
CONTINUOUS
 62
    7
 10
1633.8192720306804
 20
1455.6083148874714
 11
1633.802865852206
 21
1455.5841880448534
  0
LINE
  8
_0-0_FRF74-0903
  6
CONTINUOUS
 62
    7
 10
1633.802865852206
 20
1455.5841880448534
 11
1633.447115529864
 21
1455.0475972302629
  0
LINE
  8
_0-0_FRF74-0903
  6
CONTINUOUS
 62
    7
 10
1633.447115529864
 20
1455.0475972302629
 11
1632.8201938761165
 21
1454.0215787075831
  0
LINE
  8
_0-0_FRF74-0903
  6
CONTINUOUS
 62
    7
 10
1632.8201938761165
 20
1454.0215787075831
 11
1631.9908548487117
 21
1452.3603255458547
  0
LINE
  8
_0-0_FRF74-0903
  6
CONTINUOUS
 62
    7
 10
1631.9908548487117
 20
1452.3603255458547
 11
1631.4355779779842
 21
1450.5813736997916
  0
LINE
  8
_0-0_FRF74-0903
  6
CONTINUOUS
 62
    7
 10
1631.4355779779842
 20
1450.5813736997916
 11
1631.2984127891948
 21
1448.9547089271618
  0
LINE
  8
_0-0_FRF74-0903
  6
CONTINUOUS
 62
    7
 10
1631.2984127891948
 20
1448.9547089271618
 11
1631.5312881363323
 21
1447.3522017307951
  0
LINE
  8
_0-0_FRF74-0903
  6
CONTINUOUS
 62
    7
 10
1631.5312881363323
 20
1447.3522017307951
 11
1632.2092313660075
 21
1445.502598822899
  0
LINE
  8
_0-0_FRF74-0903
  6
CONTINUOUS
 62
    7
 10
1632.2092313660075
 20
1445.502598822899
 11
1633.0083210361888
 21
1444.0125404455139
  0
LINE
  8
_0-0_FRF74-0903
  6
CONTINUOUS
 62
    7
 10
1633.0083210361888
 20
1444.0125404455139
 11
1633.3951998842647
 21
1443.3884760894252
  0
LINE
  8
_0-0_FRF74-0903
  6
CONTINUOUS
 62
    7
 10
1633.3951998842647
 20
1443.3884760894252
 11
1633.6949814451625
 21
1442.9312469967081
  0
LINE
  8
_0-0_FRF74-0903
  6
CONTINUOUS
 62
    7
 10
1633.6949814451625
 20
1442.9312469967081
 11
1633.8666130197932
 21
1442.6777205028011
  0
LINE
  8
_0-1_
  6
CONTINUOUS
 62
    4
 10
2102.1953962167713
 20
1442.6777205028011
 11
2102.1953962167713
 21
1455.677720771022
  0
POINT
  8
_0-1_
 62
    7
 10
2102.1953962167713
 20
1442.6777205028011
  0
POINT
  8
_0-1_
 62
    7
 10
2102.1953962167713
 20
1455.677720771022
  0
LINE
  8
_0-1_
  6
CONTINUOUS
 62
    7
 10
2102.1953962167713
 20
1442.6777205028011
 11
2102.1953962167713
 21
1418.4091994578016
  0
TEXT
  8
_0-2_
 62
    7
 10
2211.5256034060785
 20
1065.334252852228
 40
15
 41
1
 50
0
  1
FRF74-0903
  0
TEXT
  8
_0-2_
 62
    7
 10
1614.6943364596746
 20
1066.3317848654224
 40
15
 41
1
 50
0
  1
タオルラック　-LANGBERGER,Orta-
  0
TEXT
  8
_0-2_
 62
    7
 10
1612.7422643997552
 20
1021.0199689163095
 40
15
 41
1
 50
0
  1
クローム
  0
LINE
  8
_0-1_
  6
CONTINUOUS
 62
    4
 10
1599.4484846039859
 20
1990.8366235449198
 11
2209.4484846039859
 21
1990.8366235449198
  0
POINT
  8
_0-1_
 62
    7
 10
1599.4484846039859
 20
1990.8366235449198
  0
POINT
  8
_0-1_
 62
    7
 10
2209.4484846039859
 20
1990.8366235449198
  0
TEXT
  8
_0-1_
 62
    4
 10
1895.0734846039859
 20
1993.3366235449198
 40
12.5
 41
1
 50
0
  1
610
  0
LINE
  8
_0-1_
  6
CONTINUOUS
 62
    4
 10
2209.4484846039859
 20
1990.8366235449198
 11
2209.4484846039859
 21
1890.8366235449198
  0
LINE
  8
_0-1_
  6
CONTINUOUS
 62
    4
 10
1599.4484846039859
 20
1990.8366235449198
 11
1599.4484846039859
 21
1890.8366235449198
  0
TEXT
  8
_0-1_
 62
    4
 10
1895.162696129682
 20
1953.0336554082901
 40
12.5
 41
1
 50
0
  1
560
  0
ENDSEC
  0
EOF
