  0
SECTION
  2
HEADER
  9
$ACADVER
  1
AC1009
  9
$INSBASE
 10
0
 20
0
 30
0
  9
$EXTMIN
 10
0
 20
0
  9
$EXTMAX
 10
1682
 20
1188
  9
$LIMMIN
 10
0
 20
0
  9
$LIMMAX
 10
1682
 20
1188
  9
$LTSCALE
 40
2
  0
ENDSEC
  0
SECTION
  2
TABLES
  0
TABLE
  2
LTYPE
 70
     9
  0
LTYPE
  2
CONTINUOUS
 70
    64
  3
実線
 72
    65
 73
     0
 40
0.0
  0
LTYPE
  2
DASHED1
 70
    64
  3
--  --  --  --  --  --  --  --  
 72
    65
 73
     2
 40
2.5
 49
1.25
 49
-1.25
  0
LTYPE
  2
DASHED2
 70
    64
  3
----    ----    ----    ----    
 72
    65
 73
     2
 40
5.0
 49
2.5
 49
-2.5
  0
LTYPE
  2
DASHED3
 70
    64
  3
------  ------  ------  ------  
 72
    65
 73
     2
 40
5.0
 49
3.75
 49
-1.25
  0
LTYPE
  2
CENTER1
 70
    64
  3
----- - ----- - ----- - ----- - 
 72
    65
 73
     4
 40
10.0
 49
6.25
 49
-1.25
 49
1.25
 49
-1.25
  0
LTYPE
  2
CENTER2
 70
    64
  3
----------  --  ----------  --  
 72
    65
 73
     4
 40
20.0
 49
12.5
 49
-2.5
 49
2.5
 49
-2.5
  0
LTYPE
  2
PHANTOM1
 70
    64
  3
--- - - --- - - --- - - --- - - 
 72
    65
 73
     6
 40
10.0
 49
3.25
 49
-1.25
 49
1.25
 49
-1.25
 49
1.25
 49
-1.25
  0
LTYPE
  2
PHANTOM2
 70
    64
  3
--------  -  -  --------  -  -  
 72
    65
 73
     6
 40
20.0
 49
10.0
 49
-2.5
 49
1.25
 49
-2.5
 49
1.25
 49
-2.5
  0
LTYPE
  2
DOT
 70
    64
  3
-   -   -   -   -   -   -   -   
 72
    65
 73
     2
 40
2.5
 49
0.625
 49
-1.875
  0
LTYPE
  2
DUMMY
 70
    64
  3
ダミー
 72
    65
 73
     0
 40
0.0
  0
LTYPE
  2
RAND1
 70
    64
  3
ランダム線1
 72
    65
 73
     4
 40
10.0
 49
1.0
 49
-2.0
 49
3.0
 49
-4.0
  0
LTYPE
  2
RAND2
 70
    64
  3
ランダム線2
 72
    65
 73
     4
 40
14.0
 49
2.0
 49
-3.0
 49
4.0
 49
-5.0
  0
LTYPE
  2
RAND3
 70
    64
  3
ランダム線3
 72
    65
 73
     4
 40
18.0
 49
3.0
 49
-4.0
 49
5.0
 49
-6.0
  0
LTYPE
  2
RAND4
 70
    64
  3
ランダム線4
 72
    65
 73
     4
 40
22.0
 49
4.0
 49
-5.0
 49
6.0
 49
-7.0
  0
LTYPE
  2
RAND5
 70
    64
  3
ランダム線5
 72
    65
 73
     4
 40
26.0
 49
5.0
 49
-6.0
 49
7.0
 49
-8.0
  0
LTYPE
  2
LONG1
 70
    64
  3
----------  --  ----------  --  
 72
    65
 73
     4
 40
40.0
 49
32.5
 49
-2.5
 49
2.5
 49
-2.5
  0
LTYPE
  2
LONG2
 70
    64
  3
--------  -  -  --------  -  -  
 72
    65
 73
     6
 40
40.0
 49
30.0
 49
-2.5
 49
1.25
 49
-2.5
 49
1.25
 49
-2.5
  0
LTYPE
  2
LONG3
 70
    64
  3
+++++++++++++++..+++++++++++++++
 72
    65
 73
     2
 40
40.0
 49
37.5
 49
-2.5
  0
LTYPE
  2
LONG4
 70
    64
  3
+++++++++++++++..+++++++++++++++
 72
    65
 73
     2
 40
80.0
 49
75.0
 49
-5.0
  0
LTYPE
  2
LONG5
 70
    64
  3
----------  --  ----------  --  
 72
    65
 73
     4
 40
60.0
 49
37.5
 49
-7.5
 49
7.5
 49
-7.5
  0
LTYPE
  2
dashed
 70
   64
  3
-------   -------------   ------
 72
   65
 73
    2
 40
7.5
 49
6
 49
-1.5
  0
LTYPE
  2
dashed_spaced
 70
   64
  3
----        --------        ----
 72
   65
 73
    2
 40
12
 49
6
 49
-6
  0
LTYPE
  2
long_dashed_dotted
 70
   64
  3
------------- --- --------------
 72
   65
 73
    4
 40
15.25
 49
12
 49
-1.5
 49
0.25
 49
-1.5
  0
LTYPE
  2
long_dashed_double-dotted
 70
   64
  3
----------- --- --- ------------
 72
   65
 73
    6
 40
17
 49
12
 49
-1.5
 49
0.25
 49
-1.5
 49
0.25
 49
-1.5
  0
LTYPE
  2
long_dashed_triplicate-dotted
 70
   64
  3
--------- --- --- --- ----------
 72
   65
 73
    8
 40
18.75
 49
12
 49
-1.5
 49
0.25
 49
-1.5
 49
0.25
 49
-1.5
 49
0.25
 49
-1.5
  0
LTYPE
  2
dotted
 70
   64
  3
   -       -       -       -    
 72
   65
 73
    2
 40
1.75
 49
0.25
 49
-1.5
  0
LTYPE
  2
chain
 70
   64
  3
-------------- -- --------------
 72
   65
 73
    4
 40
18.5
 49
12
 49
-1.5
 49
3.5
 49
-1.5
  0
LTYPE
  2
chain_double_dash
 70
   64
  3
------------ -- -- -------------
 72
   65
 73
    6
 40
23.5
 49
12
 49
-1.5
 49
3.5
 49
-1.5
 49
3.5
 49
-1.5
  0
LTYPE
  2
dashed_dotted
 70
   64
  3
-----------     -     ----------
 72
   65
 73
    4
 40
9.25
 49
6
 49
-1.5
 49
0.25
 49
-1.5
  0
LTYPE
  2
double-dashed_dotted
 70
   64
  3
------   -----------   -   -----
 72
   65
 73
    6
 40
16.75
 49
6
 49
-1.5
 49
6
 49
-1.5
 49
0.25
 49
-1.5
  0
LTYPE
  2
dashed_double-dotted
 70
   64
  3
---------    -    -    ---------
 72
   65
 73
    6
 40
11
 49
6
 49
-1.5
 49
0.25
 49
-1.5
 49
0.25
 49
-1.5
  0
LTYPE
  2
double-dashed_double-dotted
 70
   64
  3
-----   ---------   -   -   ----
 72
   65
 73
    8
 40
18.5
 49
6
 49
-1.5
 49
6
 49
-1.5
 49
0.25
 49
-1.5
 49
0.25
 49
-1.5
  0
LTYPE
  2
dashed_triplicate-dotted
 70
   64
  3
-------    -    -    -    ------
 72
   65
 73
    8
 40
12.75
 49
6
 49
-1.5
 49
0.25
 49
-1.5
 49
0.25
 49
-1.5
 49
0.25
 49
-1.5
  0
LTYPE
  2
double-dashed_triplicate-dotted
 70
   64
  3
-----  ---------  -  -  -  -----
 72
   65
 73
   10
 40
20.25
 49
6
 49
-1.5
 49
6
 49
-1.5
 49
0.25
 49
-1.5
 49
0.25
 49
-1.5
 49
0.25
 49
-1.5
  0
LTYPE
  2
undefined
 70
   64
  3
--------------------------------
 72
   65
 73
    0
 40
0
  0
ENDTAB
  0
TABLE
  2
STYLE
  5
3
100
AcDbSymbolTable
 70
     1
  0
STYLE
  5
10
100
AcDbSymbolTableRecord
100
AcDbTextStyleTableRecord
  2
STANDARD
 70
     0
 40
0.0
 41
1.0
 50
0.0
 71
     0
 42
0.2
  3
txt
  4
bigfont.shx
  0
STYLE
  5
26
100
AcDbSymbolTableRecord
100
AcDbTextStyleTableRecord
  2
TATEGAKI
 70
    68
 40
0.0
 41
1.0
 50
0.0
 71
     0
 42
1.0
  3
txt
  4
bigfont.shx
  0
ENDTAB
  0
TABLE
  2
LAYER
 70
    4
  0
LAYER
  2
_0-0_FRF74-0913
 70
   64
 62
    7
  6
CONTINUOUS
  0
LAYER
  2
_0-1_
 70
   64
 62
    7
  6
CONTINUOUS
  0
LAYER
  2
_0-2_
 70
   64
 62
    7
  6
CONTINUOUS
  0
LAYER
  2
ADD_LINE
 70
   64
 62
    7
  6
CONTINUOUS
  0
ENDTAB
  0
ENDSEC
  0
SECTION
  2
BLOCKS
  0
ENDSEC
  0
SECTION
  2
ENTITIES
  0
LINE
  8
_0-0_FRF74-0913
  6
CONTINUOUS
 62
    7
 10
816.51991932237104
 20
814.82783377467013
 11
769.26991932237104
 21
814.82783377467013
  0
LINE
  8
_0-2_
  6
CONTINUOUS
 62
    7
 10
1079.8988725370491
 20
503.2673488237719
 11
689.8988725370491
 21
503.2673488237719
  0
LINE
  8
_0-2_
  6
CONTINUOUS
 62
    7
 10
1079.8988725371457
 20
1029.267348823772
 11
689.89887253714551
 21
1029.267348823772
  0
LINE
  8
_0-2_
  6
CONTINUOUS
 62
    7
 10
689.89887253714551
 20
1029.267348823772
 11
689.89887253714551
 21
469.2673488237719
  0
LINE
  8
_0-2_
  6
CONTINUOUS
 62
    7
 10
689.89887253714551
 20
469.2673488237719
 11
1079.8988725371457
 21
469.2673488237719
  0
LINE
  8
_0-2_
  6
CONTINUOUS
 62
    7
 10
1079.8988725371457
 20
469.2673488237719
 11
1079.8988725371457
 21
1029.267348823772
  0
LINE
  8
_0-2_
  6
CONTINUOUS
 62
    7
 10
1079.8988725370491
 20
520.26734882377195
 11
689.8988725370491
 21
520.26734882377195
  0
LINE
  8
_0-2_
  6
CONTINUOUS
 62
    7
 10
1079.8988725371457
 20
486.2673488237719
 11
929.29887253714571
 21
486.2673488237719
  0
LINE
  8
_0-2_
  6
CONTINUOUS
 62
    7
 10
1029.6988725371975
 20
486.2673488237719
 11
1029.6988725371975
 21
503.2673488237719
  0
LINE
  8
_0-2_
  6
CONTINUOUS
 62
    7
 10
979.49887253719749
 20
486.2673488237719
 11
979.49887253719749
 21
503.2673488237719
  0
LINE
  8
_0-2_
  6
CONTINUOUS
 62
    7
 10
929.29887253719744
 20
469.2673488237719
 11
929.29887253719744
 21
520.26734882377195
  0
TEXT
  8
_0-2_
 62
    7
 10
936.36516934588531
 20
473.92519932464324
 40
6
 41
1
 50
0
  1
大洋金物株式会社 ティーフォルム事業部
  0
TEXT
  8
_0-2_
 62
    7
 10
692.03092613020874
 20
496.95829989926438
 40
4.4000000000000004
 41
1
 50
0
  1
仕様
  0
TEXT
  8
_0-2_
 62
    7
 10
692.11008412622641
 20
513.7277384202182
 40
4.4000000000000004
 41
1
 50
0
  1
品名
  0
TEXT
  8
_0-2_
 62
    7
 10
931.58014201817321
 20
514.02354576782386
 40
4.4000000000000004
 41
1
 50
0
  1
品番
  0
TEXT
  8
_0-2_
 62
    7
 10
931.40046929208268
 20
496.85593532261146
 40
4.4000000000000004
 41
1
 50
0
  1
重量
  0
TEXT
  8
_0-2_
 62
    7
 10
981.63419090952073
 20
497.28379304790997
 40
4.4000000000000004
 41
1
 50
0
  1
容量
  0
TEXT
  8
_0-2_
 62
    7
 10
1031.8476186341097
 20
497.19837872271296
 40
4.4000000000000004
 41
1
 50
0
  1
縮尺
  0
TEXT
  8
_0-2_
 62
    4
 10
690.59866426069993
 20
460.90948008418826
 40
5
 41
1
 50
0
  1
120907S
  0
TEXT
  8
_0-2_
 62
    7
 10
942.89541103866486
 20
507.16508785728229
 40
6
 41
1
 50
0
  1
FRF74-0913
  0
LINE
  8
_0-1_
  6
CONTINUOUS
 62
    7
 10
809.26991932237195
 20
662.91043262667131
 11
759.26991932237195
 21
662.91043262667131
  0
LINE
  8
_0-1_
  6
CONTINUOUS
 62
    4
 10
755.81928422776002
 20
662.91043262667131
 11
900.76991932237104
 21
662.91043262667131
  0
POINT
  8
_0-1_
 62
    7
 10
755.81928422776002
 20
662.91043262667131
  0
POINT
  8
_0-1_
 62
    7
 10
900.76991932237104
 20
662.91043262667131
  0
LINE
  8
_0-1_
  6
CONTINUOUS
 62
    4
 10
755.81928422776002
 20
662.91043262667131
 11
755.81928422776002
 21
743.46575595901538
  0
LINE
  8
_0-1_
  6
CONTINUOUS
 62
    4
 10
900.76991932237104
 20
662.91043262667131
 11
900.76991932237104
 21
748.9657559590155
  0
TEXT
  8
_0-1_
 62
    4
 10
824.54460177506553
 20
663.91043262667131
 40
5
 41
1
 50
0
  1
145
  0
LINE
  8
_0-1_
  6
CONTINUOUS
 62
    4
 10
763.26991932237104
 20
682.91043262667131
 11
891.76991932237104
 21
682.91043262667131
  0
POINT
  8
_0-1_
 62
    7
 10
763.26991932237104
 20
682.91043262667131
  0
POINT
  8
_0-1_
 62
    7
 10
891.76991932237104
 20
682.91043262667131
  0
LINE
  8
_0-1_
  6
CONTINUOUS
 62
    4
 10
763.26991932237104
 20
682.91043262667131
 11
763.26991932237104
 21
712.9080138702318
  0
LINE
  8
_0-1_
  6
CONTINUOUS
 62
    4
 10
891.76991932237104
 20
682.91043262667131
 11
891.76991932237104
 21
712.9080138702318
  0
TEXT
  8
_0-1_
 62
    4
 10
821.26991932237104
 20
683.91043262667131
 40
5
 41
1
 50
0
  1
128.5
  0
LINE
  8
_0-1_
  6
CONTINUOUS
 62
    4
 10
944.52138634458527
 20
758.46575595901538
 11
958.02138634458527
 21
758.46575595901538
  0
LINE
  8
_0-1_
  6
CONTINUOUS
 62
    4
 10
983.32138824462891
 20
703.46575595901538
 11
993.32138824462891
 21
703.46575595901538
  0
TEXT
  8
_0-1_
 62
    4
 10
983.32138824462891
 20
704.46575595901538
 40
5
 41
1
 50
0
  1
φ10
  0
POINT
  8
_0-1_
 62
    7
 10
983.32138824462891
 20
703.46575595901538
  0
POINT
  8
_0-1_
 62
    7
 10
993.32138824462891
 20
703.46575595901538
  0
LINE
  8
_0-1_
  6
CONTINUOUS
 62
    4
 10
983.32138824462891
 20
732.46575595901538
 11
983.32138824462891
 21
703.46575595901538
  0
LINE
  8
_0-1_
  6
CONTINUOUS
 62
    4
 10
993.32138824462891
 20
732.46575595901538
 11
993.32138824462891
 21
703.46575595901538
  0
LINE
  8
_0-1_
  6
CONTINUOUS
 62
    4
 10
944.52138634458527
 20
858.46575595901538
 11
988.32138634458511
 21
858.46575595901538
  0
POINT
  8
_0-1_
 62
    7
 10
944.52138634458527
 20
858.46575595901538
  0
POINT
  8
_0-1_
 62
    7
 10
988.32138634458511
 20
858.46575595901538
  0
TEXT
  8
_0-1_
 62
    4
 10
961.42138634458513
 20
859.46575595901538
 40
5
 41
1
 50
0
  1
43.8
  0
LINE
  8
_0-1_
  6
CONTINUOUS
 62
    4
 10
944.52138634458527
 20
878.46575595901538
 11
996.32138634458533
 21
878.46575595901538
  0
POINT
  8
_0-1_
 62
    7
 10
944.52138634458527
 20
878.46575595901538
  0
POINT
  8
_0-1_
 62
    7
 10
996.32138634458533
 20
878.46575595901538
  0
TEXT
  8
_0-1_
 62
    4
 10
965.42138634458524
 20
879.46575595901538
 40
5
 41
1
 50
0
  1
51.8
  0
LINE
  8
_0-1_
  6
CONTINUOUS
 62
    4
 10
944.52138634458527
 20
878.46575595901538
 11
944.52138634458527
 21
844.46575595901538
  0
LINE
  8
_0-1_
  6
CONTINUOUS
 62
    4
 10
996.32138634458533
 20
878.46575595901538
 11
996.32138634458533
 21
828.4657559590155
  0
LINE
  8
_0-1_
  6
CONTINUOUS
 62
    4
 10
988.32138634458511
 20
858.46575595901538
 11
988.32138634458511
 21
829.47042845912938
  0
LINE
  8
_0-1_
  6
CONTINUOUS
 62
    4
 10
944.52138634458527
 20
858.46575595901538
 11
944.52138634458527
 21
844.46575595901538
  0
LINE
  8
_0-1_
  6
CONTINUOUS
 62
    4
 10
924.52138634458527
 20
788.46575595901538
 11
924.52138634458527
 21
838.46575595901538
  0
POINT
  8
_0-1_
 62
    7
 10
924.52138634458527
 20
788.46575595901538
  0
POINT
  8
_0-1_
 62
    7
 10
924.52138634458527
 20
838.46575595901538
  0
TEXT
  8
_0-1_
 62
    4
 10
923.52138634458527
 20
810.96575595901538
 40
5
 41
1
 50
90
  1
50
  0
TEXT
  8
_0-1_
 62
    4
 10
923.24604717678528
 20
805.92949505333945
 40
5
 41
1
 50
90
  1
φ
  0
LINE
  8
_0-1_
  6
CONTINUOUS
 62
    4
 10
924.52138634458527
 20
838.46575595901538
 11
938.52138634458527
 21
838.46575595901538
  0
LINE
  8
_0-1_
  6
CONTINUOUS
 62
    4
 10
924.52138634458527
 20
788.46575595901538
 11
938.52138634458527
 21
788.46575595901538
  0
LINE
  8
_0-0_FRF74-0913
  6
CONTINUOUS
 62
    7
 10
879.26991932237104
 20
819.7157559590155
 11
838.51991932237104
 21
819.7157559590155
  0
LINE
  8
_0-0_FRF74-0913
  6
CONTINUOUS
 62
    7
 10
838.51991932237104
 20
814.82783377467013
 11
838.51991932237104
 21
795.82218024861356
  0
LINE
  8
_0-0_FRF74-0913
  6
CONTINUOUS
 62
    7
 10
879.26991932237104
 20
814.82783377467013
 11
879.26991932237104
 21
819.7157559590155
  0
LINE
  8
_0-0_FRF74-0913
  6
CONTINUOUS
 62
    7
 10
838.51991932237104
 20
819.7157559590155
 11
838.51991932237104
 21
814.82783377467013
  0
LINE
  8
_0-0_FRF74-0913
  6
CONTINUOUS
 62
    7
 10
755.81928422776002
 20
749.46575595901538
 11
758.85037314100566
 21
744.21575595901527
  0
ARC
  8
_0-0_FRF74-0913
  6
CONTINUOUS
 62
    7
 10
879.26991932237104
 20
796.96575595901538
 40
21.5
 50
0.0000000000000568
 51
89.999999999999986
  0
LINE
  8
_0-0_FRF74-0913
  6
CONTINUOUS
 62
    7
 10
835.59766653307281
 20
808.46575595901538
 11
838.51991932237104
 21
808.46575595901538
  0
LINE
  8
_0-0_FRF74-0913
  6
CONTINUOUS
 62
    7
 10
838.51991932237104
 20
818.4657559590155
 11
835.59766653307281
 21
818.4657559590155
  0
ARC
  8
_0-0_FRF74-0913
  6
CONTINUOUS
 62
    7
 10
879.26991932237104
 20
754.9657559590155
 40
21.499999999999996
 50
305.54874400287281
 51
0.000000000000019
  0
LINE
  8
_0-0_FRF74-0913
  6
CONTINUOUS
 62
    7
 10
816.51991932237104
 20
808.46575595901538
 11
819.44217211166927
 21
808.46575595901538
  0
LINE
  8
_0-0_FRF74-0913
  6
CONTINUOUS
 62
    7
 10
819.44217211166927
 20
818.4657559590155
 11
797.76991932237104
 21
818.4657559590155
  0
ARC
  8
_0-0_FRF74-0913
  6
CONTINUOUS
 62
    7
 10
777.46991932237108
 20
754.96575595901538
 40
21.499999999999989
 50
210.00000000000105
 51
228.66464514615367
  0
LINE
  8
_0-0_FRF74-0913
  6
CONTINUOUS
 62
    7
 10
900.76991932237104
 20
754.9657559590155
 11
900.76991932237104
 21
796.9657559590155
  0
LINE
  8
_0-0_FRF74-0913
  6
CONTINUOUS
 62
    7
 10
769.26991932237104
 20
814.82783377467013
 11
769.26583056566176
 21
814.82763582940174
  0
ARC
  8
_0-0_FRF74-0913
  6
CONTINUOUS
 62
    7
 10
773.42252532534064
 20
728.96696469883057
 40
85.961229390448125
 50
92.771644604317771
 51
92.853313974232719
  0
ARC
  8
_0-0_FRF74-0913
  6
CONTINUOUS
 62
    7
 10
770.38195084303163
 20
789.97253465721053
 40
24.879933897234579
 50
92.853313974239995
 51
93.135484596947521
  0
LINE
  8
_0-0_FRF74-0913
  6
CONTINUOUS
 62
    7
 10
769.02108764122465
 20
814.81522295933939
 11
769.01703457506778
 21
814.81500093551813
  0
ARC
  8
_0-0_FRF74-0913
  6
CONTINUOUS
 62
    7
 10
769.87303143085398
 20
799.18869621395766
 40
15.649732581363235
 50
93.13548459696311
 51
93.613652471162979
  0
ARC
  8
_0-0_FRF74-0913
  6
CONTINUOUS
 62
    7
 10
769.58474624870428
 20
803.75395183957653
 40
11.075383745479641
 50
93.613799566308458
 51
94.288995291795302
  0
ARC
  8
_0-0_FRF74-0913
  6
CONTINUOUS
 62
    7
 10
769.39657465898927
 20
806.26350488406774
 40
8.5587858378988191
 50
94.289248483054465
 51
95.162309393862046
  0
ARC
  8
_0-0_FRF74-0913
  6
CONTINUOUS
 62
    7
 10
769.25352890496447
 20
807.84730223374686
 40
6.9685417904079516
 50
95.162642412899501
 51
96.234188383229082
  0
ARC
  8
_0-0_FRF74-0913
  6
CONTINUOUS
 62
    7
 10
769.13608823737286
 20
808.9226999586765
 40
5.886750416889595
 50
96.234519434371094
 51
97.502573837980123
  0
LINE
  8
_0-0_FRF74-0913
  6
CONTINUOUS
 62
    7
 10
768.36745093974821
 20
814.7590538868966
 11
768.32707410490036
 21
814.75373633048969
  0
ARC
  8
_0-0_FRF74-0913
  6
CONTINUOUS
 62
    7
 10
768.80031410974811
 20
811.16036899088886
 40
3.6243958033715957
 50
97.50257383798106
 51
100.84919395954736
  0
LINE
  8
_0-0_FRF74-0913
  6
CONTINUOUS
 62
    7
 10
768.11811353664052
 20
814.71998235719002
 11
768.11020281241099
 21
814.71846630896539
  0
ARC
  8
_0-0_FRF74-0913
  6
CONTINUOUS
 62
    7
 10
769.57500556666332
 20
807.07514042278137
 40
7.7824210700319112
 50
100.84888959695463
 51
102.28937171279642
  0
ARC
  8
_0-0_FRF74-0913
  6
CONTINUOUS
 62
    7
 10
768.79614121008615
 20
810.65052123298437
 40
4.1231892348082688
 50
102.28937171279043
 51
105.00788036696983
  0
LINE
  8
_0-0_FRF74-0913
  6
CONTINUOUS
 62
    7
 10
767.72843354635734
 20
814.63306938848143
 11
767.69688866994829
 21
814.62461231402108
  0
ARC
  8
_0-0_FRF74-0913
  6
CONTINUOUS
 62
    7
 10
769.22687251922025
 20
808.91777460567528
 40
5.9083709437060534
 50
105.00788036697276
 51
107.53808326476737
  0
LINE
  8
_0-0_FRF74-0913
  6
CONTINUOUS
 62
    7
 10
767.44644609848967
 20
814.55150595965324
 11
767.44631583168689
 21
814.55146479077609
  0
ARC
  8
_0-0_FRF74-0913
  6
CONTINUOUS
 62
    7
 10
769.35561250585397
 20
808.51005705365014
 40
6.3359309683889693
 50
107.53836271629126
 51
109.89514282835356
  0
LINE
  8
_0-0_FRF74-0913
  6
CONTINUOUS
 62
    7
 10
767.1994962278809
 20
814.46784052001158
 11
767.19933261164147
 21
814.46778130744724
  0
ARC
  8
_0-0_FRF74-0913
  6
CONTINUOUS
 62
    7
 10
769.35386330504582
 20
808.51437913054633
 40
6.3312715933490393
 50
109.8951428283482
 51
112.2505089105921
  0
LINE
  8
_0-0_FRF74-0913
  6
CONTINUOUS
 62
    7
 10
766.95648402209395
 20
814.37420613843847
 11
766.9563476963275
 21
814.37415036468144
  0
ARC
  8
_0-0_FRF74-0913
  6
CONTINUOUS
 62
    7
 10
769.31669976936087
 20
808.60482761961123
 40
6.233485930477201
 50
112.25050891059404
 51
114.64010678086674
  0
ARC
  8
_0-0_FRF74-0913
  6
CONTINUOUS
 62
    7
 10
769.27926360766992
 20
808.68644429777521
 40
6.1436931225431257
 50
114.64010678086272
 51
117.06360802976091
  0
ARC
  8
_0-0_FRF74-0913
  6
CONTINUOUS
 62
    7
 10
769.23869637191001
 20
808.76607891823642
 40
6.0543210810802623
 50
117.06461976216926
 51
119.52208655431276
  0
ARC
  8
_0-0_FRF74-0913
  6
CONTINUOUS
 62
    7
 10
769.22228355582456
 20
808.79522734649436
 40
6.0208695525853013
 50
119.5228600293831
 51
121.99236077733417
  0
LINE
  8
_0-0_FRF74-0913
  6
CONTINUOUS
 62
    7
 10
766.03238959996838
 20
813.90163966040336
 11
766.02542692458803
 21
813.89729004693879
  0
ARC
  8
_0-0_FRF74-0913
  6
CONTINUOUS
 62
    7
 10
768.99242347035101
 20
809.14784875267082
 40
5.6000233133681334
 50
121.99319958976669
 51
124.47941399951324
  0
ARC
  8
_0-0_FRF74-0913
  6
CONTINUOUS
 62
    7
 10
769.41536446914586
 20
808.53199186611084
 40
6.3471235698163229
 50
124.47941399950894
 51
126.67306006825753
  0
LINE
  8
_0-0_FRF74-0913
  6
CONTINUOUS
 62
    7
 10
765.62455701704039
 20
813.62274391974495
 11
765.62141400565326
 21
813.62040348932078
  0
ARC
  8
_0-0_FRF74-0913
  6
CONTINUOUS
 62
    7
 10
768.81666322971898
 20
809.32943863426226
 40
5.3499529896289504
 50
126.67306006826895
 51
129.35933777167216
  0
LINE
  8
_0-0_FRF74-0913
  6
CONTINUOUS
 62
    7
 10
765.42381959806596
 20
813.46593583387346
 11
765.41443935267034
 21
813.45824195561886
  0
ARC
  8
_0-0_FRF74-0913
  6
CONTINUOUS
 62
    7
 10
769.16233724637243
 20
808.88886864377571
 40
5.9098148096705998
 50
129.35933777166326
 51
131.86453696286262
  0
ARC
  8
_0-0_FRF74-0913
  6
CONTINUOUS
 62
    7
 10
769.20017069421863
 20
808.84665003664463
 40
5.9665050254403109
 50
131.86453696286446
 51
134.34490005116467
  0
ARC
  8
_0-0_FRF74-0913
  6
CONTINUOUS
 62
    7
 10
769.23368299426795
 20
808.81251885059612
 40
6.014338071212741
 50
134.34594113986279
 51
136.80459153205183
  0
ARC
  8
_0-0_FRF74-0913
  6
CONTINUOUS
 62
    7
 10
769.24066005931172
 20
808.80610659172316
 40
6.0238136349694802
 50
136.80555252907038
 51
139.25833617882799
  0
LINE
  8
_0-0_FRF74-0913
  6
CONTINUOUS
 62
    7
 10
764.67665772881196
 20
812.73754569668665
 11
764.67657143428812
 21
812.73744551380412
  0
ARC
  8
_0-0_FRF74-0913
  6
CONTINUOUS
 62
    7
 10
769.16379160167583
 20
808.87228893425424
 40
5.922379607476099
 50
139.25937881936017
 51
141.75054247493225
  0
LINE
  8
_0-0_FRF74-0913
  6
CONTINUOUS
 62
    7
 10
764.51281191061616
 20
812.53875427956973
 11
764.49282449923021
 21
812.51339987534732
  0
ARC
  8
_0-0_FRF74-0913
  6
CONTINUOUS
 62
    7
 10
767.91333418967133
 20
809.81693997305592
 40
4.3555461824054227
 50
141.75054247494009
 51
144.28857259627853
  0
ARC
  8
_0-0_FRF74-0913
  6
CONTINUOUS
 62
    7
 10
771.35865681818666
 20
807.34018240065018
 40
8.5987261322813868
 50
144.28857259627696
 51
145.57432716303529
  0
LINE
  8
_0-0_FRF74-0913
  6
CONTINUOUS
 62
    7
 10
764.26590927998927
 20
812.20135751139992
 11
764.25689967342669
 21
812.18821195228918
  0
ARC
  8
_0-0_FRF74-0913
  6
CONTINUOUS
 62
    7
 10
767.50953015863729
 20
809.95894800710812
 40
3.943250285057355
 50
145.57432716302822
 51
148.8404244894754
  0
LINE
  8
_0-0_FRF74-0913
  6
CONTINUOUS
 62
    7
 10
764.13517442092893
 20
811.99927792307767
 11
764.11026563491487
 21
811.95808306319338
  0
ARC
  8
_0-0_FRF74-0913
  6
CONTINUOUS
 62
    7
 10
769.060968078016
 20
808.96460309697545
 40
5.7853588469753632
 50
148.84042448947628
 51
151.380840074806
  0
ARC
  8
_0-0_FRF74-0913
  6
CONTINUOUS
 62
    7
 10
769.23594106761846
 20
808.86912880735736
 40
5.9846849292336772
 50
151.38084007480998
 51
153.83665945397263
  0
LINE
  8
_0-0_FRF74-0913
  6
CONTINUOUS
 62
    7
 10
763.86444292328224
 20
811.50796593525854
 11
763.85561511443598
 21
811.48999643566867
  0
ARC
  8
_0-0_FRF74-0913
  6
CONTINUOUS
 62
    7
 10
768.56403854761697
 20
809.17690686813546
 40
5.2459159899448231
 50
153.83667085954477
 51
156.20108355191962
  0
ARC
  8
_0-0_FRF74-0913
  6
CONTINUOUS
 62
    7
 10
770.94136000673461
 20
808.1284368761103
 40
7.8441743766643395
 50
156.20108355192519
 51
157.78257418490696
  0
LINE
  8
_0-0_FRF74-0913
  6
CONTINUOUS
 62
    7
 10
763.67957144380864
 20
811.09449461642396
 11
763.67500623547994
 21
811.08331770458017
  0
ARC
  8
_0-0_FRF74-0913
  6
CONTINUOUS
 62
    7
 10
767.73067247900758
 20
809.42678130417494
 40
4.38092929921915
 50
157.78244608295634
 51
160.2983532710827
  0
LINE
  8
_0-0_FRF74-0913
  6
CONTINUOUS
 62
    7
 10
763.60619903079373
 20
810.90369033987611
 11
763.59536358800494
 21
810.87343086214162
  0
ARC
  8
_0-0_FRF74-0913
  6
CONTINUOUS
 62
    7
 10
768.68229299589018
 20
809.05188149328058
 40
5.4032298585203486
 50
160.2983532710864
 51
161.65686545100368
  0
ARC
  8
_0-0_FRF74-0913
  6
CONTINUOUS
 62
    7
 10
768.52064456204914
 20
809.10547664089074
 40
5.2329281967239396
 50
161.65686545100246
 51
163.05958502810208
  0
LINE
  8
_0-0_FRF74-0913
  6
CONTINUOUS
 62
    7
 10
763.51478205669184
 20
810.63023173254533
 11
763.5054907138699
 21
810.5997276962504
  0
ARC
  8
_0-0_FRF74-0913
  6
CONTINUOUS
 62
    7
 10
766.9494463680154
 20
809.55071987522626
 40
3.6001733230901554
 50
163.05958502810017
 51
166.11281485073746
  0
LINE
  8
_0-0_FRF74-0913
  6
CONTINUOUS
 62
    7
 10
763.45450543784204
 20
810.41480080366364
 11
763.44058980134719
 21
810.35851634470293
  0
ARC
  8
_0-0_FRF74-0913
  6
CONTINUOUS
 62
    7
 10
766.55583083457782
 20
809.58831152062135
 40
3.2090406925064761
 50
166.11281485074079
 51
168.53546475918543
  0
LINE
  8
_0-0_FRF74-0913
  6
CONTINUOUS
 62
    7
 10
763.41081717541238
 20
810.22614476671697
 11
763.40978928310221
 21
810.22107645869869
  0
ARC
  8
_0-0_FRF74-0913
  6
CONTINUOUS
 62
    7
 10
770.21800842892344
 20
808.84031663107385
 40
6.9468227009985624
 50
168.53546475919111
 51
169.56942473215844
  0
ARC
  8
_0-0_FRF74-0913
  6
CONTINUOUS
 62
    7
 10
767.25448026347988
 20
809.38586071641157
 40
3.9334993634816806
 50
169.56942473214906
 51
171.395362135521
  0
LINE
  8
_0-0_FRF74-0913
  6
CONTINUOUS
 62
    7
 10
763.3652552929467
 20
809.97437271381864
 11
763.36212497522877
 21
809.95368577814349
  0
ARC
  8
_0-0_FRF74-0913
  6
CONTINUOUS
 62
    7
 10
769.52596168840239
 20
809.02098276321294
 40
6.2340049679742551
 50
171.39536213552429
 51
172.93280973840248
  0
ARC
  8
_0-0_FRF74-0913
  6
CONTINUOUS
 62
    7
 10
770.94697149741478
 20
808.84471425623065
 40
7.6659056125951821
 50
172.93207788229202
 51
174.18296909584646
  0
LINE
  8
_0-0_FRF74-0913
  6
CONTINUOUS
 62
    7
 10
763.32054049708211
 20
809.62166924745179
 11
763.32052939543973
 21
809.62156027600565
  0
ARC
  8
_0-0_FRF74-0913
  6
CONTINUOUS
 62
    7
 10
773.20930435082096
 20
808.61412533581824
 40
9.9399595208875766
 50
174.18296909583245
 51
175.14896088370452
  0
LINE
  8
_0-0_FRF74-0913
  6
CONTINUOUS
 62
    7
 10
763.3049505242235
 20
809.45470284827513
 11
763.30494102733587
 21
809.45459094838077
  0
ARC
  8
_0-0_FRF74-0913
  6
CONTINUOUS
 62
    7
 10
777.31295077749246
 20
808.26573822801015
 40
14.058367897846953
 50
175.14896088370267
 51
175.83288817199568
  0
LINE
  8
_0-0_FRF74-0913
  6
CONTINUOUS
 62
    7
 10
763.29174825368352
 20
809.28729964933882
 11
763.29136399132767
 21
809.28202554618622
  0
ARC
  8
_0-0_FRF74-0913
  6
CONTINUOUS
 62
    7
 10
785.87175184682508
 20
807.63685616269549
 40
22.640240679044684
 50
175.83288817198121
 51
176.2317596534329
  0
LINE
  8
_0-0_FRF74-0913
  6
CONTINUOUS
 62
    7
 10
763.28045820627301
 20
809.12479085595965
 11
763.28011411426201
 21
809.11956651130549
  0
ARC
  8
_0-0_FRF74-0913
  6
CONTINUOUS
 62
    7
 10
836.86480978332315
 20
804.27304362858342
 40
73.744126686544305
 50
176.23175965343464
 51
176.34608221043752
  0
LINE
  8
_0-0_FRF74-0913
  6
CONTINUOUS
 62
    7
 10
763.27059030839519
 20
808.97273304781584
 11
763.26991932237104
 21
808.9622431303867
  0
LINE
  8
_0-0_FRF74-0913
  6
CONTINUOUS
 62
    7
 10
816.51991932237104
 20
795.82218024861345
 11
816.51991932237104
 21
814.82783377467013
  0
LINE
  8
_0-0_FRF74-0913
  6
CONTINUOUS
 62
    7
 10
838.51991932237104
 20
795.82218024861356
 11
838.51243777052525
 21
795.81563894945396
  0
ARC
  8
_0-0_FRF74-0913
  6
CONTINUOUS
 62
    7
 10
732.87190695157199
 20
916.64104213916266
 40
160.49517066773655
 50
311.0576814891557
 51
311.16397603120851
  0
ARC
  8
_0-0_FRF74-0913
  6
CONTINUOUS
 62
    7
 10
807.7696110333693
 20
830.65607183282475
 40
46.464117023098694
 50
310.69052273795154
 51
311.05768148915729
  0
LINE
  8
_0-0_FRF74-0913
  6
CONTINUOUS
 62
    7
 10
838.06296044554836
 20
795.42501802900222
 11
838.05545885980052
 21
795.41856780587045
  0
ARC
  8
_0-0_FRF74-0913
  6
CONTINUOUS
 62
    7
 10
818.99238112312707
 20
817.5887948806203
 40
29.239013344167883
 50
310.06845510165152
 51
310.69060211251241
  0
ARC
  8
_0-0_FRF74-0913
  6
CONTINUOUS
 62
    7
 10
824.47619426011875
 20
811.06923627693914
 40
20.719808515818677
 50
309.19076556518883
 51
310.06852526206558
  0
ARC
  8
_0-0_FRF74-0913
  6
CONTINUOUS
 62
    7
 10
827.4622735155591
 20
807.40673634086158
 40
15.994284724582496
 50
308.05377706205616
 51
309.19076556518945
  0
LINE
  8
_0-0_FRF74-0913
  6
CONTINUOUS
 62
    7
 10
837.32116374346515
 20
794.81231585696821
 11
837.26616418852961
 21
794.76926230199228
  0
ARC
  8
_0-0_FRF74-0913
  6
CONTINUOUS
 62
    7
 10
831.07660826377435
 20
802.67622425439231
 40
10.041446602077505
 50
305.44606172613743
 51
308.05377706205633
  0
LINE
  8
_0-0_FRF74-0913
  6
CONTINUOUS
 62
    7
 10
836.90000755012204
 20
794.49584097399895
 11
836.89969542741881
 21
794.49561878207157
  0
ARC
  8
_0-0_FRF74-0913
  6
CONTINUOUS
 62
    7
 10
825.48623827619838
 20
810.52860045829277
 40
19.680536211515861
 50
304.11314703452541
 51
305.44606172613618
  0
LINE
  8
_0-0_FRF74-0913
  6
CONTINUOUS
 62
    7
 10
836.52365343834992
 20
794.23446126313752
 11
836.51497198768902
 21
794.22858057352232
  0
ARC
  8
_0-0_FRF74-0913
  6
CONTINUOUS
 62
    7
 10
830.13708419433055
 20
803.64425355042727
 40
11.37243818680451
 50
301.6997920887182
 51
304.11250699460891
  0
LINE
  8
_0-0_FRF74-0913
  6
CONTINUOUS
 62
    7
 10
836.11294295411267
 20
793.96843511497559
 11
836.07036369661739
 21
793.94213784300996
  0
ARC
  8
_0-0_FRF74-0913
  6
CONTINUOUS
 62
    7
 10
825.6383757210366
 20
810.83310291264354
 40
19.852734675763074
 50
300.60602089077918
 51
301.69979208871615
  0
ARC
  8
_0-0_FRF74-0913
  6
CONTINUOUS
 62
    7
 10
828.06968774066627
 20
806.72296462003783
 40
15.07732737154913
 50
299.16585414202666
 51
300.6060208907802
  0
LINE
  8
_0-0_FRF74-0913
  6
CONTINUOUS
 62
    7
 10
835.41746263069138
 20
793.5572513908055
 11
835.34812480494759
 21
793.5185540011496
  0
ARC
  8
_0-0_FRF74-0913
  6
CONTINUOUS
 62
    7
 10
828.44129684900702
 20
805.89418030333945
 40
14.17252266833308
 50
296.99189369105352
 51
299.16585414202467
  0
LINE
  8
_0-0_FRF74-0913
  6
CONTINUOUS
 62
    7
 10
834.87370082830705
 20
793.26545994728201
 11
834.82941882796456
 21
793.24290503220095
  0
ARC
  8
_0-0_FRF74-0913
  6
CONTINUOUS
 62
    7
 10
827.58572474962659
 20
807.46466851043874
 40
15.960252514652968
 50
294.70393079904761
 51
296.99150332237321
  0
ARC
  8
_0-0_FRF74-0913
  6
CONTINUOUS
 62
    7
 10
827.77937774314864
 20
807.04415382749937
 40
15.497290264057517
 50
292.34627472733979
 51
294.70324931678579
  0
ARC
  8
_0-0_FRF74-0913
  6
CONTINUOUS
 62
    7
 10
827.64733432601406
 20
807.36582482884626
 40
15.845008063193697
 50
290.03909272231101
 51
292.34564907344503
  0
ARC
  8
_0-0_FRF74-0913
  6
CONTINUOUS
 62
    7
 10
827.5190526864186
 20
807.71752890805737
 40
16.21937678302891
 50
287.78515037518912
 51
290.03909272231505
  0
LINE
  8
_0-0_FRF74-0913
  6
CONTINUOUS
 62
    7
 10
832.47323742895651
 20
792.27329902221777
 11
832.47272150471133
 21
792.27313352455019
  0
ARC
  8
_0-0_FRF74-0913
  6
CONTINUOUS
 62
    7
 10
827.46332227233734
 20
807.88948966695386
 40
16.400142067546192
 50
285.55226070449476
 51
287.78515037518844
  0
LINE
  8
_0-0_FRF74-0913
  6
CONTINUOUS
 62
    7
 10
831.86048265157035
 20
792.08981750469047
 11
831.85992434628099
 21
792.08966212438429
  0
ARC
  8
_0-0_FRF74-0913
  6
CONTINUOUS
 62
    7
 10
827.46279639188469
 20
807.88970986351592
 40
16.40049520002886
 50
283.31445005815078
 51
285.55179977992231
  0
LINE
  8
_0-0_FRF74-0913
  6
CONTINUOUS
 62
    7
 10
831.2397511670124
 20
791.93004647631346
 11
831.23932856097872
 21
791.92994646393606
  0
ARC
  8
_0-0_FRF74-0913
  6
CONTINUOUS
 62
    7
 10
827.4745576201185
 20
807.83812660464469
 40
16.347589902685431
 50
281.07244218205636
 51
283.31445005815289
  0
LINE
  8
_0-0_FRF74-0913
  6
CONTINUOUS
 62
    7
 10
830.61411172754288
 20
791.79484465758242
 11
830.61369278297502
 21
791.79476267316409
  0
ARC
  8
_0-0_FRF74-0913
  6
CONTINUOUS
 62
    7
 10
827.49308509414902
 20
807.74122745286536
 40
16.248936313427283
 50
278.81983509033341
 51
281.07244218205619
  0
ARC
  8
_0-0_FRF74-0913
  6
CONTINUOUS
 62
    7
 10
827.52368571900774
 20
807.54401105781722
 40
16.049360000410118
 50
276.53922382632493
 51
278.8198350903337
  0
LINE
  8
_0-0_FRF74-0913
  6
CONTINUOUS
 62
    7
 10
829.35144094614395
 20
791.59906617699562
 11
829.31178414320073
 21
791.59452035200763
  0
ARC
  8
_0-0_FRF74-0913
  6
CONTINUOUS
 62
    7
 10
827.69152342789471
 20
805.72787704808138
 40
14.22592760715504
 50
273.64636491244016
 51
276.53988914554259
  0
LINE
  8
_0-0_FRF74-0913
  6
CONTINUOUS
 62
    7
 10
828.59626571382341
 20
791.53074854686429
 11
828.55632687364186
 21
791.52820335911315
  0
ARC
  8
_0-0_FRF74-0913
  6
CONTINUOUS
 62
    7
 10
827.5397927184207
 20
807.47955906781044
 40
15.983713293040495
 50
271.35831427705125
 51
273.64636491244107
  0
ARC
  8
_0-0_FRF74-0913
  6
CONTINUOUS
 62
    7
 10
827.53438156226457
 20
807.70776717135197
 40
16.211985540878473
 50
269.10247206968296
 51
271.35831427705051
  0
LINE
  8
_0-0_FRF74-0913
  6
CONTINUOUS
 62
    7
 10
827.28043415342438
 20
791.49777069105642
 11
827.28009821872854
 21
791.49777595384262
  0
ARC
  8
_0-0_FRF74-0913
  6
CONTINUOUS
 62
    7
 10
827.53628222977989
 20
807.8505394508594
 40
16.354770075940671
 50
266.86396620673082
 51
269.10247206968131
  0
LINE
  8
_0-0_FRF74-0913
  6
CONTINUOUS
 62
    7
 10
826.64156525311034
 20
791.52026126068324
 11
826.64107513128272
 21
791.52028811388891
  0
ARC
  8
_0-0_FRF74-0913
  6
CONTINUOUS
 62
    7
 10
827.53781616516892
 20
807.8847848859599
 40
16.389048144568243
 50
264.62566875273774
 51
266.86344517524799
  0
LINE
  8
_0-0_FRF74-0913
  6
CONTINUOUS
 62
    7
 10
826.00278041948036
 20
791.56778257718906
 11
826.00232423576688
 21
791.56782549305638
  0
ARC
  8
_0-0_FRF74-0913
  6
CONTINUOUS
 62
    7
 10
827.5359653385724
 20
807.87000313653061
 40
16.374158022677225
 50
262.38854189525364
 51
264.62566875273637
  0
ARC
  8
_0-0_FRF74-0913
  6
CONTINUOUS
 62
    7
 10
827.53227030393384
 20
807.84235232178958
 40
16.34626141290428
 50
260.14759811861245
 51
262.38854189525392
  0
LINE
  8
_0-0_FRF74-0913
  6
CONTINUOUS
 62
    7
 10
824.73525060252234
 20
791.73716859204217
 11
824.66699883765455
 21
791.74902201353643
  0
ARC
  8
_0-0_FRF74-0913
  6
CONTINUOUS
 62
    7
 10
826.98959874524235
 20
805.12392392677111
 40
13.575068011593013
 50
256.86703291210449
 51
260.14862213145057
  0
LINE
  8
_0-0_FRF74-0913
  6
CONTINUOUS
 62
    7
 10
823.90518473216696
 20
791.90390646402477
 11
823.83703720869062
 21
791.91980622943424
  0
ARC
  8
_0-0_FRF74-0913
  6
CONTINUOUS
 62
    7
 10
827.41449662079458
 20
807.25305128012837
 40
15.745050639165578
 50
254.54743341429307
 51
256.86703291210449
  0
ARC
  8
_0-0_FRF74-0913
  6
CONTINUOUS
 62
    7
 10
827.47243202058598
 20
807.46311004994277
 40
15.962952409241815
 50
252.26040086523369
 51
254.54788945192828
  0
ARC
  8
_0-0_FRF74-0913
  6
CONTINUOUS
 62
    7
 10
827.55882367592426
 20
807.73236520794353
 40
16.245727584382784
 50
250.01144570653409
 51
252.25953997991166
  0
ARC
  8
_0-0_FRF74-0913
  6
CONTINUOUS
 62
    7
 10
827.60054279947713
 20
807.84705884156392
 40
16.367773128599122
 50
247.77925584744736
 51
250.01144570653739
  0
LINE
  8
_0-0_FRF74-0913
  6
CONTINUOUS
 62
    7
 10
821.4106442056509
 20
792.69485924588014
 11
821.41028608228964
 21
792.6950055445925
  0
ARC
  8
_0-0_FRF74-0913
  6
CONTINUOUS
 62
    7
 10
827.55844509931944
 20
807.74496700440636
 40
16.257342932981679
 50
245.52901066343441
 51
247.77917030210938
  0
LINE
  8
_0-0_FRF74-0913
  6
CONTINUOUS
 62
    7
 10
820.8241261483538
 20
792.94800287296255
 11
820.76931070204898
 21
792.97295019969647
  0
ARC
  8
_0-0_FRF74-0913
  6
CONTINUOUS
 62
    7
 10
826.17735289246173
 20
804.85575630014171
 40
13.055573566644391
 50
243.25546141453333
 51
245.5290106634356
  0
LINE
  8
_0-0_FRF74-0913
  6
CONTINUOUS
 62
    7
 10
820.30217088019901
 20
793.19684393762486
 11
820.30161084945985
 21
793.19712614941466
  0
ARC
  8
_0-0_FRF74-0913
  6
CONTINUOUS
 62
    7
 10
829.66080670816223
 20
811.76983488805274
 40
20.79759738555958
 50
241.83159510557954
 51
243.25546141453333
  0
ARC
  8
_0-0_FRF74-0913
  6
CONTINUOUS
 62
    7
 10
826.08263085751105
 20
805.08771990409241
 40
13.217755495582564
 50
239.59136986581544
 51
241.83159510557903
  0
LINE
  8
_0-0_FRF74-0913
  6
CONTINUOUS
 62
    7
 10
819.39228317567881
 20
793.68823271224005
 11
819.28627613125468
 21
793.75044814105581
  0
ARC
  8
_0-0_FRF74-0913
  6
CONTINUOUS
 62
    7
 10
826.00624253043532
 20
805.20040179670184
 40
13.276271582133189
 50
237.39573171604792
 51
239.59136986581584
  0
LINE
  8
_0-0_FRF74-0913
  6
CONTINUOUS
 62
    7
 10
818.85254208243441
 20
794.01630786724877
 11
818.81886798686958
 21
794.03784688453959
  0
ARC
  8
_0-0_FRF74-0913
  6
CONTINUOUS
 62
    7
 10
828.9796083871239
 20
809.9231465074763
 40
18.856918878539926
 50
236.09266725053871
 51
237.39573171604741
  0
ARC
  8
_0-0_FRF74-0913
  6
CONTINUOUS
 62
    7
 10
826.19825122279838
 20
805.78519444363451
 40
13.87107943485576
 50
234.32129228980119
 51
236.09266725053845
  0
LINE
  8
_0-0_FRF74-0913
  6
CONTINUOUS
 62
    7
 10
818.10809139596586
 20
794.5177120866756
 11
818.07089153634183
 21
794.54442194078138
  0
ARC
  8
_0-0_FRF74-0913
  6
CONTINUOUS
 62
    7
 10
825.3559718205961
 20
804.69063849630891
 40
12.490720761416924
 50
232.3464620421633
 51
234.32129228980438
  0
LINE
  8
_0-0_FRF74-0913
  6
CONTINUOUS
 62
    7
 10
817.72557507439956
 20
794.80149542750235
 11
817.67846926424613
 21
794.8378419560155
  0
ARC
  8
_0-0_FRF74-0913
  6
CONTINUOUS
 62
    7
 10
824.12255935411815
 20
803.18950845078632
 40
10.548773877862017
 50
230.65430192766217
 51
232.34646204216088
  0
LINE
  8
_0-0_FRF74-0913
  6
CONTINUOUS
 62
    7
 10
817.43465916345269
 20
795.03177461313498
 11
817.40595014294638
 21
795.05531093676848
  0
ARC
  8
_0-0_FRF74-0913
  6
CONTINUOUS
 62
    7
 10
827.61345952881345
 20
807.50617628183636
 40
16.100226573050961
 50
229.80976677278429
 51
230.65430192766152
  0
ARC
  8
_0-0_FRF74-0913
  6
CONTINUOUS
 62
    7
 10
830.63204262952206
 20
811.0794143723881
 40
20.777819371449819
 50
229.15532394135596
 51
229.80975259284739
  0
ARC
  8
_0-0_FRF74-0913
  6
CONTINUOUS
 62
    7
 10
836.19213456814077
 20
817.51067788728938
 40
29.279335281208095
 50
228.69085100348263
 51
229.15529848620912
  0
LINE
  8
_0-0_FRF74-0913
  6
CONTINUOUS
 62
    7
 10
816.86421228623362
 20
795.51724944209332
 11
816.85864842053491
 21
795.52213899190053
  0
ARC
  8
_0-0_FRF74-0913
  6
CONTINUOUS
 62
    7
 10
847.87853252870707
 20
830.819963122226
 40
46.991165110261129
 50
228.41950798087333
 51
228.69085100348241
  0
LINE
  8
_0-0_FRF74-0913
  6
CONTINUOUS
 62
    7
 10
816.69183243859607
 20
795.66943914449143
 11
816.68628635026596
 21
795.67435981632934
  0
ARC
  8
_0-0_FRF74-0913
  6
CONTINUOUS
 62
    7
 10
918.16512431669923
 20
910.05113956104435
 40
152.90520690868794
 50
228.34167460427264
 51
228.41950798086819
  0
LINE
  8
_0-0_FRF74-0913
  6
CONTINUOUS
 62
    7
 10
816.53100504513475
 20
795.81231910283896
 11
816.51991932237104
 21
795.82218024861345
  0
ARC
  8
_0-0_FRF74-0913
  6
CONTINUOUS
 62
    7
 10
-3215.4314716479739
 20
-6452.0594175777487
 40
8341.1168200117427
 50
60.501271031645096
 51
60.599875151493912
  0
LINE
  8
_0-0_FRF74-0913
  6
CONTINUOUS
 62
    7
 10
891.76991932237104
 20
807.77023187643476
 11
891.76991932237104
 21
718.9080138702318
  0
LINE
  8
_0-0_FRF74-0913
  6
CONTINUOUS
 62
    7
 10
885.76991932237104
 20
712.91043262667131
 11
885.77400782238226
 21
712.91063531028476
  0
ARC
  8
_0-0_FRF74-0913
  6
CONTINUOUS
 62
    7
 10
881.6161283188477
 20
796.7826864461083
 40
83.975049411691984
 50
272.83806196498011
 51
272.92166822866341
  0
ARC
  8
_0-0_FRF74-0913
  6
CONTINUOUS
 62
    7
 10
884.65752371170993
 20
737.19068611021578
 40
24.305487741031598
 50
272.9216682286492
 51
273.21052589626061
  0
LINE
  8
_0-0_FRF74-0913
  6
CONTINUOUS
 62
    7
 10
886.01875083052948
 20
712.92334601987159
 11
886.0228046872561
 21
712.9235734127252
  0
ARC
  8
_0-0_FRF74-0913
  6
CONTINUOUS
 62
    7
 10
885.16653853936532
 20
728.1886981898117
 40
15.289121170820941
 50
273.21052589625714
 51
273.70001479410706
  0
ARC
  8
_0-0_FRF74-0913
  6
CONTINUOUS
 62
    7
 10
885.45484430081024
 20
723.72998644400604
 40
10.82109804608047
 50
273.70015930183706
 51
274.39130447662234
  0
ARC
  8
_0-0_FRF74-0913
  6
CONTINUOUS
 62
    7
 10
885.64298708020419
 20
721.27952468788317
 40
8.363424243070348
 50
274.39154958476456
 51
275.28515735318501
  0
ARC
  8
_0-0_FRF74-0913
  6
CONTINUOUS
 62
    7
 10
885.78595769138678
 20
719.73359146999144
 40
6.8108940152990272
 50
275.28547031974489
 51
276.38209035939781
  0
ARC
  8
_0-0_FRF74-0913
  6
CONTINUOUS
 62
    7
 10
885.90274022861172
 20
718.68924461722122
 40
5.7600379314814463
 50
276.38237893150119
 51
277.67870851974357
  0
LINE
  8
_0-0_FRF74-0913
  6
CONTINUOUS
 62
    7
 10
886.67238451869196
 20
712.9808573985008
 11
886.68045094551223
 21
712.98194497001714
  0
ARC
  8
_0-0_FRF74-0913
  6
CONTINUOUS
 62
    7
 10
886.09415535159292
 20
717.33045027027026
 40
4.3878515095406767
 50
277.67870851973862
 51
279.59289201111028
  0
LINE
  8
_0-0_FRF74-0913
  6
CONTINUOUS
 62
    7
 10
886.82537511875853
 20
713.00395532379389
 11
886.85758486128464
 21
713.0093990838634
  0
ARC
  8
_0-0_FRF74-0913
  6
CONTINUOUS
 62
    7
 10
886.17954703817236
 20
717.02122609803871
 40
4.068721086685291
 50
279.5928920111138
 51
282.57675295533977
  0
LINE
  8
_0-0_FRF74-0913
  6
CONTINUOUS
 62
    7
 10
887.06549989613984
 20
713.0501331987607
 11
887.0895067870299
 21
713.05548914840335
  0
ARC
  8
_0-0_FRF74-0913
  6
CONTINUOUS
 62
    7
 10
885.91461305371365
 20
718.32169729911948
 40
5.3956763775503731
 50
282.57675295533949
 51
285.34914727107696
  0
LINE
  8
_0-0_FRF74-0913
  6
CONTINUOUS
 62
    7
 10
887.34285038484495
 20
713.11848082301378
 11
887.34298442440831
 21
713.11851761569937
  0
ARC
  8
_0-0_FRF74-0913
  6
CONTINUOUS
 62
    7
 10
885.80684153577943
 20
718.71484521024286
 40
5.8033281416557285
 50
285.34914727107497
 51
287.93004812413312
  0
ARC
  8
_0-0_FRF74-0913
  6
CONTINUOUS
 62
    7
 10
885.67208385503341
 20
719.13147197472301
 40
6.2412065394567726
 50
287.92960766800354
 51
290.32936276793828
  0
ARC
  8
_0-0_FRF74-0913
  6
CONTINUOUS
 62
    7
 10
885.66871446629375
 20
719.14039798459601
 40
6.2507471379165516
 50
290.3298987359999
 51
292.72464212816647
  0
ARC
  8
_0-0_FRF74-0913
  6
CONTINUOUS
 62
    7
 10
885.70132464931521
 20
719.06230766556598
 40
6.1661214080781344
 50
292.72545784186684
 51
295.1517255485503
  0
ARC
  8
_0-0_FRF74-0913
  6
CONTINUOUS
 62
    7
 10
885.73584385359163
 20
718.98866338987114
 40
6.0847884388924811
 50
295.15223186650792
 51
297.61033451087195
  0
ARC
  8
_0-0_FRF74-0913
  6
CONTINUOUS
 62
    7
 10
885.76995529757255
 20
718.92342620274178
 40
6.0111713136116531
 50
297.6104081402176
 51
300.09877941711403
  0
ARC
  8
_0-0_FRF74-0913
  6
CONTINUOUS
 62
    7
 10
885.77879638236016
 20
718.90822567587679
 40
5.9935866578588257
 50
300.09853063801648
 51
302.59468345407402
  0
ARC
  8
_0-0_FRF74-0913
  6
CONTINUOUS
 62
    7
 10
885.7913200383108
 20
718.88868421425263
 40
5.9703765289359287
 50
302.59444959213533
 51
305.10057707583474
  0
LINE
  8
_0-0_FRF74-0913
  6
CONTINUOUS
 62
    7
 10
889.22436709664646
 20
714.00405692115021
 11
889.22771661681475
 21
714.00641105032275
  0
ARC
  8
_0-0_FRF74-0913
  6
CONTINUOUS
 62
    7
 10
885.92809193968446
 20
718.7012084015671
 40
5.7383486456626889
 50
305.1005378063241
 51
307.62629134574433
  0
ARC
  8
_0-0_FRF74-0913
  6
CONTINUOUS
 62
    7
 10
885.71518732845789
 20
718.9774084029749
 40
6.0870818018998696
 50
307.62629134574439
 51
310.00723663907553
  0
ARC
  8
_0-0_FRF74-0913
  6
CONTINUOUS
 62
    7
 10
885.91832721392109
 20
718.7353544599523
 40
5.7710819218979559
 50
310.00738562787944
 51
312.51850370176629
  0
LINE
  8
_0-0_FRF74-0913
  6
CONTINUOUS
 62
    7
 10
889.81858756261954
 20
714.48172591932632
 11
889.82159307782581
 21
714.4844817527694
  0
ARC
  8
_0-0_FRF74-0913
  6
CONTINUOUS
 62
    7
 10
885.7482113943704
 20
718.92691662545542
 40
6.0272436434217616
 50
312.51850370176106
 51
315.00053929293387
  0
ARC
  8
_0-0_FRF74-0913
  6
CONTINUOUS
 62
    7
 10
885.70191013412784
 20
718.97323480560453
 40
6.0927354776897964
 50
315.00042098542781
 51
317.45609288636319
  0
ARC
  8
_0-0_FRF74-0913
  6
CONTINUOUS
 62
    7
 10
885.6816766497443
 20
718.99183161017231
 40
6.1202170099648026
 50
317.45590191761266
 51
319.9008305282008
  0
ARC
  8
_0-0_FRF74-0913
  6
CONTINUOUS
 62
    7
 10
885.74246896362911
 20
718.94065364939638
 40
6.0407507340657487
 50
319.9007404547919
 51
322.37775778033136
  0
ARC
  8
_0-0_FRF74-0913
  6
CONTINUOUS
 62
    7
 10
885.81740379041355
 20
718.88287931629031
 40
5.9461299035576776
 50
322.37791341601422
 51
324.89377379758213
  0
LINE
  8
_0-0_FRF74-0913
  6
CONTINUOUS
 62
    7
 10
890.68185672100583
 20
715.46329476315589
 11
890.69126818963503
 21
715.47668303602347
  0
ARC
  8
_0-0_FRF74-0913
  6
CONTINUOUS
 62
    7
 10
886.52332718379535
 20
718.40659389255165
 40
5.0947139130044654
 50
324.89417708603884
 51
327.46196210383755
  0
ARC
  8
_0-0_FRF74-0913
  6
CONTINUOUS
 62
    7
 10
885.13641866087085
 20
719.29144705893157
 40
6.7398523196478601
 50
327.46196210384181
 51
329.40289567057317
  0
ARC
  8
_0-0_FRF74-0913
  6
CONTINUOUS
 62
    7
 10
886.450552549593
 20
718.51433713799702
 40
5.2131409172543108
 50
329.4031127555341
 51
331.91202323713691
  0
LINE
  8
_0-0_FRF74-0913
  6
CONTINUOUS
 62
    7
 10
891.04971937214839
 20
716.05985088595628
 11
891.05741279202527
 21
716.07426666091544
  0
ARC
  8
_0-0_FRF74-0913
  6
CONTINUOUS
 62
    7
 10
885.61119845504527
 20
718.98080576496113
 40
6.1732665718946782
 50
331.91202323713225
 51
334.33483625584267
  0
LINE
  8
_0-0_FRF74-0913
  6
CONTINUOUS
 62
    7
 10
891.175413773542
 20
716.30709522395659
 11
891.18421642130215
 21
716.32541360059872
  0
ARC
  8
_0-0_FRF74-0913
  6
CONTINUOUS
 62
    7
 10
886.29405339831237
 20
718.67531520060993
 40
5.4254706635601027
 50
334.33401844903528
 51
336.66253409031128
  0
ARC
  8
_0-0_FRF74-0913
  6
CONTINUOUS
 62
    7
 10
883.82003758392625
 20
719.74271310485847
 40
8.1199265522000843
 50
336.66253409031253
 51
338.2190477619834
  0
LINE
  8
_0-0_FRF74-0913
  6
CONTINUOUS
 62
    7
 10
891.36027637092138
 20
716.72974011324072
 11
891.36483036844697
 21
716.74113658472129
  0
ARC
  8
_0-0_FRF74-0913
  6
CONTINUOUS
 62
    7
 10
887.14552048384689
 20
718.42716079027093
 40
4.5437048235975608
 50
338.21849120432438
 51
340.69135981421033
  0
LINE
  8
_0-0_FRF74-0913
  6
CONTINUOUS
 62
    7
 10
891.4336469063943
 20
716.9247542846158
 11
891.44447242746787
 21
716.95565218260754
  0
ARC
  8
_0-0_FRF74-0913
  6
CONTINUOUS
 62
    7
 10
886.14915795369575
 20
718.81094144671442
 40
5.6109227075100145
 50
340.69135981420982
 51
342.02549437824484
  0
ARC
  8
_0-0_FRF74-0913
  6
CONTINUOUS
 62
    7
 10
886.3159071072854
 20
718.75684338054316
 40
5.4356175992377844
 50
342.02549437824683
 51
343.40265228461089
  0
LINE
  8
_0-0_FRF74-0913
  6
CONTINUOUS
 62
    7
 10
891.52505403832447
 20
717.20419179825262
 11
891.53435276278594
 21
717.23538902404584
  0
ARC
  8
_0-0_FRF74-0913
  6
CONTINUOUS
 62
    7
 10
887.94597947973182
 20
718.30494869082838
 40
3.7443798818154734
 50
343.40265228460862
 51
346.39750641579872
  0
LINE
  8
_0-0_FRF74-0913
  6
CONTINUOUS
 62
    7
 10
891.58533237397614
 20
717.42432890312205
 11
891.59924868108669
 21
717.48184107042414
  0
ARC
  8
_0-0_FRF74-0913
  6
CONTINUOUS
 62
    7
 10
888.35112809941575
 20
718.26779377690673
 40
3.3418571139265882
 50
346.39750641579616
 51
348.77204904085806
  0
LINE
  8
_0-0_FRF74-0913
  6
CONTINUOUS
 62
    7
 10
891.62902301749102
 20
717.61709117513067
 11
891.6300483258176
 21
717.62225613519684
  0
ARC
  8
_0-0_FRF74-0913
  6
CONTINUOUS
 62
    7
 10
884.53025163832558
 20
719.03165341366162
 40
7.2383363898251849
 50
348.77204904086489
 51
349.78511568974318
  0
ARC
  8
_0-0_FRF74-0913
  6
CONTINUOUS
 62
    7
 10
887.61946661685863
 20
718.47498737098363
 40
4.0993674083498419
 50
349.78511568971908
 51
351.57380938942771
  0
LINE
  8
_0-0_FRF74-0913
  6
CONTINUOUS
 62
    7
 10
891.67458321206652
 20
717.87428565805874
 11
891.67771433770304
 21
717.89542273700681
  0
ARC
  8
_0-0_FRF74-0913
  6
CONTINUOUS
 62
    7
 10
885.24897781424636
 20
718.84773889140251
 40
6.4988890855244863
 50
351.57380938944607
 51
353.07885242023912
  0
LINE
  8
_0-0_FRF74-0913
  6
CONTINUOUS
 62
    7
 10
891.7005090557725
 20
718.0646016201905
 11
891.70051972895885
 21
718.06468954653246
  0
ARC
  8
_0-0_FRF74-0913
  6
CONTINUOUS
 62
    7
 10
883.76552046410438
 20
719.02790175751159
 40
7.9932465930071865
 50
353.07885242023451
 51
354.30381735340637
  0
LINE
  8
_0-0_FRF74-0913
  6
CONTINUOUS
 62
    7
 10
891.71929788394095
 20
718.23454442798175
 11
891.71930938599564
 21
718.23465974144642
  0
ARC
  8
_0-0_FRF74-0913
  6
CONTINUOUS
 62
    7
 10
881.40499101484522
 20
719.26347154330165
 40
10.365501299266102
 50
354.3038173534062
 51
355.24973171810086
  0
LINE
  8
_0-0_FRF74-0913
  6
CONTINUOUS
 62
    7
 10
891.73488800654275
 20
718.40507459199944
 11
891.73489766685475
 21
718.40519084360938
  0
ARC
  8
_0-0_FRF74-0913
  6
CONTINUOUS
 62
    7
 10
877.12434742205676
 20
719.61930283301956
 40
14.660908784198732
 50
355.24973171809688
 51
355.91942791581977
  0
LINE
  8
_0-0_FRF74-0913
  6
CONTINUOUS
 62
    7
 10
891.74809034831492
 20
718.57604389809103
 11
891.74847465165999
 21
718.58143081895514
  0
ARC
  8
_0-0_FRF74-0913
  6
CONTINUOUS
 62
    7
 10
868.19729896732827
 20
720.26157348726178
 40
23.611030377773059
 50
355.91942791581914
 51
356.30999711031359
  0
LINE
  8
_0-0_FRF74-0913
  6
CONTINUOUS
 62
    7
 10
891.75938044063105
 20
718.74201034426221
 11
891.75972452964834
 21
718.74734572864315
  0
ARC
  8
_0-0_FRF74-0913
  6
CONTINUOUS
 62
    7
 10
815.0128743946193
 20
723.69689506868315
 40
76.90628741733731
 50
356.30999711032473
 51
356.42194002466283
  0
LINE
  8
_0-0_FRF74-0913
  6
CONTINUOUS
 62
    7
 10
891.76924833651856
 20
718.89730095986295
 11
891.76991932237104
 21
718.90801387023191
  0
LINE
  8
_0-0_FRF74-0913
  6
CONTINUOUS
 62
    7
 10
885.76991932237104
 20
712.91043262667131
 11
769.26991932237104
 21
712.91043262667131
  0
LINE
  8
_0-0_FRF74-0913
  6
CONTINUOUS
 62
    7
 10
763.26991932237104
 20
718.90801387023191
 11
763.27012210063538
 21
718.90392642076495
  0
ARC
  8
_0-0_FRF74-0913
  6
CONTINUOUS
 62
    7
 10
847.05468175816952
 20
723.06047629959698
 40
83.88759946441499
 50
182.84011371359165
 51
182.92378525159535
  0
ARC
  8
_0-0_FRF74-0913
  6
CONTINUOUS
 62
    7
 10
787.52481091162053
 20
720.02004650393508
 40
24.280135700645044
 50
182.92378525159347
 51
183.2128689252188
  0
LINE
  8
_0-0_FRF74-0913
  6
CONTINUOUS
 62
    7
 10
763.28283869908341
 20
718.65924788242103
 11
763.28306619437672
 21
718.65519516331062
  0
ARC
  8
_0-0_FRF74-0913
  6
CONTINUOUS
 62
    7
 10
778.53217241058076
 20
719.51118833648411
 40
15.273112476034246
 50
183.21286892519737
 51
183.70274182614622
  0
ARC
  8
_0-0_FRF74-0913
  6
CONTINUOUS
 62
    7
 10
774.07807880327994
 20
719.22296840854142
 40
10.80970339906143
 50
183.70288687466416
 51
184.39457696986463
  0
ARC
  8
_0-0_FRF74-0913
  6
CONTINUOUS
 62
    7
 10
771.63014672862687
 20
719.03487935573264
 40
8.3545559631146151
 50
184.39482305563931
 51
185.28913978111109
  0
ARC
  8
_0-0_FRF74-0913
  6
CONTINUOUS
 62
    7
 10
770.08580759892482
 20
718.89194807430397
 40
6.8036166680329648
 50
185.28945415369421
 51
186.38695024767952
  0
ARC
  8
_0-0_FRF74-0913
  6
CONTINUOUS
 62
    7
 10
769.04254214884691
 20
718.77519703354471
 40
5.7538387849358283
 50
186.38724050148781
 51
187.68461400686823
  0
LINE
  8
_0-0_FRF74-0913
  6
CONTINUOUS
 62
    7
 10
763.34037776073819
 20
718.00579333325743
 11
763.34146584140012
 21
717.99772940686876
  0
ARC
  8
_0-0_FRF74-0913
  6
CONTINUOUS
 62
    7
 10
767.68519994730514
 20
718.58383756978276
 40
4.3830980780079178
 50
187.6846140068711
 51
189.60034721291555
  0
LINE
  8
_0-0_FRF74-0913
  6
CONTINUOUS
 62
    7
 10
763.36348704202408
 20
717.8528476069489
 11
763.36893346372904
 21
717.82064761492938
  0
ARC
  8
_0-0_FRF74-0913
  6
CONTINUOUS
 62
    7
 10
767.3762712358274
 20
718.49846304443429
 40
4.0642575922499828
 50
189.60034721291936
 51
192.58665842409133
  0
LINE
  8
_0-0_FRF74-0913
  6
CONTINUOUS
 62
    7
 10
763.40968778776437
 20
717.61279633188713
 11
763.415046429011
 21
717.58879690030426
  0
ARC
  8
_0-0_FRF74-0913
  6
CONTINUOUS
 62
    7
 10
768.67523380860121
 20
718.76330209472837
 40
5.3897155509478161
 50
192.58665842409721
 51
195.36135313571808
  0
LINE
  8
_0-0_FRF74-0913
  6
CONTINUOUS
 62
    7
 10
763.47806958350634
 20
717.33553539896775
 11
763.47810655517321
 21
717.33540081968067
  0
ARC
  8
_0-0_FRF74-0913
  6
CONTINUOUS
 62
    7
 10
769.06794056353647
 20
718.87104188975377
 40
5.7969334770333809
 50
195.36135313571813
 51
197.94441167668674
  0
ARC
  8
_0-0_FRF74-0913
  6
CONTINUOUS
 62
    7
 10
769.48413062636439
 20
719.00577223512892
 40
6.2343879685062493
 50
197.94395940957017
 51
200.34572477386016
  0
ARC
  8
_0-0_FRF74-0913
  6
CONTINUOUS
 62
    7
 10
769.49337747375898
 20
719.00926164503551
 40
6.2442711337359684
 50
200.3462453196982
 51
202.74289374261426
  0
ARC
  8
_0-0_FRF74-0913
  6
CONTINUOUS
 62
    7
 10
769.41580527228462
 20
718.97683723548062
 40
6.1601950888747243
 50
202.74369149487757
 51
205.17174696469556
  0
ARC
  8
_0-0_FRF74-0913
  6
CONTINUOUS
 62
    7
 10
769.34269177860813
 20
718.94253361562187
 40
6.0794342159170744
 50
205.1722327464764
 51
207.63199261252433
  0
ARC
  8
_0-0_FRF74-0913
  6
CONTINUOUS
 62
    7
 10
769.27800180909253
 20
718.90867431083211
 40
6.0064188432203132
 50
207.63204163730296
 51
210.12192113816241
  0
ARC
  8
_0-0_FRF74-0913
  6
CONTINUOUS
 62
    7
 10
769.26334538710626
 20
718.90013729290456
 40
5.989457400509048
 50
210.12164400030363
 51
212.61911519485429
  0
ARC
  8
_0-0_FRF74-0913
  6
CONTINUOUS
 62
    7
 10
769.2443718558194
 20
718.88796150750682
 40
5.966913135736549
 50
212.61885003873962
 51
215.12609324603827
  0
LINE
  8
_0-0_FRF74-0913
  6
CONTINUOUS
 62
    7
 10
764.36410659121668
 20
715.4547322235037
 11
764.36646089531098
 21
715.4513856192732
  0
ARC
  8
_0-0_FRF74-0913
  6
CONTINUOUS
 62
    7
 10
769.05767062535415
 20
718.75160683272679
 40
5.7357570371296012
 50
215.12602013953108
 51
217.65264320782285
  0
ARC
  8
_0-0_FRF74-0913
  6
CONTINUOUS
 62
    7
 10
769.33420823949746
 20
718.96497451944424
 40
6.0850403344273776
 50
217.65264320781736
 51
220.03413639918571
  0
ARC
  8
_0-0_FRF74-0913
  6
CONTINUOUS
 62
    7
 10
769.09288001434834
 20
718.7622498860552
 40
5.7698632587781375
 50
220.03428032970362
 51
222.54566965988514
  0
LINE
  8
_0-0_FRF74-0913
  6
CONTINUOUS
 62
    7
 10
764.84199903948365
 20
714.86079721268698
 11
764.84475770455572
 21
714.85779147153039
  0
ARC
  8
_0-0_FRF74-0913
  6
CONTINUOUS
 62
    7
 10
769.28486874198347
 20
718.93291923432912
 40
6.0267115666688875
 50
222.54566965988434
 51
225.0277539099034
  0
ARC
  8
_0-0_FRF74-0913
  6
CONTINUOUS
 62
    7
 10
769.33174250108493
 20
718.97981491094242
 40
6.0930165702816979
 50
225.0275976241102
 51
227.48306256794376
  0
ARC
  8
_0-0_FRF74-0913
  6
CONTINUOUS
 62
    7
 10
769.35089093863644
 20
719.00066327777972
 40
6.121324104056308
 50
227.48283429120676
 51
229.92730138871823
  0
ARC
  8
_0-0_FRF74-0913
  6
CONTINUOUS
 62
    7
 10
769.30025303948423
 20
718.94044988549763
 40
6.0426485089861268
 50
229.92717464239243
 51
232.40346814916722
  0
ARC
  8
_0-0_FRF74-0913
  6
CONTINUOUS
 62
    7
 10
769.24297381179906
 20
718.86608225092937
 40
5.9487791591422967
 50
232.40358727431607
 51
234.91845535759171
  0
LINE
  8
_0-0_FRF74-0913
  6
CONTINUOUS
 62
    7
 10
765.82396242046082
 20
713.99798872367001
 11
765.83735148561982
 21
713.98858530064376
  0
ARC
  8
_0-0_FRF74-0913
  6
CONTINUOUS
 62
    7
 10
768.76728609594227
 20
718.16037309538228
 40
5.0978750695847781
 50
234.91882241597835
 51
237.485296160416
  0
ARC
  8
_0-0_FRF74-0913
  6
CONTINUOUS
 62
    7
 10
769.65222703753523
 20
719.54866578058943
 40
6.7442277201147931
 50
237.48529616041731
 51
239.42524413818538
  0
ARC
  8
_0-0_FRF74-0913
  6
CONTINUOUS
 62
    7
 10
768.87540355846659
 20
718.23383502974366
 40
5.2170621689244223
 50
239.42539973712297
 51
241.93285762889889
  0
LINE
  8
_0-0_FRF74-0913
  6
CONTINUOUS
 62
    7
 10
766.42074488571836
 20
713.63031588948536
 11
766.43516920979539
 21
713.6226246447842
  0
ARC
  8
_0-0_FRF74-0913
  6
CONTINUOUS
 62
    7
 10
769.34217993242578
 20
719.07449445101497
 40
6.1784784312627528
 50
241.93285762888706
 51
244.35413839785522
  0
LINE
  8
_0-0_FRF74-0913
  6
CONTINUOUS
 62
    7
 10
766.66808831730077
 20
713.50468029258059
 11
766.68641221660585
 21
713.49588257879054
  0
ARC
  8
_0-0_FRF74-0913
  6
CONTINUOUS
 62
    7
 10
769.03687644101387
 20
718.39143508217501
 40
5.4305723808467388
 50
244.35329650682044
 51
246.68017476898183
  0
ARC
  8
_0-0_FRF74-0913
  6
CONTINUOUS
 62
    7
 10
770.10464992862671
 20
720.8684178102593
 40
8.1279013663575235
 50
246.68017476897063
 51
248.23554041049493
  0
LINE
  8
_0-0_FRF74-0913
  6
CONTINUOUS
 62
    7
 10
767.09089053130992
 20
713.31990571075778
 11
767.10229044771791
 21
713.31535413908955
  0
ARC
  8
_0-0_FRF74-0913
  6
CONTINUOUS
 62
    7
 10
768.78884194507816
 20
717.53950954938637
 40
4.5484002554291427
 50
248.23497267369049
 51
250.70592935938447
  0
LINE
  8
_0-0_FRF74-0913
  6
CONTINUOUS
 62
    7
 10
767.28597445160528
 20
713.24656951013003
 11
767.3168825584354
 21
713.23574923576905
  0
ARC
  8
_0-0_FRF74-0913
  6
CONTINUOUS
 62
    7
 10
769.17279548670149
 20
718.53716333497096
 40
5.6168856360550743
 50
250.70592935938956
 51
252.03900505843387
  0
ARC
  8
_0-0_FRF74-0913
  6
CONTINUOUS
 62
    7
 10
769.11869047700225
 20
718.37025870841558
 40
5.4414304952352008
 50
252.03900505843615
 51
253.41506078843508
  0
LINE
  8
_0-0_FRF74-0913
  6
CONTINUOUS
 62
    7
 10
767.56550785973025
 20
713.15520457716445
 11
767.59671607593305
 21
713.14590993559364
  0
ARC
  8
_0-0_FRF74-0913
  6
CONTINUOUS
 62
    7
 10
768.66666571998326
 20
716.73843360240721
 40
3.7484688257231671
 50
253.41506078843256
 51
256.40747083795975
  0
LINE
  8
_0-0_FRF74-0913
  6
CONTINUOUS
 62
    7
 10
767.7857179079482
 20
713.09495319352766
 11
767.8432481868374
 21
713.08104309449436
  0
ARC
  8
_0-0_FRF74-0913
  6
CONTINUOUS
 62
    7
 10
768.62951709717709
 20
716.33294443507009
 40
3.3456062422534005
 50
256.40747083796032
 51
258.78009875557086
  0
LINE
  8
_0-0_FRF74-0913
  6
CONTINUOUS
 62
    7
 10
767.97854553957995
 20
713.05128065591714
 11
767.98371019429806
 21
713.05025616238197
  0
ARC
  8
_0-0_FRF74-0913
  6
CONTINUOUS
 62
    7
 10
769.39367188968708
 20
720.15812465794579
 40
7.2463636765410255
 50
258.7800987555745
 51
259.7923947662764
  0
ARC
  8
_0-0_FRF74-0913
  6
CONTINUOUS
 62
    7
 10
768.83677998031692
 20
717.06540502641167
 40
4.1039055116645837
 50
259.79239476626628
 51
261.57973147752324
  0
LINE
  8
_0-0_FRF74-0913
  6
CONTINUOUS
 62
    7
 10
768.23583287921326
 20
713.00573717911857
 11
768.25697753648842
 21
713.0026071643066
  0
ARC
  8
_0-0_FRF74-0913
  6
CONTINUOUS
 62
    7
 10
769.20967821255329
 20
719.43852855507566
 40
6.5060527761717415
 50
261.57973147752108
 51
263.08363818463295
  0
LINE
  8
_0-0_FRF74-0913
  6
CONTINUOUS
 62
    7
 10
768.42621716933934
 20
712.97982036224801
 11
768.42630495438812
 21
712.97980971365337
  0
ARC
  8
_0-0_FRF74-0913
  6
CONTINUOUS
 62
    7
 10
769.38990862332707
 20
720.92358045390904
 40
8.0020013499458926
 50
263.0836381846313
 51
264.30768431948411
  0
LINE
  8
_0-0_FRF74-0913
  6
CONTINUOUS
 62
    7
 10
768.59621975439597
 20
712.96103792128349
 11
768.59633490189537
 21
712.96102644363202
  0
ARC
  8
_0-0_FRF74-0913
  6
CONTINUOUS
 62
    7
 10
769.62556882227591
 20
723.28663284667232
 40
10.376775513297462
 50
264.30768431948781
 51
265.25289405552462
  0
LINE
  8
_0-0_FRF74-0913
  6
CONTINUOUS
 62
    7
 10
768.7668089824125
 20
712.94545295312014
 11
768.76692507426128
 21
712.94544331253576
  0
ARC
  8
_0-0_FRF74-0913
  6
CONTINUOUS
 62
    7
 10
769.98154196697033
 20
727.57185130947846
 40
14.676753901632384
 50
265.25289405551763
 51
265.92209441424404
  0
LINE
  8
_0-0_FRF74-0913
  6
CONTINUOUS
 62
    7
 10
768.93783681937543
 20
712.93225484461755
 11
768.94322550935294
 21
712.9318706671246
  0
ARC
  8
_0-0_FRF74-0913
  6
CONTINUOUS
 62
    7
 10
770.62407610487401
 20
736.50842817750004
 40
23.636398261251653
 50
265.92209441424336
 51
266.31237570791103
  0
LINE
  8
_0-0_FRF74-0913
  6
CONTINUOUS
 62
    7
 10
769.10385954783158
 20
712.92096828067781
 11
769.1091967735498
 21
712.92062429540169
  0
ARC
  8
_0-0_FRF74-0913
  6
CONTINUOUS
 62
    7
 10
774.060864583578
 20
789.74998479039436
 40
76.988763129241249
 50
266.31237570791228
 51
266.42423627992434
  0
LINE
  8
_0-0_FRF74-0913
  6
CONTINUOUS
 62
    7
 10
769.25920278658054
 20
712.91110340760963
 11
769.26991932237104
 21
712.91043262667131
  0
LINE
  8
_0-0_FRF74-0913
  6
CONTINUOUS
 62
    7
 10
763.26991932237104
 20
808.9622431303867
 11
763.26991932237104
 21
718.9080138702318
  0
LINE
  8
_0-0_FRF74-0913
  6
CONTINUOUS
 62
    7
 10
755.81928422776002
 20
749.46575595901538
 11
763.26991932237104
 21
753.76738213652277
  0
LINE
  8
_0-0_FRF74-0913
  6
CONTINUOUS
 62
    7
 10
797.76991932237104
 20
818.4657559590155
 11
797.76991932237104
 21
814.82783377467013
  0
ARC
  8
_0-0_FRF74-0913
  6
CONTINUOUS
 62
    7
 10
827.51991932237104
 20
813.46575595901538
 40
16
 50
90
 51
161.79004313571687
  0
ARC
  8
_0-0_FRF74-0913
  6
CONTINUOUS
 62
    7
 10
827.51991932237104
 20
813.46575595901538
 40
16.000000000000004
 50
226.56746344221108
 51
313.43253655779063
  0
ARC
  8
_0-0_FRF74-0913
  6
CONTINUOUS
 62
    7
 10
827.51991932237104
 20
813.46575595901538
 40
16.000000000000007
 50
22.993394314297898
 51
90
  0
ARC
  8
_0-0_FRF74-0913
  6
CONTINUOUS
 62
    7
 10
827.51991932237104
 20
813.46575595901538
 40
25
 50
14.47751218592999
 51
90
  0
ARC
  8
_0-0_FRF74-0913
  6
CONTINUOUS
 62
    7
 10
827.51991932237104
 20
813.46575595901538
 40
25
 50
90
 51
168.46304096718447
  0
ARC
  8
_0-0_FRF74-0913
  6
CONTINUOUS
 62
    7
 10
827.51991932237104
 20
813.46575595901538
 40
21.000000000000018
 50
17.314653587348189
 51
90
  0
ARC
  8
_0-0_FRF74-0913
  6
CONTINUOUS
 62
    7
 10
827.51991932237104
 20
813.46575595901538
 40
21.000000000000004
 50
240.77613896261579
 51
298.69855326147302
  0
ARC
  8
_0-0_FRF74-0913
  6
CONTINUOUS
 62
    7
 10
827.51991932237104
 20
813.46575595901538
 40
21
 50
90
 51
166.22585300197318
  0
CIRCLE
  8
_0-0_FRF74-0913
  6
CONTINUOUS
 62
    7
 10
827.51991932237104
 20
813.46575595901538
 40
9
  0
CIRCLE
  8
_0-0_FRF74-0913
  6
CONTINUOUS
 62
    7
 10
827.51991932237104
 20
813.46575595901538
 40
9.5
  0
LINE
  8
_0-0_FRF74-0913
  6
CONTINUOUS
 62
    7
 10
946.02138634458527
 20
788.08020700607187
 11
946.52138634458527
 21
787.58020700607176
  0
LINE
  8
_0-0_FRF74-0913
  6
CONTINUOUS
 62
    7
 10
950.52138634458527
 20
787.58020700607176
 11
951.02138634458527
 21
788.08020700607187
  0
LINE
  8
_0-0_FRF74-0913
  6
CONTINUOUS
 62
    7
 10
946.02138634458527
 20
788.46575595901538
 11
946.02138634458527
 21
788.08020700607187
  0
LINE
  8
_0-0_FRF74-0913
  6
CONTINUOUS
 62
    7
 10
951.02138634458527
 20
788.08020700607187
 11
951.02138634458527
 21
788.46575595901538
  0
LINE
  8
_0-0_FRF74-0913
  6
CONTINUOUS
 62
    7
 10
944.52138634458527
 20
788.46575595901538
 11
946.02138634458527
 21
788.46575595901538
  0
LINE
  8
_0-0_FRF74-0913
  6
CONTINUOUS
 62
    7
 10
946.09481630615414
 20
788.08020700607187
 11
951.02138634458527
 21
788.08020700607187
  0
LINE
  8
_0-0_FRF74-0913
  6
CONTINUOUS
 62
    7
 10
946.02138634458527
 20
788.08020700607187
 11
946.09481630615414
 21
788.08020700607187
  0
LINE
  8
_0-0_FRF74-0913
  6
CONTINUOUS
 62
    7
 10
946.58013031384041
 20
787.58020700607176
 11
946.52138634458527
 21
787.58020700607176
  0
LINE
  8
_0-0_FRF74-0913
  6
CONTINUOUS
 62
    7
 10
950.52138634458527
 20
787.58020700607176
 11
946.58013031384041
 21
787.58020700607176
  0
LINE
  8
_0-0_FRF74-0913
  6
CONTINUOUS
 62
    7
 10
944.52138634458527
 20
838.4657559590155
 11
944.52138634458527
 21
788.46575595901538
  0
LINE
  8
_0-0_FRF74-0913
  6
CONTINUOUS
 62
    7
 10
983.32138634458533
 20
751.9657559590155
 11
983.32138634458533
 21
746.71575595901538
  0
LINE
  8
_0-0_FRF74-0913
  6
CONTINUOUS
 62
    7
 10
993.32138634458533
 20
746.71575595901527
 11
993.32138634458533
 21
751.96575595901538
  0
LINE
  8
_0-0_FRF74-0913
  6
CONTINUOUS
 62
    7
 10
993.32138634458533
 20
738.46575595901538
 11
993.32138634458533
 21
746.71575595901538
  0
LINE
  8
_0-0_FRF74-0913
  6
CONTINUOUS
 62
    7
 10
983.32138634458533
 20
746.71575595901538
 11
983.32138634458533
 21
738.46575595901538
  0
LINE
  8
_0-0_FRF74-0913
  6
CONTINUOUS
 62
    7
 10
993.32138634458533
 20
751.96575595901538
 11
993.32138634458533
 21
754.9657559590155
  0
LINE
  8
_0-0_FRF74-0913
  6
CONTINUOUS
 62
    7
 10
983.32138634458533
 20
754.9657559590155
 11
983.32138634458533
 21
751.9657559590155
  0
LINE
  8
_0-0_FRF74-0913
  6
CONTINUOUS
 62
    7
 10
993.32138634458533
 20
754.9657559590155
 11
993.32138634458533
 21
796.9657559590155
  0
LINE
  8
_0-0_FRF74-0913
  6
CONTINUOUS
 62
    7
 10
983.32138634458533
 20
796.9657559590155
 11
983.32138634458533
 21
754.9657559590155
  0
LINE
  8
_0-0_FRF74-0913
  6
CONTINUOUS
 62
    7
 10
1002.9405397210337
 20
718.94487908056192
 11
1003.9399728458936
 21
718.9080138702318
  0
LINE
  8
_0-0_FRF74-0913
  6
CONTINUOUS
 62
    7
 10
1003.7637784795384
 20
712.91043262667131
 11
1002.7644580790568
 21
712.94729367903642
  0
LINE
  8
_0-0_FRF74-0913
  6
CONTINUOUS
 62
    7
 10
1002.7644580790568
 20
712.94729367903642
 11
1002.7817060515945
 21
713.41465451091494
  0
ARC
  8
_0-0_FRF74-0913
  6
CONTINUOUS
 62
    7
 10
732.7074395714933
 20
723.38175747221908
 40
270.25812209109642
 50
357.88645586636352
 51
358.3108507910303
  0
LINE
  8
_0-0_FRF74-0913
  6
CONTINUOUS
 62
    7
 10
1002.8481238192896
 20
715.41537370426374
 11
1002.8639991252928
 21
715.95370654777616
  0
ARC
  8
_0-0_FRF74-0913
  6
CONTINUOUS
 62
    7
 10
637.03772212245292
 20
726.74183541894263
 40
365.98531209640009
 50
358.31085079102837
 51
358.45561467175429
  0
LINE
  8
_0-0_FRF74-0913
  6
CONTINUOUS
 62
    7
 10
1002.8900887820348
 20
716.87803899554581
 11
1002.8952374481155
 21
717.06900519049896
  0
ARC
  8
_0-0_FRF74-0913
  6
CONTINUOUS
 62
    7
 10
775.11566578183226
 20
723.21020182904931
 40
227.8623434546148
 50
358.4556146717469
 51
358.59205846093118
  0
LINE
  8
_0-0_FRF74-0913
  6
CONTINUOUS
 62
    7
 10
1002.9092161666385
 20
717.61145485195266
 11
1002.9121444860235
 21
717.73059798738836
  0
ARC
  8
_0-0_FRF74-0913
  6
CONTINUOUS
 62
    7
 10
630.30898874967465
 20
726.88849902672666
 40
372.71568093673238
 50
358.59205846093926
 51
358.6388327058184
  0
ARC
  8
_0-0_FRF74-0913
  6
CONTINUOUS
 62
    7
 10
490.95161521395954
 20
730.19981435806869
 40
512.11238953487828
 50
358.63883270582147
 51
358.67287502806647
  0
LINE
  8
_0-0_FRF74-0913
  6
CONTINUOUS
 62
    7
 10
1002.926634005699
 20
718.33896918071832
 11
1002.9283292854748
 21
718.41214616617685
  0
ARC
  8
_0-0_FRF74-0913
  6
CONTINUOUS
 62
    7
 10
-50.404734014181827
 20
742.81454848171575
 40
1053.6156887020086
 50
358.67287502805794
 51
358.69738226555421
  0
LINE
  8
_0-0_FRF74-0913
  6
CONTINUOUS
 62
    7
 10
1002.9386706170447
 20
718.86269262660767
 11
1002.9403205920846
 21
718.93525444964712
  0
LINE
  8
_0-0_FRF74-0913
  6
CONTINUOUS
 62
    7
 10
1002.9403205920846
 20
718.93525444964712
 11
1002.9405397210337
 21
718.94487908056192
  0
ARC
  8
_0-0_FRF74-0913
  6
CONTINUOUS
 62
    7
 10
157.66691405247036
 20
737.9288310121558
 40
846.48678756630557
 50
358.66489522125914
 51
358.71243793481199
  0
LINE
  8
_0-0_FRF74-0913
  6
CONTINUOUS
 62
    7
 10
1003.9238984712288
 20
718.20580267487878
 11
1003.9223861162263
 21
718.14091198153062
  0
ARC
  8
_0-0_FRF74-0913
  6
CONTINUOUS
 62
    7
 10
707.76047762386031
 20
725.04331848586241
 40
296.24233198074779
 50
358.5039384989027
 51
358.66489522126568
  0
LINE
  8
_0-0_FRF74-0913
  6
CONTINUOUS
 62
    7
 10
1003.9018271143098
 20
717.30895494597917
 11
1003.8985401608015
 21
717.18310065394996
  0
ARC
  8
_0-0_FRF74-0913
  6
CONTINUOUS
 62
    7
 10
631.67763624724819
 20
726.9044441710447
 40
372.34782909263771
 50
358.33713494932334
 51
358.50393849890202
  0
LINE
  8
_0-0_FRF74-0913
  6
CONTINUOUS
 62
    7
 10
1003.8686613559551
 20
716.09950740445095
 11
1003.8535008361384
 21
715.57728228332633
  0
ARC
  8
_0-0_FRF74-0913
  6
CONTINUOUS
 62
    7
 10
726.28938787490517
 20
723.63514098197197
 40
277.68105065121676
 50
357.89786771032999
 51
358.33713494931879
  0
LINE
  8
_0-0_FRF74-0913
  6
CONTINUOUS
 62
    7
 10
1003.7835673355223
 20
713.44955036373233
 11
1003.7638008579747
 21
712.91103643032261
  0
LINE
  8
_0-0_FRF74-0913
  6
CONTINUOUS
 62
    7
 10
1003.7638008579747
 20
712.91103643032261
 11
1003.7637784795384
 21
712.91043262667131
  0
ARC
  8
_0-0_FRF74-0913
  6
CONTINUOUS
 62
    7
 10
604.03561828693375
 20
727.65485357277305
 40
399.00000000000045
 50
358.74916185129769
 51
11.726001684306771
  0
ARC
  8
_0-0_FRF74-0913
  6
CONTINUOUS
 62
    7
 10
604.03561828693375
 20
727.65485357277305
 40
400.00000000000045
 50
358.74700763165299
 51
11.728155903951519
  0
LINE
  8
_0-0_FRF74-0913
  6
CONTINUOUS
 62
    7
 10
988.32138634458533
 20
754.4657559590155
 11
987.59338050591009
 21
754.43911437920315
  0
LINE
  8
_0-0_FRF74-0913
  6
CONTINUOUS
 62
    7
 10
987.59338050591009
 20
754.43911437920315
 11
986.88089084775902
 21
754.35975745878648
  0
LINE
  8
_0-0_FRF74-0913
  6
CONTINUOUS
 62
    7
 10
986.88089084775902
 20
754.35975745878648
 11
986.19910285020615
 21
754.22937655274825
  0
LINE
  8
_0-0_FRF74-0913
  6
CONTINUOUS
 62
    7
 10
986.19910285020615
 20
754.22937655274825
 11
985.5625476407331
 21
754.05075050374012
  0
LINE
  8
_0-0_FRF74-0913
  6
CONTINUOUS
 62
    7
 10
985.5625476407331
 20
754.05075050374012
 11
984.98479228847395
 21
753.82768641587484
  0
LINE
  8
_0-0_FRF74-0913
  6
CONTINUOUS
 62
    7
 10
984.98479228847395
 20
753.82768641587484
 11
984.47815064569249
 21
753.5649385129127
  0
LINE
  8
_0-0_FRF74-0913
  6
CONTINUOUS
 62
    7
 10
984.47815064569249
 20
753.5649385129127
 11
984.05342089939859
 21
753.26810681023528
  0
LINE
  8
_0-0_FRF74-0913
  6
CONTINUOUS
 62
    7
 10
984.05342089939859
 20
753.26810681023528
 11
983.71965542673934
 21
752.94351776024087
  0
LINE
  8
_0-0_FRF74-0913
  6
CONTINUOUS
 62
    7
 10
983.71965542673934
 20
752.94351776024087
 11
983.48396785929822
 21
752.59808941499455
  0
LINE
  8
_0-0_FRF74-0913
  6
CONTINUOUS
 62
    7
 10
983.48396785929822
 20
752.59808941499455
 11
983.3513814683854
 21
752.2391839799601
  0
LINE
  8
_0-0_FRF74-0913
  6
CONTINUOUS
 62
    7
 10
983.3513814683854
 20
752.2391839799601
 11
983.32472210273409
 21
751.87445090137123
  0
LINE
  8
_0-0_FRF74-0913
  6
CONTINUOUS
 62
    7
 10
983.32472210273409
 20
751.87445090137123
 11
983.40455796043784
 21
751.51166383156681
  0
LINE
  8
_0-0_FRF74-0913
  6
CONTINUOUS
 62
    7
 10
983.40455796043784
 20
751.51166383156681
 11
983.58918747879716
 21
751.15855494708683
  0
LINE
  8
_0-0_FRF74-0913
  6
CONTINUOUS
 62
    7
 10
983.58918747879716
 20
751.15855494708683
 11
983.87467560017262
 21
750.82265015075382
  0
LINE
  8
_0-0_FRF74-0913
  6
CONTINUOUS
 62
    7
 10
983.87467560017262
 20
750.82265015075382
 11
984.25493764090743
 21
750.51110867012051
  0
LINE
  8
_0-0_FRF74-0913
  6
CONTINUOUS
 62
    7
 10
984.25493764090743
 20
750.51110867012051
 11
984.72186897579536
 21
750.23057047096381
  0
LINE
  8
_0-0_FRF74-0913
  6
CONTINUOUS
 62
    7
 10
984.72186897579536
 20
750.23057047096381
 11
985.265517774096
 21
749.98701473794222
  0
LINE
  8
_0-0_FRF74-0913
  6
CONTINUOUS
 62
    7
 10
985.265517774096
 20
749.98701473794222
 11
985.87429710552988
 21
749.78563243865585
  0
LINE
  8
_0-0_FRF74-0913
  6
CONTINUOUS
 62
    7
 10
985.87429710552988
 20
749.78563243865585
 11
986.5352318955795
 21
749.63071568718397
  0
LINE
  8
_0-0_FRF74-0913
  6
CONTINUOUS
 62
    7
 10
986.5352318955795
 20
749.63071568718397
 11
987.23423546667755
 21
749.52556626512558
  0
LINE
  8
_0-0_FRF74-0913
  6
CONTINUOUS
 62
    7
 10
987.23423546667755
 20
749.52556626512558
 11
987.95640977128073
 21
749.47242524985654
  0
LINE
  8
_0-0_FRF74-0913
  6
CONTINUOUS
 62
    7
 10
987.95640977128073
 20
749.47242524985654
 11
988.68636291788994
 21
749.47242524985654
  0
LINE
  8
_0-0_FRF74-0913
  6
CONTINUOUS
 62
    7
 10
988.68636291788994
 20
749.47242524985654
 11
989.40853722249312
 21
749.52556626512558
  0
LINE
  8
_0-0_FRF74-0913
  6
CONTINUOUS
 62
    7
 10
989.40853722249312
 20
749.52556626512558
 11
990.10754079359094
 21
749.63071568718408
  0
LINE
  8
_0-0_FRF74-0913
  6
CONTINUOUS
 62
    7
 10
990.10754079359094
 20
749.63071568718408
 11
990.76847558364079
 21
749.78563243865597
  0
LINE
  8
_0-0_FRF74-0913
  6
CONTINUOUS
 62
    7
 10
990.76847558364079
 20
749.78563243865597
 11
991.37725491507445
 21
749.98701473794222
  0
LINE
  8
_0-0_FRF74-0913
  6
CONTINUOUS
 62
    7
 10
991.37725491507445
 20
749.98701473794222
 11
991.92090371337531
 21
750.23057047096381
  0
LINE
  8
_0-0_FRF74-0913
  6
CONTINUOUS
 62
    7
 10
991.92090371337531
 20
750.23057047096381
 11
992.38783504826301
 21
750.51110867012051
  0
LINE
  8
_0-0_FRF74-0913
  6
CONTINUOUS
 62
    7
 10
992.38783504826301
 20
750.51110867012051
 11
992.76809708899782
 21
750.82265015075382
  0
LINE
  8
_0-0_FRF74-0913
  6
CONTINUOUS
 62
    7
 10
992.76809708899782
 20
750.82265015075382
 11
993.05358521037329
 21
751.15855494708683
  0
LINE
  8
_0-0_FRF74-0913
  6
CONTINUOUS
 62
    7
 10
993.05358521037329
 20
751.15855494708683
 11
993.2382147287326
 21
751.51166383156692
  0
LINE
  8
_0-0_FRF74-0913
  6
CONTINUOUS
 62
    7
 10
993.2382147287326
 20
751.51166383156692
 11
993.31805058643636
 21
751.87445090137135
  0
LINE
  8
_0-0_FRF74-0913
  6
CONTINUOUS
 62
    7
 10
993.31805058643636
 20
751.87445090137135
 11
993.29139122078504
 21
752.2391839799601
  0
LINE
  8
_0-0_FRF74-0913
  6
CONTINUOUS
 62
    7
 10
993.29139122078504
 20
752.2391839799601
 11
993.15880482987222
 21
752.59808941499466
  0
LINE
  8
_0-0_FRF74-0913
  6
CONTINUOUS
 62
    7
 10
993.15880482987222
 20
752.59808941499466
 11
992.92311726243111
 21
752.94351776024087
  0
LINE
  8
_0-0_FRF74-0913
  6
CONTINUOUS
 62
    7
 10
992.92311726243111
 20
752.94351776024087
 11
992.58935178977185
 21
753.26810681023528
  0
LINE
  8
_0-0_FRF74-0913
  6
CONTINUOUS
 62
    7
 10
992.58935178977185
 20
753.26810681023528
 11
992.16462204347795
 21
753.5649385129127
  0
LINE
  8
_0-0_FRF74-0913
  6
CONTINUOUS
 62
    7
 10
992.16462204347795
 20
753.5649385129127
 11
991.65798040069649
 21
753.82768641587484
  0
LINE
  8
_0-0_FRF74-0913
  6
CONTINUOUS
 62
    7
 10
991.65798040069649
 20
753.82768641587484
 11
991.08022504843734
 21
754.05075050374012
  0
LINE
  8
_0-0_FRF74-0913
  6
CONTINUOUS
 62
    7
 10
991.08022504843734
 20
754.05075050374012
 11
990.4436698389643
 21
754.22937655274825
  0
LINE
  8
_0-0_FRF74-0913
  6
CONTINUOUS
 62
    7
 10
990.4436698389643
 20
754.22937655274825
 11
989.76188184141142
 21
754.35975745878648
  0
LINE
  8
_0-0_FRF74-0913
  6
CONTINUOUS
 62
    7
 10
989.76188184141142
 20
754.35975745878648
 11
989.04939218326012
 21
754.43911437920315
  0
LINE
  8
_0-0_FRF74-0913
  6
CONTINUOUS
 62
    7
 10
989.04939218326012
 20
754.43911437920315
 11
988.32138634458533
 21
754.4657559590155
  0
ARC
  8
_0-0_FRF74-0913
  6
CONTINUOUS
 62
    7
 10
988.32138634458533
 20
738.46575595901538
 40
5
 50
180
 51
0
  0
LINE
  8
_0-0_FRF74-0913
  6
CONTINUOUS
 62
    7
 10
993.32138634458533
 20
796.9657559590155
 11
993.32138634458533
 21
803.96575595901538
  0
LINE
  8
_0-0_FRF74-0913
  6
CONTINUOUS
 62
    7
 10
983.32138634458533
 20
803.96575595901538
 11
983.32138634458533
 21
796.9657559590155
  0
ARC
  8
_0-0_FRF74-0913
  6
CONTINUOUS
 62
    7
 10
980.32138634458533
 20
803.96575595901538
 40
0.5
 50
0
 51
180
  0
ARC
  8
_0-0_FRF74-0913
  6
CONTINUOUS
 62
    7
 10
980.32138634458533
 20
822.9657559590155
 40
0.5
 50
180
 51
0
  0
LINE
  8
_0-0_FRF74-0913
  6
CONTINUOUS
 62
    7
 10
995.82138634458533
 20
822.9657559590155
 11
980.82138634458533
 21
822.9657559590155
  0
LINE
  8
_0-0_FRF74-0913
  6
CONTINUOUS
 62
    7
 10
980.82138634458533
 20
803.96575595901538
 11
995.67020074486459
 21
803.96575595901538
  0
ARC
  8
_0-0_FRF74-0913
  6
CONTINUOUS
 62
    7
 10
995.82138634458533
 20
822.4657559590155
 40
0.5
 50
0
 51
90
  0
LINE
  8
_0-0_FRF74-0913
  6
CONTINUOUS
 62
    7
 10
983.32138634458533
 20
812.8654076238513
 11
983.32138634458533
 21
814.1872700601881
  0
LINE
  8
_0-0_FRF74-0913
  6
CONTINUOUS
 62
    7
 10
995.68483429958815
 20
808.9622431303867
 11
994.70876035446736
 21
808.74428609687527
  0
LINE
  8
_0-0_FRF74-0913
  6
CONTINUOUS
 62
    7
 10
993.44519658535387
 20
814.60990132416532
 11
994.42116044073828
 21
814.82783377467013
  0
ARC
  8
_0-0_FRF74-0913
  6
CONTINUOUS
 62
    7
 10
167.75229978592176
 20
636.5765152724947
 40
844.68853963262279
 50
11.760663982490025
 51
11.808307906699866
  0
LINE
  8
_0-0_FRF74-0913
  6
CONTINUOUS
 62
    7
 10
994.56530950130241
 20
809.43187663593869
 11
994.55202679087301
 21
809.49541136058201
  0
ARC
  8
_0-0_FRF74-0913
  6
CONTINUOUS
 62
    7
 10
705.39529730395134
 20
749.04366425590968
 40
295.40823945106882
 50
11.808307906707604
 51
11.969719093658028
  0
LINE
  8
_0-0_FRF74-0913
  6
CONTINUOUS
 62
    7
 10
994.38057754718329
 20
810.30977020626949
 11
994.35446713624503
 21
810.43293005632427
  0
ARC
  8
_0-0_FRF74-0913
  6
CONTINUOUS
 62
    7
 10
628.80563205038436
 20
732.93502552101847
 40
373.6734885431307
 50
11.969719093656797
 51
12.135930879141121
  0
LINE
  8
_0-0_FRF74-0913
  6
CONTINUOUS
 62
    7
 10
994.12811232317813
 20
811.49303878082094
 11
993.98165502875031
 21
812.17411687628532
  0
ARC
  8
_0-0_FRF74-0913
  6
CONTINUOUS
 62
    7
 10
782.94119874847297
 20
766.79251607678214
 40
215.86468881712238
 50
12.135930879143613
 51
12.542886864768088
  0
LINE
  8
_0-0_FRF74-0913
  6
CONTINUOUS
 62
    7
 10
993.65400151941753
 20
813.67192121940434
 11
993.52958524183555
 21
814.23114552013669
  0
ARC
  8
_0-0_FRF74-0913
  6
CONTINUOUS
 62
    7
 10
380.51642958596443
 20
677.8479181895475
 40
628.00120517740777
 50
12.542886864779264
 51
12.578234901742938
  0
LINE
  8
_0-0_FRF74-0913
  6
CONTINUOUS
 62
    7
 10
993.44532836863777
 20
814.6093116503331
 11
993.44519658535387
 21
814.60990132416532
  0
LINE
  8
_0-0_FRF74-0913
  6
CONTINUOUS
 62
    7
 10
994.4211604407385
 20
814.82783377467013
 11
994.52400077289781
 21
814.36731114265388
  0
ARC
  8
_0-0_FRF74-0913
  6
CONTINUOUS
 62
    7
 10
755.91627995583144
 20
761.08329086080266
 40
244.48482826325193
 50
12.238092227152469
 51
12.588307395726037
  0
LINE
  8
_0-0_FRF74-0913
  6
CONTINUOUS
 62
    7
 10
994.84523504431172
 20
812.90785715169204
 11
994.90532655863331
 21
812.63081474199873
  0
ARC
  8
_0-0_FRF74-0913
  6
CONTINUOUS
 62
    7
 10
348.54694001126802
 20
672.43331109962423
 40
661.38831550585087
 50
12.157749686945854
 51
12.238092227148831
  0
LINE
  8
_0-0_FRF74-0913
  6
CONTINUOUS
 62
    7
 10
995.10128184051757
 20
811.72432642154922
 11
995.10432473257515
 21
811.71020207141078
  0
ARC
  8
_0-0_FRF74-0913
  6
CONTINUOUS
 62
    7
 10
716.61201146273982
 20
751.7129604397818
 40
284.88179575709677
 50
11.977036427396589
 51
12.15774968694625
  0
LINE
  8
_0-0_FRF74-0913
  6
CONTINUOUS
 62
    7
 10
995.2921729852676
 20
810.83152882202501
 11
995.32822724058394
 21
810.66157197141013
  0
ARC
  8
_0-0_FRF74-0913
  6
CONTINUOUS
 62
    7
 10
669.92071952843162
 20
741.63037186126132
 40
332.64899318062265
 50
11.882122776568179
 51
11.977036427405054
  0
ARC
  8
_0-0_FRF74-0913
  6
CONTINUOUS
 62
    7
 10
603.65948839001226
 20
727.68853165491328
 40
400.36107231218057
 50
11.803261631450729
 51
11.882122776566856
  0
LINE
  8
_0-0_FRF74-0913
  6
CONTINUOUS
 62
    7
 10
995.55522449386604
 20
809.58309952469119
 11
995.56110065005191
 21
809.55497994834093
  0
ARC
  8
_0-0_FRF74-0913
  6
CONTINUOUS
 62
    7
 10
-403.26344076831219
 20
517.24220185080799
 40
1429.0405375332762
 50
11.779370271592843
 51
11.803261631450512
  0
LINE
  8
_0-0_FRF74-0913
  6
CONTINUOUS
 62
    7
 10
995.6828684640659
 20
808.97166864924736
 11
995.68483429958815
 21
808.9622431303867
  0
LINE
  8
_0-0_FRF74-0913
  6
CONTINUOUS
 62
    7
 10
979.82138634458533
 20
803.96575595901538
 11
979.82138634458533
 21
822.9657559590155
  0
LINE
  8
_0-0_FRF74-0913
  6
CONTINUOUS
 62
    7
 10
980.82138634458533
 20
813.46575595901538
 11
980.82138634458533
 21
803.96575595901538
  0
LINE
  8
_0-0_FRF74-0913
  6
CONTINUOUS
 62
    7
 10
980.82138634458533
 20
822.9657559590155
 11
980.82138634458533
 21
813.46575595901538
  0
LINE
  8
_0-0_FRF74-0913
  6
CONTINUOUS
 62
    7
 10
983.27138634458515
 20
813.46575595901538
 11
983.27259923938027
 21
813.49240182773372
  0
ARC
  8
_0-0_FRF74-0913
  6
CONTINUOUS
 62
    7
 10
1006.6285188872009
 20
812.42926240932513
 40
23.380103678521806
 50
177.00212458155482
 51
177.39374923744344
  0
LINE
  8
_0-0_FRF74-0913
  6
CONTINUOUS
 62
    7
 10
983.28041147126964
 20
813.65201672339197
 11
983.28141004251029
 21
813.67108412582695
  0
ARC
  8
_0-0_FRF74-0913
  6
CONTINUOUS
 62
    7
 10
994.93831267203404
 20
813.06060518100594
 40
11.672877256969262
 50
176.40516464878834
 51
177.00212458156767
  0
LINE
  8
_0-0_FRF74-0913
  6
CONTINUOUS
 62
    7
 10
983.28840315139792
 20
813.79250108703491
 11
983.28840779783604
 21
813.79257504643749
  0
ARC
  8
_0-0_FRF74-0913
  6
CONTINUOUS
 62
    7
 10
991.54403273788148
 20
813.27392225479105
 40
8.2719008618927603
 50
175.56379985531353
 51
176.40516464880258
  0
LINE
  8
_0-0_FRF74-0913
  6
CONTINUOUS
 62
    7
 10
983.29691381892303
 20
813.91374520337808
 11
983.29691980415146
 21
813.913822351112
  0
ARC
  8
_0-0_FRF74-0913
  6
CONTINUOUS
 62
    7
 10
989.54862524013947
 20
813.4288063539974
 40
6.2704913185348206
 50
174.45531775701707
 51
175.56379985525879
  0
ARC
  8
_0-0_FRF74-0913
  6
CONTINUOUS
 62
    7
 10
988.35062247124358
 20
813.54510389863708
 40
5.0668569250532967
 50
173.08353792475802
 51
174.45531775706289
  0
LINE
  8
_0-0_FRF74-0913
  6
CONTINUOUS
 62
    7
 10
983.32063816076879
 20
814.15526529969327
 11
983.32427892190492
 21
814.18527862298924
  0
ARC
  8
_0-0_FRF74-0913
  6
CONTINUOUS
 62
    7
 10
986.40961484911213
 20
813.81106431412888
 40
3.1079469320874149
 50
169.73516418109429
 51
173.08448678208882
  0
ARC
  8
_0-0_FRF74-0913
  6
CONTINUOUS
 62
    7
 10
989.64872846937817
 20
813.22455832650621
 40
6.3997316022810784
 50
168.11025529825224
 51
169.73593372381686
  0
ARC
  8
_0-0_FRF74-0913
  6
CONTINUOUS
 62
    7
 10
986.75602326877902
 20
813.83360618942368
 40
3.4436053064510612
 50
165.09095784922027
 51
168.11025529824261
  0
LINE
  8
_0-0_FRF74-0913
  6
CONTINUOUS
 62
    7
 10
983.42834525518651
 20
814.71959520993721
 11
983.43815008314823
 21
814.75642107310227
  0
ARC
  8
_0-0_FRF74-0913
  6
CONTINUOUS
 62
    7
 10
988.00062590029631
 20
813.54166908572756
 40
4.7214201224729324
 50
162.35395494886103
 51
165.09095784921018
  0
LINE
  8
_0-0_FRF74-0913
  6
CONTINUOUS
 62
    7
 10
983.50136103949285
 20
814.97290061320041
 11
983.5015644169398
 21
814.97353995699791
  0
ARC
  8
_0-0_FRF74-0913
  6
CONTINUOUS
 62
    7
 10
988.90444449872643
 20
813.25486533982189
 40
5.6696521602204761
 50
160.08812931691079
 51
162.35395494884645
  0
ARC
  8
_0-0_FRF74-0913
  6
CONTINUOUS
 62
    7
 10
988.17672336489443
 20
813.51846725369012
 40
4.8956599008142012
 50
157.46419866889221
 51
160.08812931690792
  0
LINE
  8
_0-0_FRF74-0913
  6
CONTINUOUS
 62
    7
 10
983.65489491830226
 20
815.39478102383384
 11
983.65773483734165
 21
815.40162509591948
  0
ARC
  8
_0-0_FRF74-0913
  6
CONTINUOUS
 62
    7
 10
988.38062020046607
 20
813.44188360056955
 40
5.1133387215996962
 50
154.80488011721229
 51
157.46419866889227
  0
LINE
  8
_0-0_FRF74-0913
  6
CONTINUOUS
 62
    7
 10
983.75374757638428
 20
815.61864325710803
 11
983.75390176738711
 21
815.61897100212479
  0
ARC
  8
_0-0_FRF74-0913
  6
CONTINUOUS
 62
    7
 10
988.30900161297404
 20
813.47597758497886
 40
5.0340198042117992
 50
152.11191564631091
 51
154.80488011720814
  0
LINE
  8
_0-0_FRF74-0913
  6
CONTINUOUS
 62
    7
 10
983.85961814402344
 20
815.83062026178254
 11
983.85978062216259
 21
815.8309272839706
  0
ARC
  8
_0-0_FRF74-0913
  6
CONTINUOUS
 62
    7
 10
988.30069940729982
 20
813.48076417290872
 40
5.0244428850152367
 50
149.42173799304553
 51
152.11191564632486
  0
ARC
  8
_0-0_FRF74-0913
  6
CONTINUOUS
 62
    7
 10
988.30552347891842
 20
813.47791369473657
 40
5.0300461780461889
 50
146.73455600313002
 51
149.42173799304368
  0
LINE
  8
_0-0_FRF74-0913
  6
CONTINUOUS
 62
    7
 10
984.09970904867441
 20
816.23698772992111
 11
984.11713416586224
 21
816.26354983314206
  0
ARC
  8
_0-0_FRF74-0913
  6
CONTINUOUS
 62
    7
 10
987.56818317254056
 20
813.9996126418082
 40
4.1273660914437329
 50
142.57890263986593
 51
146.73455600312289
  0
LINE
  8
_0-0_FRF74-0913
  6
CONTINUOUS
 62
    7
 10
984.29026650032824
 20
816.50768224667036
 11
984.30971884671942
 21
816.53310545279885
  0
ARC
  8
_0-0_FRF74-0913
  6
CONTINUOUS
 62
    7
 10
988.30722718634047
 20
813.47444650433317
 40
5.033434959187332
 50
139.74230301345847
 51
142.57890263986548
  0
LINE
  8
_0-0_FRF74-0913
  6
CONTINUOUS
 62
    7
 10
984.46598312196238
 20
816.72718558490044
 11
984.46609281745964
 21
816.72731512716234
  0
ARC
  8
_0-0_FRF74-0913
  6
CONTINUOUS
 62
    7
 10
988.33817913349321
 20
813.44845903980797
 40
5.0738495918182211
 50
136.93211997849482
 51
139.74230301343965
  0
ARC
  8
_0-0_FRF74-0913
  6
CONTINUOUS
 62
    7
 10
988.36333115745981
 20
813.42506302376376
 40
5.1082005880032693
 50
134.14270099725783
 51
136.93305736771427
  0
ARC
  8
_0-0_FRF74-0913
  6
CONTINUOUS
 62
    7
 10
988.33629883730987
 20
813.45291534301032
 40
5.069386956128989
 50
131.33191324143579
 51
134.1426907363211
  0
ARC
  8
_0-0_FRF74-0913
  6
CONTINUOUS
 62
    7
 10
988.30453769729297
 20
813.48902770376367
 40
5.0212946218713652
 50
128.49421562285389
 51
131.33191324143522
  0
LINE
  8
_0-0_FRF74-0913
  6
CONTINUOUS
 62
    7
 10
985.1791050453246
 20
817.41904938533798
 11
985.20013269305082
 21
817.43577206580198
  0
ARC
  8
_0-0_FRF74-0913
  6
CONTINUOUS
 62
    7
 10
987.83480059126714
 20
814.12285410635945
 40
4.2328359689325046
 50
124.40165525038975
 51
128.49421562286386
  0
LINE
  8
_0-0_FRF74-0913
  6
CONTINUOUS
 62
    7
 10
985.44328704006239
 20
817.61535511198463
 11
985.46522715832066
 21
817.63037875551254
  0
ARC
  8
_0-0_FRF74-0913
  6
CONTINUOUS
 62
    7
 10
988.31214301816385
 20
813.47282066915864
 40
5.038870821367917
 50
121.29810112378468
 51
124.40165525038016
  0
ARC
  8
_0-0_FRF74-0913
  6
CONTINUOUS
 62
    7
 10
988.33245605434377
 20
813.43940909943353
 40
5.0779726426854657
 50
118.21843368880299
 51
121.29810112377557
  0
LINE
  8
_0-0_FRF74-0913
  6
CONTINUOUS
 62
    7
 10
985.93141651140672
 20
817.91387166750962
 11
985.93182783896896
 21
817.9140923898259
  0
ARC
  8
_0-0_FRF74-0913
  6
CONTINUOUS
 62
    7
 10
988.35937675699029
 20
813.3902282169887
 40
5.1340374758728098
 50
115.16196925045243
 51
118.2184336888064
  0
LINE
  8
_0-0_FRF74-0913
  6
CONTINUOUS
 62
    7
 10
986.17649384863239
 20
818.03709415136484
 11
986.17695324804185
 21
818.03730995598096
  0
ARC
  8
_0-0_FRF74-0913
  6
CONTINUOUS
 62
    7
 10
988.34127734081926
 20
813.42995155889503
 40
5.0903880183905956
 50
112.06789097102889
 51
115.16196925044856
  0
LINE
  8
_0-0_FRF74-0913
  6
CONTINUOUS
 62
    7
 10
986.42879326421848
 20
818.14741431280447
 11
986.44615465845118
 21
818.15445271284068
  0
ARC
  8
_0-0_FRF74-0913
  6
CONTINUOUS
 62
    7
 10
988.12725478353241
 20
814.00773728514923
 40
4.4745219262846678
 50
108.11104609036231
 51
112.06789097105076
  0
LINE
  8
_0-0_FRF74-0913
  6
CONTINUOUS
 62
    7
 10
986.7363063544401
 20
818.26057268478644
 11
986.75630110020404
 21
818.26711224195174
  0
ARC
  8
_0-0_FRF74-0913
  6
CONTINUOUS
 62
    7
 10
988.25572384616919
 20
813.68261579356511
 40
4.8234713906467137
 50
104.93958356563139
 51
108.11104609036008
  0
LINE
  8
_0-0_FRF74-0913
  6
CONTINUOUS
 62
    7
 10
987.01223115749235
 20
818.34304519326577
 11
987.0144869572955
 21
818.34364708427665
  0
ARC
  8
_0-0_FRF74-0913
  6
CONTINUOUS
 62
    7
 10
988.30582316002506
 20
813.50390716549668
 40
5.0090549677470468
 50
101.93893960220396
 51
104.9395835656279
  0
ARC
  8
_0-0_FRF74-0913
  6
CONTINUOUS
 62
    7
 10
988.32128513535622
 20
813.43078117749383
 40
5.0837977453415526
 50
98.982391847214018
 51
101.93893960220261
  0
LINE
  8
_0-0_FRF74-0913
  6
CONTINUOUS
 62
    7
 10
987.52754711100238
 20
818.4522331053962
 11
987.5279830043944
 21
818.45230200681453
  0
ARC
  8
_0-0_FRF74-0913
  6
CONTINUOUS
 62
    7
 10
988.33326095658617
 20
813.35784463995435
 40
5.157709612128496
 50
96.058395751786563
 51
98.982391847221962
  0
LINE
  8
_0-0_FRF74-0913
  6
CONTINUOUS
 62
    7
 10
987.78890584664191
 20
818.48674763741099
 11
987.78921266271732
 21
818.48678020127477
  0
ARC
  8
_0-0_FRF74-0913
  6
CONTINUOUS
 62
    7
 10
988.33298425215537
 20
813.36337512239936
 40
5.1521808143471004
 50
93.124405434523666
 51
96.05839575178787
  0
LINE
  8
_0-0_FRF74-0913
  6
CONTINUOUS
 62
    7
 10
988.05216906804935
 20
818.50789744970075
 11
988.0523422000731
 21
818.50790690016038
  0
ARC
  8
_0-0_FRF74-0913
  6
CONTINUOUS
 62
    7
 10
988.3295711226333
 20
813.42908473307568
 40
5.0863828483879638
 50
90.14857394591516
 51
93.124405434510194
  0
LINE
  8
_0-0_FRF74-0913
  6
CONTINUOUS
 62
    7
 10
988.31638161496403
 20
818.51545048056801
 11
988.34144463550797
 21
818.51551547174597
  0
ARC
  8
_0-0_FRF74-0913
  6
CONTINUOUS
 62
    7
 10
988.35230063410904
 20
814.32903779367712
 40
4.1864917534464139
 50
86.360472510390949
 51
90.148573945907003
  0
LINE
  8
_0-0_FRF74-0913
  6
CONTINUOUS
 62
    7
 10
988.6180550615195
 20
818.50708611627783
 11
988.64308187509084
 21
818.50549422791346
  0
ARC
  8
_0-0_FRF74-0913
  6
CONTINUOUS
 62
    7
 10
988.32984627466044
 20
813.58097241388077
 40
4.9344737954780902
 50
83.728237933751643
 51
86.36047251039335
  0
LINE
  8
_0-0_FRF74-0913
  6
CONTINUOUS
 62
    7
 10
988.86891004774293
 20
818.48591297282849
 11
988.86914484614158
 21
818.48588716796723
  0
ARC
  8
_0-0_FRF74-0913
  6
CONTINUOUS
 62
    7
 10
988.31925534984327
 20
813.48244336779203
 40
5.0335701365582297
 50
81.153181458357295
 51
83.728237933741056
  0
LINE
  8
_0-0_FRF74-0913
  6
CONTINUOUS
 62
    7
 10
989.09338473099365
 20
818.45612932700692
 11
989.09365863416042
 21
818.45608669534681
  0
ARC
  8
_0-0_FRF74-0913
  6
CONTINUOUS
 62
    7
 10
988.3068793345808
 20
813.40112656774136
 40
5.1158228622507984
 50
78.625719522779946
 51
81.153181458363349
  0
LINE
  8
_0-0_FRF74-0913
  6
CONTINUOUS
 62
    7
 10
989.31580803617703
 20
818.41647365772656
 11
989.31613496081729
 21
818.41640789086205
  0
ARC
  8
_0-0_FRF74-0913
  6
CONTINUOUS
 62
    7
 10
988.30386918067995
 20
813.38447230743679
 40
5.132743683974299
 50
76.114028459216911
 51
78.6257195227751
  0
LINE
  8
_0-0_FRF74-0913
  6
CONTINUOUS
 62
    7
 10
989.53567819717182
 20
818.36721294610811
 11
989.53606032076004
 21
818.36711847936476
  0
ARC
  8
_0-0_FRF74-0913
  6
CONTINUOUS
 62
    7
 10
988.31697136804542
 20
813.43583125421549
 40
5.0797412898248417
 50
73.585014068275754
 51
76.114028459225153
  0
ARC
  8
_0-0_FRF74-0913
  6
CONTINUOUS
 62
    7
 10
988.33131180626208
 20
813.48450887357637
 40
5.028995267370914
 50
71.0304885936321
 51
73.585014068262254
  0
LINE
  8
_0-0_FRF74-0913
  6
CONTINUOUS
 62
    7
 10
989.96606201729423
 20
818.24038788242103
 11
989.96636645493595
 21
818.24028323730749
  0
ARC
  8
_0-0_FRF74-0913
  6
CONTINUOUS
 62
    7
 10
988.36062600764922
 20
813.56880056346301
 40
4.9397522970369607
 50
68.422364035634004
 51
71.030488593624682
  0
LINE
  8
_0-0_FRF74-0913
  6
CONTINUOUS
 62
    7
 10
990.17727725880241
 20
818.16237553158589
 11
990.17803950503674
 21
818.16207408106322
  0
ARC
  8
_0-0_FRF74-0913
  6
CONTINUOUS
 62
    7
 10
988.33833554071475
 20
813.51045772783073
 40
5.0022040516158599
 50
65.825921198359794
 51
68.421312683069345
  0
LINE
  8
_0-0_FRF74-0913
  6
CONTINUOUS
 62
    7
 10
990.38678981968292
 20
818.07399587722523
 11
990.3871366137771
 21
818.07384021032317
  0
ARC
  8
_0-0_FRF74-0913
  6
CONTINUOUS
 62
    7
 10
988.3163833835174
 20
813.46062454751791
 40
5.0566567702567538
 50
63.26603921740157
 51
65.825921198369073
  0
LINE
  8
_0-0_FRF74-0913
  6
CONTINUOUS
 62
    7
 10
990.59111257064774
 20
817.97674952557156
 11
990.59140995384791
 21
817.97659973648285
  0
ARC
  8
_0-0_FRF74-0913
  6
CONTINUOUS
 62
    7
 10
988.29473851448961
 20
813.41691179105374
 40
5.1054337582673108
 50
60.738076188659846
 51
63.26603921741269
  0
LINE
  8
_0-0_FRF74-0913
  6
CONTINUOUS
 62
    7
 10
990.79028886064054
 20
817.87086310756831
 11
990.79054447608337
 21
817.87071988615401
  0
ARC
  8
_0-0_FRF74-0913
  6
CONTINUOUS
 62
    7
 10
988.30831165981749
 20
813.44053712628283
 40
5.078188558926044
 50
58.203163248188297
 51
60.738076188673048
  0
ARC
  8
_0-0_FRF74-0913
  6
CONTINUOUS
 62
    7
 10
988.32415277749124
 20
813.46608938340796
 40
5.0481243134948066
 50
55.653158531488188
 51
58.20316324818117
  0
LINE
  8
_0-0_FRF74-0913
  6
CONTINUOUS
 62
    7
 10
991.17231071005222
 20
817.63400918538207
 11
991.17274270208281
 21
817.63371398259801
  0
ARC
  8
_0-0_FRF74-0913
  6
CONTINUOUS
 62
    7
 10
988.36943249042088
 20
813.53142316203537
 40
4.9686354383553732
 50
53.050311422808548
 51
55.653158531479328
  0
LINE
  8
_0-0_FRF74-0913
  6
CONTINUOUS
 62
    7
 10
991.35614637569824
 20
817.50217602349278
 11
991.36254242694008
 21
817.49736505294857
  0
ARC
  8
_0-0_FRF74-0913
  6
CONTINUOUS
 62
    7
 10
988.52425575995255
 20
813.7239420410815
 40
4.7217149882735363
 50
50.117283156094899
 51
53.05031142278785
  0
LINE
  8
_0-0_FRF74-0913
  6
CONTINUOUS
 62
    7
 10
991.55190529168578
 20
817.3471906860799
 11
991.55750547836089
 21
817.34251107277544
  0
ARC
  8
_0-0_FRF74-0913
  6
CONTINUOUS
 62
    7
 10
988.318741850582
 20
813.46656387275573
 40
5.0509955982918662
 50
47.210704985507959
 51
50.11767666813779
  0
ARC
  8
_0-0_FRF74-0913
  6
CONTINUOUS
 62
    7
 10
988.28452523675298
 20
813.42967235410833
 40
5.1013121798621972
 50
44.331671856687258
 51
47.210148675459557
  0
ARC
  8
_0-0_FRF74-0913
  6
CONTINUOUS
 62
    7
 10
988.28201339320526
 20
813.42721843644119
 40
5.104823742181928
 50
41.454618463797793
 51
44.331671856690754
  0
LINE
  8
_0-0_FRF74-0913
  6
CONTINUOUS
 62
    7
 10
992.10797831891978
 20
816.80674766785
 11
992.10806622764744
 21
816.80664814638237
  0
ARC
  8
_0-0_FRF74-0913
  6
CONTINUOUS
 62
    7
 10
988.32650458688659
 20
813.46634096807315
 40
5.0455783105943075
 50
38.540783190216388
 51
41.454618463793132
  0
LINE
  8
_0-0_FRF74-0913
  6
CONTINUOUS
 62
    7
 10
992.27297860006502
 20
816.61009721683763
 11
992.27312028816777
 21
816.60991935049833
  0
ARC
  8
_0-0_FRF74-0913
  6
CONTINUOUS
 62
    7
 10
988.37167213764951
 20
813.50203064745256
 40
4.9880126164337328
 50
35.588113902112426
 51
38.540783190213567
  0
LINE
  8
_0-0_FRF74-0913
  6
CONTINUOUS
 62
    7
 10
992.42803126882632
 20
816.40482593141951
 11
992.42954131063425
 21
816.40271580263766
  0
ARC
  8
_0-0_FRF74-0913
  6
CONTINUOUS
 62
    7
 10
988.46525332238662
 20
813.56580809687546
 40
4.8747948248904303
 50
32.505947817878415
 51
35.58811390211843
  0
LINE
  8
_0-0_FRF74-0913
  6
CONTINUOUS
 62
    7
 10
992.57634165646164
 20
816.18546022916519
 11
992.57862840175108
 21
816.18187158021203
  0
ARC
  8
_0-0_FRF74-0913
  6
CONTINUOUS
 62
    7
 10
988.38968873328326
 20
813.51261131558294
 40
4.9671084049364271
 50
29.38293732385663
 51
32.505947817861546
  0
LINE
  8
_0-0_FRF74-0913
  6
CONTINUOUS
 62
    7
 10
992.71782813202822
 20
815.94969466488021
 11
992.71884346388288
 21
815.94789148576285
  0
ARC
  8
_0-0_FRF74-0913
  6
CONTINUOUS
 62
    7
 10
988.28578162012479
 20
813.45172853663257
 40
5.0875206907878363
 50
26.287230031408892
 51
29.382937323835485
  0
LINE
  8
_0-0_FRF74-0913
  6
CONTINUOUS
 62
    7
 10
992.84717716726493
 20
815.70484580870789
 11
992.8474171131179
 21
815.70436004262785
  0
ARC
  8
_0-0_FRF74-0913
  6
CONTINUOUS
 62
    7
 10
988.23856336615881
 20
813.42780062689189
 40
5.1404528627578161
 50
23.211315419890674
 51
26.287230031398259
  0
LINE
  8
_0-0_FRF74-0913
  6
CONTINUOUS
 62
    7
 10
992.96293523214456
 20
815.45377350581123
 11
992.96314069359278
 21
815.4532943896811
  0
ARC
  8
_0-0_FRF74-0913
  6
CONTINUOUS
 62
    7
 10
988.27482421395939
 20
813.44278329847884
 40
5.1012220360468721
 50
20.100055122056304
 51
23.21131541989098
  0
LINE
  8
_0-0_FRF74-0913
  6
CONTINUOUS
 62
    7
 10
993.06535082009282
 20
815.19587231418154
 11
993.06552611440316
 21
815.19539330139332
  0
ARC
  8
_0-0_FRF74-0913
  6
CONTINUOUS
 62
    7
 10
988.34972263224313
 20
813.46955695921042
 40
5.0216843351958929
 50
16.929884375373348
 51
20.101042896603772
  0
LINE
  8
_0-0_FRF74-0913
  6
CONTINUOUS
 62
    7
 10
993.15377635426194
 20
814.93187751172593
 11
993.15547423848966
 21
814.9262995780573
  0
ARC
  8
_0-0_FRF74-0913
  6
CONTINUOUS
 62
    7
 10
988.62793555344524
 20
813.54814828030919
 40
4.7326427653118541
 50
13.707267221679707
 51
16.929884375378457
  0
LINE
  8
_0-0_FRF74-0913
  6
CONTINUOUS
 62
    7
 10
993.22578826259178
 20
814.6696018054505
 11
993.22704800825136
 21
814.66443696815338
  0
ARC
  8
_0-0_FRF74-0913
  6
CONTINUOUS
 62
    7
 10
988.39874061473074
 20
813.48677367847142
 40
4.9698534294475119
 50
10.760884004439426
 51
13.707267221672165
  0
ARC
  8
_0-0_FRF74-0913
  6
CONTINUOUS
 62
    7
 10
988.31341684374991
 20
813.47055766131507
 40
5.0567044807180039
 50
7.8650844428644939
 51
10.760884004435129
  0
LINE
  8
_0-0_FRF74-0913
  6
CONTINUOUS
 62
    7
 10
993.32255309173274
 20
814.16252171707129
 11
993.32259345763077
 21
814.16222950784163
  0
ARC
  8
_0-0_FRF74-0913
  6
CONTINUOUS
 62
    7
 10
988.23330199059592
 20
813.45919277853068
 40
5.1376208773316501
 50
5.0082987620483328
 51
7.8650844428635462
  0
LINE
  8
_0-0_FRF74-0913
  6
CONTINUOUS
 62
    7
 10
993.3513077599257
 20
813.9077072424011
 11
993.35132533848355
 21
813.90750665319615
  0
ARC
  8
_0-0_FRF74-0913
  6
CONTINUOUS
 62
    7
 10
988.21103907735255
 20
813.45713980356038
 40
5.1599780179397658
 50
2.1572029493492937
 51
5.0071908817078539
  0
ARC
  8
_0-0_FRF74-0913
  6
CONTINUOUS
 62
    7
 10
988.27081389633736
 20
813.45939140709152
 40
5.1001608071796412
 50
359.27268255092963
 51
2.1572029493518969
  0
LINE
  8
_0-0_FRF74-0913
  6
CONTINUOUS
 62
    7
 10
993.37056378965622
 20
813.39465127513927
 11
993.37029641439199
 21
813.37358942471519
  0
ARC
  8
_0-0_FRF74-0913
  6
CONTINUOUS
 62
    7
 10
989.04561692723564
 20
813.42849021916686
 40
4.3250279494891242
 50
355.57935736760857
 51
359.27268255093281
  0
LINE
  8
_0-0_FRF74-0913
  6
CONTINUOUS
 62
    7
 10
993.357778122024
 20
813.09512466302363
 11
993.35608159411913
 21
813.07317967901974
  0
ARC
  8
_0-0_FRF74-0913
  6
CONTINUOUS
 62
    7
 10
988.48334860564228
 20
813.44988204919196
 40
4.8872723939519274
 50
352.82639731942174
 51
355.57935736760913
  0
LINE
  8
_0-0_FRF74-0913
  6
CONTINUOUS
 62
    7
 10
993.33236509082826
 20
812.83957837143919
 11
993.33222657777469
 21
812.83847785032947
  0
ARC
  8
_0-0_FRF74-0913
  6
CONTINUOUS
 62
    7
 10
988.35209436476839
 20
813.4652839283433
 40
5.0194225483074231
 50
350.17119873415061
 51
352.82639731939497
  0
LINE
  8
_0-0_FRF74-0913
  6
CONTINUOUS
 62
    7
 10
993.29784290107159
 20
812.6084443085125
 11
993.29780133723875
 21
812.60820439866188
  0
ARC
  8
_0-0_FRF74-0913
  6
CONTINUOUS
 62
    7
 10
988.27550673411474
 20
813.47830544945805
 40
5.0971088784884726
 50
347.5619256278577
 51
350.17119873416846
  0
LINE
  8
_0-0_FRF74-0913
  6
CONTINUOUS
 62
    7
 10
993.25298323618222
 20
812.38046821628893
 11
993.25292023088036
 21
812.38018255699524
  0
ARC
  8
_0-0_FRF74-0913
  6
CONTINUOUS
 62
    7
 10
988.23667649303934
 20
813.48657033075165
 40
5.1368078748720398
 50
344.97933328786803
 51
347.56192562787089
  0
LINE
  8
_0-0_FRF74-0913
  6
CONTINUOUS
 62
    7
 10
993.19797200641938
 20
812.15527698506742
 11
993.19788251189493
 21
812.15494346820333
  0
ARC
  8
_0-0_FRF74-0913
  6
CONTINUOUS
 62
    7
 10
988.27931665163669
 20
813.47477091698363
 40
5.0925666040074695
 50
342.38207876873298
 51
344.97933328787332
  0
ARC
  8
_0-0_FRF74-0913
  6
CONTINUOUS
 62
    7
 10
988.32727217887975
 20
813.45954201689392
 40
5.0422510796526803
 50
339.75891582135745
 51
342.38207876870399
  0
LINE
  8
_0-0_FRF74-0913
  6
CONTINUOUS
 62
    7
 10
993.05813997083328
 20
811.71506906344507
 11
993.04793515041331
 21
811.68739442615583
  0
ARC
  8
_0-0_FRF74-0913
  6
CONTINUOUS
 62
    7
 10
989.17769413270594
 20
813.1145175409041
 40
4.1249782932511474
 50
335.73413376731042
 51
339.75891582136614
  0
LINE
  8
_0-0_FRF74-0913
  6
CONTINUOUS
 62
    7
 10
992.93822347063929
 20
811.41926976599461
 11
992.92596095092745
 21
811.39206809918437
  0
ARC
  8
_0-0_FRF74-0913
  6
CONTINUOUS
 62
    7
 10
988.35101940208551
 20
813.45445314768892
 40
5.0183186689981572
 50
333.064543879322
 51
335.73413376730855
  0
LINE
  8
_0-0_FRF74-0913
  6
CONTINUOUS
 62
    7
 10
992.82493771631425
 20
811.18122258718199
 11
992.82477188311509
 21
811.18089621281399
  0
ARC
  8
_0-0_FRF74-0913
  6
CONTINUOUS
 62
    7
 10
988.29834444617234
 20
813.4808070419524
 40
5.077217265776178
 50
330.43416990139735
 51
333.06454387932109
  0
LINE
  8
_0-0_FRF74-0913
  6
CONTINUOUS
 62
    7
 10
992.71445395448472
 20
810.9755900903715
 11
992.71428538244118
 21
810.97529293742275
  0
ARC
  8
_0-0_FRF74-0913
  6
CONTINUOUS
 62
    7
 10
988.26983549577199
 20
813.49658711628547
 40
5.1098003025051595
 50
327.82822041346947
 51
330.43416990141293
  0
LINE
  8
_0-0_FRF74-0913
  6
CONTINUOUS
 62
    7
 10
992.59505419804236
 20
810.77582576897635
 11
992.59488457536304
 21
810.77555611828245
  0
ARC
  8
_0-0_FRF74-0913
  6
CONTINUOUS
 62
    7
 10
988.30152880750984
 20
813.47627421544905
 40
5.0721575280861302
 50
325.2101310671286
 51
327.82822041346009
  0
ARC
  8
_0-0_FRF74-0913
  6
CONTINUOUS
 62
    7
 10
988.32739589210496
 20
813.45830290570473
 40
5.0406603212356913
 50
322.57568800251454
 51
325.21013106712746
  0
LINE
  8
_0-0_FRF74-0913
  6
CONTINUOUS
 62
    7
 10
992.33047068687813
 20
810.39502873228628
 11
992.32934064443521
 21
810.3935519972099
  0
ARC
  8
_0-0_FRF74-0913
  6
CONTINUOUS
 62
    7
 10
988.43371097893237
 20
813.3746059008522
 40
4.9053657220604494
 50
319.82519704394059
 51
322.57568800253028
  0
LINE
  8
_0-0_FRF74-0913
  6
CONTINUOUS
 62
    7
 10
992.18180188087877
 20
810.21004788148946
 11
992.17794047766824
 21
810.20547444970111
  0
ARC
  8
_0-0_FRF74-0913
  6
CONTINUOUS
 62
    7
 10
988.46581387399078
 20
813.33966738148433
 40
4.8582969501020434
 50
316.90697636210768
 51
319.82519704393212
  0
LINE
  8
_0-0_FRF74-0913
  6
CONTINUOUS
 62
    7
 10
992.01356319893148
 20
810.02055244181236
 11
992.01089301728234
 21
810.01769832699097
  0
ARC
  8
_0-0_FRF74-0913
  6
CONTINUOUS
 62
    7
 10
988.31747896532852
 20
813.47297555454475
 40
5.0576919714847879
 50
314.01716213187325
 51
316.90792844048849
  0
ARC
  8
_0-0_FRF74-0913
  6
CONTINUOUS
 62
    7
 10
988.2804950001298
 20
813.51125483668432
 40
5.1109190051655373
 50
311.15736563515816
 51
314.01712929632231
  0
ARC
  8
_0-0_FRF74-0913
  6
CONTINUOUS
 62
    7
 10
988.29080276641287
 20
813.49960493933668
 40
5.0953638979286788
 50
308.28673849318852
 51
311.15631282678652
  0
ARC
  8
_0-0_FRF74-0913
  6
CONTINUOUS
 62
    7
 10
988.32921936967136
 20
813.45093792763862
 40
5.033361370290371
 50
305.38076552090553
 51
308.28673849319824
  0
LINE
  8
_0-0_FRF74-0913
  6
CONTINUOUS
 62
    7
 10
991.24357333937439
 20
809.34712657437103
 11
991.24341254488036
 21
809.34701238489413
  0
ARC
  8
_0-0_FRF74-0913
  6
CONTINUOUS
 62
    7
 10
988.36124881465503
 20
813.405495452168
 40
4.977765821648795
 50
302.43781348130199
 51
305.38076552088921
  0
LINE
  8
_0-0_FRF74-0913
  6
CONTINUOUS
 62
    7
 10
991.0312423048365
 20
809.20438996223277
 11
991.02793829027291
 21
809.20229011080141
  0
ARC
  8
_0-0_FRF74-0913
  6
CONTINUOUS
 62
    7
 10
988.43077243315838
 20
813.28880484603178
 40
4.8419906206658272
 50
299.31979276988017
 51
302.43781348130176
  0
LINE
  8
_0-0_FRF74-0913
  6
CONTINUOUS
 62
    7
 10
990.80181620914163
 20
809.06707243113533
 11
990.79770732234283
 21
809.06476476463422
  0
ARC
  8
_0-0_FRF74-0913
  6
CONTINUOUS
 62
    7
 10
988.34305772738594
 20
813.43536047746284
 40
5.0127249594424406
 50
296.20026987247206
 51
299.31979276988136
  0
LINE
  8
_0-0_FRF74-0913
  6
CONTINUOUS
 62
    7
 10
990.55622632033601
 20
808.93766147706299
 11
990.55513818442887
 21
808.93712604145162
  0
ARC
  8
_0-0_FRF74-0913
  6
CONTINUOUS
 62
    7
 10
988.30302143664574
 20
813.5139772029745
 40
5.1009407368032447
 50
293.107445892839
 51
296.20026987246939
  0
LINE
  8
_0-0_FRF74-0913
  6
CONTINUOUS
 62
    7
 10
990.30491954501531
 20
808.82228237444122
 11
990.30439233309585
 21
808.82205741851749
  0
ARC
  8
_0-0_FRF74-0913
  6
CONTINUOUS
 62
    7
 10
988.28681261842303
 20
813.55050402322354
 40
5.1408982871298416
 50
290.02588178136079
 51
293.10744589283098
  0
LINE
  8
_0-0_FRF74-0913
  6
CONTINUOUS
 62
    7
 10
990.04728541702889
 20
808.72043459059796
 11
990.04674803563125
 21
808.72023872481464
  0
ARC
  8
_0-0_FRF74-0913
  6
CONTINUOUS
 62
    7
 10
988.3071377873564
 20
813.4930692346245
 40
5.0799758750681692
 50
286.89448718900462
 51
290.0258817813567
  0
LINE
  8
_0-0_FRF74-0913
  6
CONTINUOUS
 62
    7
 10
989.78343024089327
 20
808.63233724418262
 11
989.78114768456192
 21
808.63164399043126
  0
ARC
  8
_0-0_FRF74-0913
  6
CONTINUOUS
 62
    7
 10
988.3483600976856
 20
813.349135055533
 40
4.9302740510464869
 50
283.69629357658152
 51
286.89448718900508
  0
LINE
  8
_0-0_FRF74-0913
  6
CONTINUOUS
 62
    7
 10
989.51572719915771
 20
808.5590561137177
 11
989.5095027559538
 21
808.55753918460039
  0
ARC
  8
_0-0_FRF74-0913
  6
CONTINUOUS
 62
    7
 10
988.38426982986289
 20
813.1747281880497
 40
4.7523240032149197
 50
280.53276740851095
 51
283.69629357658141
  0
LINE
  8
_0-0_FRF74-0913
  6
CONTINUOUS
 62
    7
 10
989.25298428960605
 20
808.50247834252923
 11
989.24891037776138
 21
808.50172087744409
  0
ARC
  8
_0-0_FRF74-0913
  6
CONTINUOUS
 62
    7
 10
988.33520122395566
 20
813.41596790630524
 40
4.9984685933212747
 50
277.61988556583515
 51
280.53276740850504
  0
ARC
  8
_0-0_FRF74-0913
  6
CONTINUOUS
 62
    7
 10
988.32388838107545
 20
813.50052983473302
 40
5.0837838917938116
 50
274.75586674093961
 51
277.61988556583469
  0
LINE
  8
_0-0_FRF74-0913
  6
CONTINUOUS
 62
    7
 10
988.74538617119538
 20
808.43424931828054
 11
988.74511333524583
 21
808.43422661923159
  0
ARC
  8
_0-0_FRF74-0913
  6
CONTINUOUS
 62
    7
 10
988.31734555922048
 20
813.57587053774932
 40
5.1594076651333287
 50
271.92773305277484
 51
274.75586674095024
  0
LINE
  8
_0-0_FRF74-0913
  6
CONTINUOUS
 62
    7
 10
988.4909025716081
 20
808.41938283598108
 11
988.49075943921048
 21
808.41937801843221
  0
ARC
  8
_0-0_FRF74-0913
  6
CONTINUOUS
 62
    7
 10
988.31739139514639
 20
813.57046006959911
 40
5.1539987171667452
 50
269.09329434190158
 51
271.92765500184078
  0
LINE
  8
_0-0_FRF74-0913
  6
CONTINUOUS
 62
    7
 10
988.23583277441594
 20
808.41710669844929
 11
988.21980053552204
 21
808.41736042979619
  0
ARC
  8
_0-0_FRF74-0913
  6
CONTINUOUS
 62
    7
 10
988.29009763057229
 20
812.85914437019176
 40
4.4423401777361686
 50
266.21832229321217
 51
269.09329434190704
  0
LINE
  8
_0-0_FRF74-0913
  6
CONTINUOUS
 62
    7
 10
987.99710390274095
 20
808.42647689674186
 11
987.99236678071725
 21
808.42679001453143
  0
ARC
  8
_0-0_FRF74-0913
  6
CONTINUOUS
 62
    7
 10
988.36017054489844
 20
813.99124968457966
 40
5.5766021041974501
 50
264.02545066713049
 51
266.21832229320432
  0
ARC
  8
_0-0_FRF74-0913
  6
CONTINUOUS
 62
    7
 10
988.24242238208785
 20
812.86614345331304
 40
4.4453511764717595
 50
261.2747306904638
 51
264.02545066713708
  0
LINE
  8
_0-0_FRF74-0913
  6
CONTINUOUS
 62
    7
 10
987.56807699554383
 20
808.47223797164804
 11
987.55680029609789
 21
808.47396863933727
  0
ARC
  8
_0-0_FRF74-0913
  6
CONTINUOUS
 62
    7
 10
988.31335981244797
 20
813.40356565657771
 40
4.9873148140221737
 50
258.71738131558647
 51
261.27473069046448
  0
LINE
  8
_0-0_FRF74-0913
  6
CONTINUOUS
 62
    7
 10
987.33759837799221
 20
808.51263540996877
 11
987.33727608285699
 21
808.51269970922215
  0
ARC
  8
_0-0_FRF74-0913
  6
CONTINUOUS
 62
    7
 10
988.32861846795277
 20
813.48172829018074
 40
5.0669522163594802
 50
256.20764175112595
 51
258.71738131558135
  0
LINE
  8
_0-0_FRF74-0913
  6
CONTINUOUS
 62
    7
 10
987.12063713799876
 20
808.56087614148203
 11
987.12029561066845
 21
808.56095998034289
  0
ARC
  8
_0-0_FRF74-0913
  6
CONTINUOUS
 62
    7
 10
988.3429611346096
 20
813.54162989753013
 40
5.1285459739977579
 50
253.7358885952454
 51
256.20764175112663
  0
LINE
  8
_0-0_FRF74-0913
  6
CONTINUOUS
 62
    7
 10
986.90663256431685
 20
808.61832368670298
 11
986.90626359700241
 21
808.61843132946842
  0
ARC
  8
_0-0_FRF74-0913
  6
CONTINUOUS
 62
    7
 10
988.33472412893025
 20
813.51476825001839
 40
5.1004524045242876
 50
251.25915623557512
 51
253.73588859525188
  0
ARC
  8
_0-0_FRF74-0913
  6
CONTINUOUS
 62
    7
 10
988.32396321079386
 20
813.48305095606167
 40
5.0669593590509878
 50
248.76605760663986
 51
251.25915623556421
  0
LINE
  8
_0-0_FRF74-0913
  6
CONTINUOUS
 62
    7
 10
986.48882797651072
 20
808.76009046309048
 11
986.4617469083978
 21
808.77061297801515
  0
ARC
  8
_0-0_FRF74-0913
  6
CONTINUOUS
 62
    7
 10
987.95347000187803
 20
812.60975742107178
 40
4.1187701856591348
 50
244.89169022876047
 51
248.76605760662869
  0
LINE
  8
_0-0_FRF74-0913
  6
CONTINUOUS
 62
    7
 10
986.20574913716837
 20
808.8801810883856
 11
986.17911876677317
 21
808.89266037552795
  0
ARC
  8
_0-0_FRF74-0913
  6
CONTINUOUS
 62
    7
 10
988.30370039633385
 20
813.42644464420846
 40
5.0068999286586306
 50
242.2391833011668
 51
244.8916902287483
  0
LINE
  8
_0-0_FRF74-0913
  6
CONTINUOUS
 62
    7
 10
985.97157860564016
 20
808.99584030067092
 11
985.97127953546669
 21
808.99599772119745
  0
ARC
  8
_0-0_FRF74-0913
  6
CONTINUOUS
 62
    7
 10
988.32745060257162
 20
813.47229128600839
 40
5.0585320178714568
 50
239.62139289337097
 51
242.23918330117908
  0
LINE
  8
_0-0_FRF74-0913
  6
CONTINUOUS
 62
    7
 10
985.7692918441719
 20
809.10828281412682
 11
985.76905104326124
 21
809.10842397035117
  0
ARC
  8
_0-0_FRF74-0913
  6
CONTINUOUS
 62
    7
 10
988.35093188361225
 20
813.51290036325963
 40
5.1054403306139351
 50
237.03390798111468
 51
239.62139289337756
  0
LINE
  8
_0-0_FRF74-0913
  6
CONTINUOUS
 62
    7
 10
985.57284425963348
 20
809.22947298288352
 11
985.57265560088399
 21
809.22959534063364
  0
ARC
  8
_0-0_FRF74-0913
  6
CONTINUOUS
 62
    7
 10
988.33453852464754
 20
813.48803731162957
 40
5.0756600856357181
 50
234.4363208690072
 51
237.03390798114424
  0
ARC
  8
_0-0_FRF74-0913
  6
CONTINUOUS
 62
    7
 10
988.31339398453815
 20
813.45846334036435
 40
5.0393047372969635
 50
231.82000032213858
 51
234.43632086898685
  0
LINE
  8
_0-0_FRF74-0913
  6
CONTINUOUS
 62
    7
 10
985.19842820126519
 20
809.49720338873499
 11
985.17210664874688
 21
809.51790153439038
  0
ARC
  8
_0-0_FRF74-0913
  6
CONTINUOUS
 62
    7
 10
987.6891995722815
 20
812.71885463829688
 40
4.0720827053385555
 50
227.64123793783233
 51
231.8200003221454
  0
LINE
  8
_0-0_FRF74-0913
  6
CONTINUOUS
 62
    7
 10
984.94554948104951
 20
809.70982792920972
 11
984.92080302433851
 21
809.73239190911977
  0
ARC
  8
_0-0_FRF74-0913
  6
CONTINUOUS
 62
    7
 10
988.31309980856952
 20
813.45280496817622
 40
5.0347940178622865
 50
224.65043468326775
 51
227.64123793783077
  0
ARC
  8
_0-0_FRF74-0913
  6
CONTINUOUS
 62
    7
 10
988.34972536451642
 20
813.48898631888756
 40
5.086277233454469
 50
221.68989075266734
 51
224.65043468325874
  0
LINE
  8
_0-0_FRF74-0913
  6
CONTINUOUS
 62
    7
 10
984.55151964376887
 20
810.10611041243783
 11
984.55140968929186
 21
810.10623386648547
  0
ARC
  8
_0-0_FRF74-0913
  6
CONTINUOUS
 62
    7
 10
988.38962931179162
 20
813.52474819647296
 40
5.1398609022883877
 50
218.75651397314772
 51
221.68989075266705
  0
LINE
  8
_0-0_FRF74-0913
  6
CONTINUOUS
 62
    7
 10
984.38149733451621
 20
810.30713290753397
 11
984.38135059299793
 21
810.3073157010997
  0
ARC
  8
_0-0_FRF74-0913
  6
CONTINUOUS
 62
    7
 10
988.33931366617844
 20
813.48465680900949
 40
5.0755263968060058
 50
215.78068321188977
 51
218.75651397315519
  0
LINE
  8
_0-0_FRF74-0913
  6
CONTINUOUS
 62
    7
 10
984.22173711485266
 20
810.5170767260721
 11
984.22156366161585
 21
810.51731739589775
  0
ARC
  8
_0-0_FRF74-0913
  6
CONTINUOUS
 62
    7
 10
988.26242291406061
 20
813.4296065266609
 40
4.9809608991871039
 50
212.74156108230878
 51
215.78068321189565
  0
LINE
  8
_0-0_FRF74-0913
  6
CONTINUOUS
 62
    7
 10
984.07284364597876
 20
810.73565087823431
 11
984.06106491816377
 21
810.75396889096305
  0
ARC
  8
_0-0_FRF74-0913
  6
CONTINUOUS
 62
    7
 10
987.66389375256813
 20
813.07063614266121
 40
4.2833774950505976
 50
208.62581203914854
 51
212.74156108231273
  0
LINE
  8
_0-0_FRF74-0913
  6
CONTINUOUS
 62
    7
 10
983.90408533985374
 20
811.01852419035743
 11
983.89389707897067
 21
811.03719076892105
  0
ARC
  8
_0-0_FRF74-0913
  6
CONTINUOUS
 62
    7
 10
988.32203935734401
 20
813.45408085970973
 40
5.0447796531136921
 50
205.52152495180567
 51
208.62581203915255
  0
ARC
  8
_0-0_FRF74-0913
  6
CONTINUOUS
 62
    7
 10
988.49746135963323
 20
813.53783377321372
 40
5.2391695433023413
 50
202.53236356315003
 51
205.52152495179655
  0
LINE
  8
_0-0_FRF74-0913
  6
CONTINUOUS
 62
    7
 10
983.65823311707663
 20
811.53015662787652
 11
983.64639258585271
 21
811.55869659170401
  0
ARC
  8
_0-0_FRF74-0913
  6
CONTINUOUS
 62
    7
 10
987.90574199747618
 20
813.32579622807202
 40
4.6113662330321592
 50
198.36948583176203
 51
202.53236356315529
  0
LINE
  8
_0-0_FRF74-0913
  6
CONTINUOUS
 62
    7
 10
983.52935262000278
 20
811.87255345692631
 11
983.51840013017284
 21
811.90553649396622
  0
ARC
  8
_0-0_FRF74-0913
  6
CONTINUOUS
 62
    7
 10
988.04841700941415
 20
813.40979347731582
 40
4.7732422940980879
 50
195.14827722661795
 51
198.36948583175061
  0
LINE
  8
_0-0_FRF74-0913
  6
CONTINUOUS
 62
    7
 10
983.44103157735549
 20
812.16245972942738
 11
983.44079168690985
 21
812.16334583368507
  0
ARC
  8
_0-0_FRF74-0913
  6
CONTINUOUS
 62
    7
 10
987.82117134419366
 20
813.34922347636564
 40
4.5380647555268734
 50
191.78339033701079
 51
195.14827722660783
  0
LINE
  8
_0-0_FRF74-0913
  6
CONTINUOUS
 62
    7
 10
983.3787389078575
 20
812.42249494332896
 11
983.37214671214497
 21
812.45409576602538
  0
ARC
  8
_0-0_FRF74-0913
  6
CONTINUOUS
 62
    7
 10
986.30362326678983
 20
813.0656262746046
 40
2.9945825006761129
 50
187.91943376297692
 51
191.78339033702599
  0
LINE
  8
_0-0_FRF74-0913
  6
CONTINUOUS
 62
    7
 10
983.33760073610551
 20
812.65303119364921
 11
983.33271049258451
 21
812.68818569047471
  0
ARC
  8
_0-0_FRF74-0913
  6
CONTINUOUS
 62
    7
 10
987.98795304615328
 20
813.33576343419884
 40
4.700068102349503
 50
186.32208680848507
 51
187.91943376297124
  0
ARC
  8
_0-0_FRF74-0913
  6
CONTINUOUS
 62
    7
 10
989.08541470056798
 20
813.45735256125306
 40
5.8042447180810992
 50
185.02858399327926
 51
186.32208680847305
  0
LINE
  8
_0-0_FRF74-0913
  6
CONTINUOUS
 62
    7
 10
983.3035099780052
 20
812.94859473420934
 11
983.30350086608564
 21
812.94869828888295
  0
ARC
  8
_0-0_FRF74-0913
  6
CONTINUOUS
 62
    7
 10
990.8102400445041
 20
813.60922669532533
 40
7.5357435511381476
 50
184.03069334402471
 51
185.028583993278
  0
LINE
  8
_0-0_FRF74-0913
  6
CONTINUOUS
 62
    7
 10
983.29313586425701
 20
813.07953281030075
 11
983.29312860144728
 21
813.07963587982738
  0
ARC
  8
_0-0_FRF74-0913
  6
CONTINUOUS
 62
    7
 10
993.93178345566344
 20
813.82929030605919
 40
10.665034405284652
 50
183.32448062520393
 51
184.03069334402676
  0
LINE
  8
_0-0_FRF74-0913
  6
CONTINUOUS
 62
    7
 10
983.28469691417536
 20
813.21081876752908
 11
983.28445633772606
 21
813.21496032961636
  0
ARC
  8
_0-0_FRF74-0913
  6
CONTINUOUS
 62
    7
 10
1000.4408604195993
 20
814.21154729139232
 40
17.185324745052036
 50
182.9127331328614
 51
183.32448062519993
  0
LINE
  8
_0-0_FRF74-0913
  6
CONTINUOUS
 62
    7
 10
983.27773758471039
 20
813.33827691664249
 11
983.27752926020435
 21
813.34237129473365
  0
ARC
  8
_0-0_FRF74-0913
  6
CONTINUOUS
 62
    7
 10
1039.1916293662223
 20
816.18731551745327
 40
55.986429590537306
 50
182.79473571018485
 51
182.91273313283529
  0
LINE
  8
_0-0_FRF74-0913
  6
CONTINUOUS
 62
    7
 10
983.27178883677038
 20
813.45752917840355
 11
983.27138634458515
 21
813.46575595901538
  0
LINE
  8
_0-0_FRF74-0913
  6
CONTINUOUS
 62
    7
 10
996.32138634458533
 20
813.46575595901538
 11
996.32138634458533
 21
805.83334281002328
  0
LINE
  8
_0-0_FRF74-0913
  6
CONTINUOUS
 62
    7
 10
996.32138634458533
 20
822.4657559590155
 11
996.32138634458533
 21
813.46575595901538
  0
LINE
  8
_0-0_FRF74-0913
  6
CONTINUOUS
 62
    7
 10
946.02138634458527
 20
788.46575595901538
 11
951.02138634458527
 21
788.46575595901538
  0
TEXT
  8
_0-2_
 62
    7
 10
704.52645968509307
 20
506.99149662678974
 40
6
 41
1
 50
0
  1
ペーパーホルダー　-LANGBERGER,Orta-
  0
TEXT
  8
_0-0_FRF74-0913
 62
    7
 10
703.31296168502604
 20
488.02540674262434
 40
6
 41
1
 50
0
  1
クローム
  0
LINE
  8
_0-0_FRF74-0913
  6
CONTINUOUS
 62
    4
 10
725.81928422776002
 20
838.46575595901538
 11
725.81928422776002
 21
712.96103792128349
  0
POINT
  8
_0-0_FRF74-0913
 62
    7
 10
725.81928422776002
 20
838.46575595901538
  0
POINT
  8
_0-0_FRF74-0913
 62
    7
 10
725.81928422776002
 20
712.96103792128349
  0
LINE
  8
_0-0_FRF74-0913
  6
CONTINUOUS
 62
    4
 10
725.81928422776002
 20
712.96103792128349
 11
762.59621975439597
 21
712.96103792128349
  0
TEXT
  8
_0-0_FRF74-0913
 62
    4
 10
724.81928422776002
 20
771.96339694014944
 40
5
 41
1
 50
90
  1
126
  0
LINE
  8
_0-0_FRF74-0913
  6
CONTINUOUS
 62
    4
 10
725.81928422776002
 20
838.46575595901538
 11
816.51991932237104
 21
838.46575595901538
  0
LINE
  8
_0-0_FRF74-0913
  6
CONTINUOUS
 62
    4
 10
944.52138634458527
 20
758.46575595901538
 11
957.52138634458527
 21
758.46575595901538
  0
POINT
  8
_0-0_FRF74-0913
 62
    7
 10
944.52138634458527
 20
758.46575595901538
  0
POINT
  8
_0-0_FRF74-0913
 62
    7
 10
957.52138634458527
 20
758.46575595901538
  0
LINE
  8
_0-0_FRF74-0913
  6
CONTINUOUS
 62
    4
 10
944.52138634458527
 20
758.46575595901538
 11
944.52138634458527
 21
782.46575595901538
  0
LINE
  8
_0-0_FRF74-0913
  6
CONTINUOUS
 62
    4
 10
957.52138634458527
 20
758.46575595901538
 11
957.52138634458527
 21
782.46575595901538
  0
TEXT
  8
_0-0_FRF74-0913
 62
    4
 10
948.52138634458527
 20
759.46575595901538
 40
5
 41
1
 50
0
  1
13
  0
LINE
  8
_0-0_FRF74-0913
  6
CONTINUOUS
 62
    7
 10
957.52138634458527
 20
837.96575595901538
 11
957.52138634458527
 21
788.96575596095113
  0
ARC
  8
_0-0_FRF74-0913
  6
CONTINUOUS
 62
    7
 10
957.02138634458527
 20
837.96575595901538
 40
0.5000000000000568
 50
0
 51
90
  0
ARC
  8
_0-0_FRF74-0913
  6
CONTINUOUS
 62
    7
 10
957.02138634458527
 20
788.96575595901538
 40
0.5000000000000568
 50
270
 51
0
  0
LINE
  8
_0-0_FRF74-0913
  6
CONTINUOUS
 62
    7
 10
957.02138634458527
 20
838.46575595901538
 11
944.52138634458527
 21
838.46575595901538
  0
LINE
  8
_0-0_FRF74-0913
  6
CONTINUOUS
 62
    7
 10
951.02138634458527
 20
788.46575595901538
 11
957.02138634458527
 21
788.46575595901538
  0
LINE
  8
_0-0_FRF74-0913
  6
CONTINUOUS
 62
    7
 10
957.52138634458527
 20
803.96575595901538
 11
979.82138634458533
 21
803.96575595901538
  0
LINE
  8
_0-0_FRF74-0913
  6
CONTINUOUS
 62
    7
 10
979.82138634458533
 20
822.9657559590155
 11
957.52138634458527
 21
822.9657559590155
  0
ENDSEC
  0
EOF
