  0
SECTION
  2
HEADER
  9
$ACADVER
  1
AC1009
  9
$INSBASE
 10
0
 20
0
 30
0
  9
$EXTMIN
 10
0
 20
0
  9
$EXTMAX
 10
4205
 20
2970
  9
$LIMMIN
 10
0
 20
0
  9
$LIMMAX
 10
4205
 20
2970
  9
$LTSCALE
 40
5
  0
ENDSEC
  0
SECTION
  2
TABLES
  0
TABLE
  2
LTYPE
 70
     9
  0
LTYPE
  2
CONTINUOUS
 70
    64
  3
実線
 72
    65
 73
     0
 40
0.0
  0
LTYPE
  2
DASHED1
 70
    64
  3
--  --  --  --  --  --  --  --  
 72
    65
 73
     2
 40
2.5
 49
1.25
 49
-1.25
  0
LTYPE
  2
DASHED2
 70
    64
  3
----    ----    ----    ----    
 72
    65
 73
     2
 40
5.0
 49
2.5
 49
-2.5
  0
LTYPE
  2
DASHED3
 70
    64
  3
------  ------  ------  ------  
 72
    65
 73
     2
 40
5.0
 49
3.75
 49
-1.25
  0
LTYPE
  2
CENTER1
 70
    64
  3
----- - ----- - ----- - ----- - 
 72
    65
 73
     4
 40
10.0
 49
6.25
 49
-1.25
 49
1.25
 49
-1.25
  0
LTYPE
  2
CENTER2
 70
    64
  3
----------  --  ----------  --  
 72
    65
 73
     4
 40
20.0
 49
12.5
 49
-2.5
 49
2.5
 49
-2.5
  0
LTYPE
  2
PHANTOM1
 70
    64
  3
--- - - --- - - --- - - --- - - 
 72
    65
 73
     6
 40
10.0
 49
3.25
 49
-1.25
 49
1.25
 49
-1.25
 49
1.25
 49
-1.25
  0
LTYPE
  2
PHANTOM2
 70
    64
  3
--------  -  -  --------  -  -  
 72
    65
 73
     6
 40
20.0
 49
10.0
 49
-2.5
 49
1.25
 49
-2.5
 49
1.25
 49
-2.5
  0
LTYPE
  2
DOT
 70
    64
  3
-   -   -   -   -   -   -   -   
 72
    65
 73
     2
 40
2.5
 49
0.625
 49
-1.875
  0
LTYPE
  2
DUMMY
 70
    64
  3
ダミー
 72
    65
 73
     0
 40
0.0
  0
LTYPE
  2
RAND1
 70
    64
  3
ランダム線1
 72
    65
 73
     4
 40
10.0
 49
1.0
 49
-2.0
 49
3.0
 49
-4.0
  0
LTYPE
  2
RAND2
 70
    64
  3
ランダム線2
 72
    65
 73
     4
 40
14.0
 49
2.0
 49
-3.0
 49
4.0
 49
-5.0
  0
LTYPE
  2
RAND3
 70
    64
  3
ランダム線3
 72
    65
 73
     4
 40
18.0
 49
3.0
 49
-4.0
 49
5.0
 49
-6.0
  0
LTYPE
  2
RAND4
 70
    64
  3
ランダム線4
 72
    65
 73
     4
 40
22.0
 49
4.0
 49
-5.0
 49
6.0
 49
-7.0
  0
LTYPE
  2
RAND5
 70
    64
  3
ランダム線5
 72
    65
 73
     4
 40
26.0
 49
5.0
 49
-6.0
 49
7.0
 49
-8.0
  0
LTYPE
  2
LONG1
 70
    64
  3
----------  --  ----------  --  
 72
    65
 73
     4
 40
40.0
 49
32.5
 49
-2.5
 49
2.5
 49
-2.5
  0
LTYPE
  2
LONG2
 70
    64
  3
--------  -  -  --------  -  -  
 72
    65
 73
     6
 40
40.0
 49
30.0
 49
-2.5
 49
1.25
 49
-2.5
 49
1.25
 49
-2.5
  0
LTYPE
  2
LONG3
 70
    64
  3
+++++++++++++++..+++++++++++++++
 72
    65
 73
     2
 40
40.0
 49
37.5
 49
-2.5
  0
LTYPE
  2
LONG4
 70
    64
  3
+++++++++++++++..+++++++++++++++
 72
    65
 73
     2
 40
80.0
 49
75.0
 49
-5.0
  0
LTYPE
  2
LONG5
 70
    64
  3
----------  --  ----------  --  
 72
    65
 73
     4
 40
60.0
 49
37.5
 49
-7.5
 49
7.5
 49
-7.5
  0
LTYPE
  2
dashed
 70
   64
  3
-------   -------------   ------
 72
   65
 73
    2
 40
7.5
 49
6
 49
-1.5
  0
LTYPE
  2
dashed_spaced
 70
   64
  3
----        --------        ----
 72
   65
 73
    2
 40
12
 49
6
 49
-6
  0
LTYPE
  2
long_dashed_dotted
 70
   64
  3
------------- --- --------------
 72
   65
 73
    4
 40
15.25
 49
12
 49
-1.5
 49
0.25
 49
-1.5
  0
LTYPE
  2
long_dashed_double-dotted
 70
   64
  3
----------- --- --- ------------
 72
   65
 73
    6
 40
17
 49
12
 49
-1.5
 49
0.25
 49
-1.5
 49
0.25
 49
-1.5
  0
LTYPE
  2
long_dashed_triplicate-dotted
 70
   64
  3
--------- --- --- --- ----------
 72
   65
 73
    8
 40
18.75
 49
12
 49
-1.5
 49
0.25
 49
-1.5
 49
0.25
 49
-1.5
 49
0.25
 49
-1.5
  0
LTYPE
  2
dotted
 70
   64
  3
   -       -       -       -    
 72
   65
 73
    2
 40
1.75
 49
0.25
 49
-1.5
  0
LTYPE
  2
chain
 70
   64
  3
-------------- -- --------------
 72
   65
 73
    4
 40
18.5
 49
12
 49
-1.5
 49
3.5
 49
-1.5
  0
LTYPE
  2
chain_double_dash
 70
   64
  3
------------ -- -- -------------
 72
   65
 73
    6
 40
23.5
 49
12
 49
-1.5
 49
3.5
 49
-1.5
 49
3.5
 49
-1.5
  0
LTYPE
  2
dashed_dotted
 70
   64
  3
-----------     -     ----------
 72
   65
 73
    4
 40
9.25
 49
6
 49
-1.5
 49
0.25
 49
-1.5
  0
LTYPE
  2
double-dashed_dotted
 70
   64
  3
------   -----------   -   -----
 72
   65
 73
    6
 40
16.75
 49
6
 49
-1.5
 49
6
 49
-1.5
 49
0.25
 49
-1.5
  0
LTYPE
  2
dashed_double-dotted
 70
   64
  3
---------    -    -    ---------
 72
   65
 73
    6
 40
11
 49
6
 49
-1.5
 49
0.25
 49
-1.5
 49
0.25
 49
-1.5
  0
LTYPE
  2
double-dashed_double-dotted
 70
   64
  3
-----   ---------   -   -   ----
 72
   65
 73
    8
 40
18.5
 49
6
 49
-1.5
 49
6
 49
-1.5
 49
0.25
 49
-1.5
 49
0.25
 49
-1.5
  0
LTYPE
  2
dashed_triplicate-dotted
 70
   64
  3
-------    -    -    -    ------
 72
   65
 73
    8
 40
12.75
 49
6
 49
-1.5
 49
0.25
 49
-1.5
 49
0.25
 49
-1.5
 49
0.25
 49
-1.5
  0
LTYPE
  2
double-dashed_triplicate-dotted
 70
   64
  3
-----  ---------  -  -  -  -----
 72
   65
 73
   10
 40
20.25
 49
6
 49
-1.5
 49
6
 49
-1.5
 49
0.25
 49
-1.5
 49
0.25
 49
-1.5
 49
0.25
 49
-1.5
  0
LTYPE
  2
undefined
 70
   64
  3
--------------------------------
 72
   65
 73
    0
 40
0
  0
ENDTAB
  0
TABLE
  2
STYLE
  5
3
100
AcDbSymbolTable
 70
     1
  0
STYLE
  5
10
100
AcDbSymbolTableRecord
100
AcDbTextStyleTableRecord
  2
STANDARD
 70
     0
 40
0.0
 41
1.0
 50
0.0
 71
     0
 42
0.2
  3
txt
  4
bigfont.shx
  0
STYLE
  5
26
100
AcDbSymbolTableRecord
100
AcDbTextStyleTableRecord
  2
TATEGAKI
 70
    68
 40
0.0
 41
1.0
 50
0.0
 71
     0
 42
1.0
  3
txt
  4
bigfont.shx
  0
ENDTAB
  0
TABLE
  2
LAYER
 70
    4
  0
LAYER
  2
_0-0_FRF74-1101
 70
   64
 62
    7
  6
CONTINUOUS
  0
LAYER
  2
_0-1_
 70
   64
 62
    7
  6
CONTINUOUS
  0
LAYER
  2
_0-2_
 70
   64
 62
    7
  6
CONTINUOUS
  0
LAYER
  2
ADD_LINE
 70
   64
 62
    7
  6
CONTINUOUS
  0
ENDTAB
  0
ENDSEC
  0
SECTION
  2
BLOCKS
  0
ENDSEC
  0
SECTION
  2
ENTITIES
  0
ARC
  8
_0-0_FRF74-1101
  6
CONTINUOUS
 62
    7
 10
2316.919383441952
 20
1572.3734935052985
 40
0.5000000000002273
 50
270
 51
0
  0
LINE
  8
_0-0_FRF74-1101
  6
CONTINUOUS
 62
    7
 10
1692.4193828416185
 20
1571.8734935206503
 11
1716.9193834523332
 21
1571.8734935206503
  0
LINE
  8
_0-0_FRF74-1101
  6
CONTINUOUS
 62
    7
 10
2315.4194104534699
 20
1758.60742523043
 11
2247.4193918568208
 21
1758.60742523043
  0
LINE
  8
_0-2_
  6
CONTINUOUS
 62
    7
 10
2552.566283385414
 20
1056.1979530071658
 11
1577.5662833854144
 21
1056.1979530071658
  0
LINE
  8
_0-2_
  6
CONTINUOUS
 62
    7
 10
2552.5662833856559
 20
2371.1979530071658
 11
1577.5662833856554
 21
2371.1979530071658
  0
LINE
  8
_0-2_
  6
CONTINUOUS
 62
    7
 10
1577.5662833856554
 20
971.19795300716578
 11
2552.5662833856559
 21
971.19795300716578
  0
LINE
  8
_0-2_
  6
CONTINUOUS
 62
    7
 10
2552.5662833856559
 20
971.19795300716578
 11
2552.5662833856559
 21
2371.1979530071658
  0
LINE
  8
_0-2_
  6
CONTINUOUS
 62
    7
 10
2552.566283385414
 20
1098.6979530071658
 11
1577.5662833854144
 21
1098.6979530071658
  0
LINE
  8
_0-2_
  6
CONTINUOUS
 62
    7
 10
2552.5662833856559
 20
1013.6979530071658
 11
2176.0662833856559
 21
1013.6979530071658
  0
LINE
  8
_0-2_
  6
CONTINUOUS
 62
    7
 10
2427.066283385785
 20
1013.6979530071658
 11
2427.066283385785
 21
1056.1979530071658
  0
LINE
  8
_0-2_
  6
CONTINUOUS
 62
    7
 10
2301.566283385785
 20
1013.6979530071658
 11
2301.566283385785
 21
1056.1979530071658
  0
LINE
  8
_0-2_
  6
CONTINUOUS
 62
    7
 10
2176.066283385785
 20
971.19795300716578
 11
2176.066283385785
 21
1098.6979530071658
  0
TEXT
  8
_0-2_
 62
    7
 10
2196.3388549397118
 20
983.13221232091132
 40
15
 41
1
 50
0
  1
大洋金物株式会社 ティーフォルム事業部
  0
TEXT
  8
_0-2_
 62
    7
 10
1582.8750828572131
 20
1080.7343511503877
 40
11
 41
1
 50
0
  1
品名
  0
TEXT
  8
_0-2_
 62
    7
 10
1584.6653190366922
 20
1037.1766457401898
 40
11
 41
1
 50
0
  1
仕様
  0
TEXT
  8
_0-2_
 62
    7
 10
2183.0590642652819
 20
1080.1315954814579
 40
11
 41
1
 50
0
  1
品番
  0
TEXT
  8
_0-2_
 62
    7
 10
2183.0568574992371
 20
1037.182349606808
 40
11
 41
1
 50
0
  1
重量
  0
TEXT
  8
_0-2_
 62
    7
 10
2308.1776163454042
 20
1037.5114084130682
 40
11
 41
1
 50
0
  1
容量
  0
TEXT
  8
_0-2_
 62
    7
 10
2433.6646030852935
 20
1037.4114153200876
 40
11
 41
1
 50
0
  1
縮尺
  0
LINE
  8
_0-2_
  6
CONTINUOUS
 62
    7
 10
1577.5662833856554
 20
2371.1979530071658
 11
1577.5662833856554
 21
971.19795300716578
  0
TEXT
  8
_0-2_
 62
    7
 10
2211.5256034060785
 20
1065.334252852228
 40
15
 41
1
 50
0
  1
FRF74-1101
  0
TEXT
  8
_0-2_
 62
    7
 10
1578.1476923649509
 20
947.26970852156592
 40
15
 41
1
 50
0
  1
120910S
  0
LINE
  8
_0-1_
  6
CONTINUOUS
 62
    4
 10
2281.419383441952
 20
1837.9059590984568
 11
1681.419383441952
 21
1837.9059590984568
  0
POINT
  8
_0-1_
 62
    7
 10
2281.419383441952
 20
1837.9059590984568
  0
POINT
  8
_0-1_
 62
    7
 10
1681.419383441952
 20
1837.9059590984568
  0
LINE
  8
_0-1_
  6
CONTINUOUS
 62
    4
 10
2281.419383441952
 20
1837.9059590984568
 11
2281.419383441952
 21
1803.6074264225228
  0
LINE
  8
_0-1_
  6
CONTINUOUS
 62
    4
 10
1681.419383441952
 20
1837.9059590984568
 11
1681.419383441952
 21
1803.6074264225228
  0
TEXT
  8
_0-1_
 62
    4
 10
1972.044383441952
 20
1840.4059590984568
 40
12.5
 41
1
 50
0
  1
600
  0
LINE
  8
_0-1_
  6
CONTINUOUS
 62
    4
 10
2345.0207920880071
 20
1788.6074264225228
 11
2345.0207920880071
 21
1758.60742523043
  0
POINT
  8
_0-1_
 62
    7
 10
2345.0207920880071
 20
1788.6074264225228
  0
POINT
  8
_0-1_
 62
    7
 10
2345.0207920880071
 20
1758.60742523043
  0
LINE
  8
_0-1_
  6
CONTINUOUS
 62
    4
 10
2345.0207920880071
 20
1788.6074264225228
 11
2330.4194104534699
 21
1788.6074264225228
  0
LINE
  8
_0-1_
  6
CONTINUOUS
 62
    4
 10
2345.0207920880071
 20
1758.60742523043
 11
2330.4194104534699
 21
1758.60742523043
  0
TEXT
  8
_0-1_
 62
    4
 10
2342.5207920880071
 20
1767.3574258264764
 40
12.5
 41
1
 50
90
  1
30
  0
LINE
  8
_0-1_
  6
CONTINUOUS
 62
    4
 10
2388.8208925118452
 20
1775.6074256886407
 11
2388.8208925118452
 21
1765.6074254464968
  0
POINT
  8
_0-1_
 62
    7
 10
2388.8208925118452
 20
1775.6074256886407
  0
POINT
  8
_0-1_
 62
    7
 10
2388.8208925118452
 20
1765.6074254464968
  0
LINE
  8
_0-1_
  6
CONTINUOUS
 62
    4
 10
2388.8208925118452
 20
1775.6074256886407
 11
2398.8208925118452
 21
1775.6074256886407
  0
LINE
  8
_0-1_
  6
CONTINUOUS
 62
    4
 10
2388.8208925118452
 20
1765.6074254464968
 11
2398.8208925118452
 21
1765.6074254464968
  0
TEXT
  8
_0-1_
 62
    4
 10
2386.3208925118452
 20
1764.3574255675687
 40
12.5
 41
1
 50
90
  1
10
  0
LINE
  8
_0-1_
  6
CONTINUOUS
 62
    4
 10
2367.4193847042634
 20
1582.1234935709417
 11
2367.4193847042634
 21
1511.8734948617548
  0
POINT
  8
_0-1_
 62
    7
 10
2367.4193847042634
 20
1582.1234935709417
  0
POINT
  8
_0-1_
 62
    7
 10
2367.4193847042634
 20
1511.8734948617548
  0
LINE
  8
_0-1_
  6
CONTINUOUS
 62
    4
 10
2367.4193847042634
 20
1582.1234935709417
 11
2332.4193847042634
 21
1582.1234935709417
  0
LINE
  8
_0-1_
  6
CONTINUOUS
 62
    4
 10
2367.4193847042634
 20
1511.8734948617548
 11
2307.4194085461213
 21
1511.8734948617548
  0
TEXT
  8
_0-1_
 62
    4
 10
2364.9193847042634
 20
1531.3734942163483
 40
12.5
 41
1
 50
90
  1
70.25
  0
LINE
  8
_0-0_FRF74-1101
  6
CONTINUOUS
 62
    7
 10
1717.4193834469781
 20
1786.6074260946973
 11
1717.4193834469781
 21
1775.6074256886407
  0
LINE
  8
_0-0_FRF74-1101
  6
CONTINUOUS
 62
    7
 10
1717.4193834469781
 20
1765.6074254464968
 11
1717.4193834469781
 21
1760.6074255582555
  0
LINE
  8
_0-0_FRF74-1101
  6
CONTINUOUS
 62
    7
 10
1645.419386313589
 20
1760.6074255582555
 11
1645.419386313589
 21
1786.6074260946973
  0
LINE
  8
_0-0_FRF74-1101
  6
CONTINUOUS
 62
    7
 10
1717.4193834469781
 20
1760.6074255582555
 11
1717.4180702684862
 21
1760.5939815909041
  0
ARC
  8
_0-0_FRF74-1101
  6
CONTINUOUS
 62
    7
 10
1701.1457796361988
 20
1762.1834247597722
 40
16.349733086772311
 50
354.1794697777089
 51
354.4211661893159
  0
LINE
  8
_0-0_FRF74-1101
  6
CONTINUOUS
 62
    7
 10
1717.4112206026721
 20
1760.5253529353727
 11
1717.4101537557342
 21
1760.5148873236701
  0
ARC
  8
_0-0_FRF74-1101
  6
CONTINUOUS
 62
    7
 10
1708.5441841322993
 20
1761.4186694257987
 40
8.9119155882334109
 50
353.87132218472709
 51
354.17946977765899
  0
LINE
  8
_0-0_FRF74-1101
  6
CONTINUOUS
 62
    7
 10
1717.4051648437719
 20
1760.4672177545581
 11
1717.4051620067619
 21
1760.4671913331506
  0
ARC
  8
_0-0_FRF74-1101
  6
CONTINUOUS
 62
    7
 10
1710.8509494004772
 20
1761.1709527722894
 40
6.5918876698254314
 50
353.45518420421331
 51
353.87132218495032
  0
LINE
  8
_0-0_FRF74-1101
  6
CONTINUOUS
 62
    7
 10
1717.3998777785396
 20
1760.4196072122381
 11
1717.399874082339
 21
1760.4195749951687
  0
ARC
  8
_0-0_FRF74-1101
  6
CONTINUOUS
 62
    7
 10
1712.3464439112956
 20
1760.9993450129277
 40
5.0865793778437407
 50
352.91662764433852
 51
353.45518420419933
  0
LINE
  8
_0-0_FRF74-1101
  6
CONTINUOUS
 62
    7
 10
1717.3942013257238
 20
1760.3721011590801
 11
1717.3941967822102
 21
1760.3720645950636
  0
ARC
  8
_0-0_FRF74-1101
  6
CONTINUOUS
 62
    7
 10
1713.2933010653123
 20
1760.8816496290697
 40
4.1324354305608315
 50
352.25474717777746
 51
352.9166276443604
  0
LINE
  8
_0-0_FRF74-1101
  6
CONTINUOUS
 62
    7
 10
1717.388036563937
 20
1760.3247261297838
 11
1717.3880312424628
 21
1760.32468700407
  0
ARC
  8
_0-0_FRF74-1101
  6
CONTINUOUS
 62
    7
 10
1713.9464101983353
 20
1760.7927806418179
 40
3.473307798782157
 50
351.46856833385726
 51
352.25474717755867
  0
LINE
  8
_0-0_FRF74-1101
  6
CONTINUOUS
 62
    7
 10
1717.3812845555126
 20
1760.2775086597651
 11
1717.3812786199969
 21
1760.2774690927968
  0
ARC
  8
_0-0_FRF74-1101
  6
CONTINUOUS
 62
    7
 10
1714.423407533541
 20
1760.7211849143664
 40
2.9909672506403844
 50
350.55714354486645
 51
351.46856833380753
  0
LINE
  8
_0-0_FRF74-1101
  6
CONTINUOUS
 62
    7
 10
1717.3738463406416
 20
1760.2304752854036
 11
1717.3738400944785
 21
1760.2304377297471
  0
ARC
  8
_0-0_FRF74-1101
  6
CONTINUOUS
 62
    7
 10
1714.7860500430327
 20
1760.6608325215032
 40
2.6233370022040807
 50
349.51966260568383
 51
350.55714354492369
  0
LINE
  8
_0-0_FRF74-1101
  6
CONTINUOUS
 62
    7
 10
1717.3656229338314
 20
1760.1836525468718
 11
1717.3656168721277
 21
1760.1836197780899
  0
ARC
  8
_0-0_FRF74-1101
  6
CONTINUOUS
 62
    7
 10
1715.0698218748726
 20
1760.6083053539339
 40
2.3347446343769342
 50
348.35558485590536
 51
349.51966260557862
  0
LINE
  8
_0-0_FRF74-1101
  6
CONTINUOUS
 62
    7
 10
1717.3565153204372
 20
1760.1370669919957
 11
1717.3565101889085
 21
1760.1370420911494
  0
ARC
  8
_0-0_FRF74-1101
  6
CONTINUOUS
 62
    7
 10
1715.2965243890731
 20
1760.5615608808525
 40
2.1032730917153302
 50
347.064792155102
 51
348.35558485586961
  0
ARC
  8
_0-0_FRF74-1101
  6
CONTINUOUS
 62
    7
 10
1715.4802616414304
 20
1760.5193461960216
 40
1.9147486707428938
 50
345.64776101805188
 51
347.06521188462102
  0
ARC
  8
_0-0_FRF74-1101
  6
CONTINUOUS
 62
    7
 10
1715.6293498835494
 20
1760.4812003616289
 40
1.7608577723165599
 50
344.10683440217105
 51
345.64772705397064
  0
ARC
  8
_0-0_FRF74-1101
  6
CONTINUOUS
 62
    7
 10
1715.7732263918492
 20
1760.440234614068
 40
1.611262845551567
 50
342.4228628285158
 51
344.10683440247618
  0
LINE
  8
_0-0_FRF74-1101
  6
CONTINUOUS
 62
    7
 10
1717.3092613844751
 20
1759.9536501312864
 11
1717.3056670665119
 21
1759.9423036984231
  0
ARC
  8
_0-0_FRF74-1101
  6
CONTINUOUS
 62
    7
 10
1716.1722028470783
 20
1760.3013619904636
 40
1.1889760274366252
 50
338.9945489422048
 51
342.42286282845834
  0
LINE
  8
_0-0_FRF74-1101
  6
CONTINUOUS
 62
    7
 10
1717.2821670510216
 20
1759.8751654867433
 11
1717.2778756104331
 21
1759.8639890800969
  0
ARC
  8
_0-0_FRF74-1101
  6
CONTINUOUS
 62
    7
 10
1715.7182970107249
 20
1760.4628254606826
 40
1.6705958276556938
 50
335.73354627882986
 51
338.99454894228984
  0
LINE
  8
_0-0_FRF74-1101
  6
CONTINUOUS
 62
    7
 10
1717.2412857723143
 20
1759.7762428717301
 11
1717.2412231888384
 21
1759.776104048037
  0
ARC
  8
_0-0_FRF74-1101
  6
CONTINUOUS
 62
    7
 10
1715.639499008339
 20
1760.4981815592907
 40
1.7569622314250777
 50
332.62283885412774
 51
335.73354627881929
  0
LINE
  8
_0-0_FRF74-1101
  6
CONTINUOUS
 62
    7
 10
1717.1996792847242
 20
1759.6902497627673
 11
1717.1996150051827
 21
1759.6901256338833
  0
ARC
  8
_0-0_FRF74-1101
  6
CONTINUOUS
 62
    7
 10
1715.563611820317
 20
1760.5373219561766
 40
1.8423485092127556
 50
329.64754705256553
 51
332.62283885409011
  0
LINE
  8
_0-0_FRF74-1101
  6
CONTINUOUS
 62
    7
 10
1717.1534357094674
 20
1759.606350404041
 11
1717.1533805677379
 21
1759.6062562382863
  0
ARC
  8
_0-0_FRF74-1101
  6
CONTINUOUS
 62
    7
 10
1715.4932175470021
 20
1760.578417088785
 40
1.9238601754443683
 50
326.79176602725181
 51
329.64754705246298
  0
LINE
  8
_0-0_FRF74-1101
  6
CONTINUOUS
 62
    7
 10
1717.1028836801893
 20
1759.5247506736746
 11
1717.1028493063423
 21
1759.5246981614027
  0
ARC
  8
_0-0_FRF74-1101
  6
CONTINUOUS
 62
    7
 10
1715.4320915785538
 20
1760.6183577892866
 40
1.9968782553345177
 50
324.03660366638798
 51
326.79168312441698
  0
LINE
  8
_0-0_FRF74-1101
  6
CONTINUOUS
 62
    7
 10
1717.0483495393526
 20
1759.4456545144631
 11
1717.0483118140285
 21
1759.4456025201889
  0
ARC
  8
_0-0_FRF74-1101
  6
CONTINUOUS
 62
    7
 10
1715.3799818981454
 20
1760.6560874819299
 40
2.061212883433392
 50
321.37097326609484
 51
324.03660366641719
  0
LINE
  8
_0-0_FRF74-1101
  6
CONTINUOUS
 62
    7
 10
1716.9902102807453
 20
1759.3693228932418
 11
1716.9901511935695
 21
1759.3692489528737
  0
ARC
  8
_0-0_FRF74-1101
  6
CONTINUOUS
 62
    7
 10
1715.358508391588
 20
1760.6731262175297
 40
2.0886249434841373
 50
318.74550559413444
 51
321.37097326612161
  0
LINE
  8
_0-0_FRF74-1101
  6
CONTINUOUS
 62
    7
 10
1716.9287117373869
 20
1759.2958769273187
 11
1716.9286605228237
 21
1759.2958185375419
  0
ARC
  8
_0-0_FRF74-1101
  6
CONTINUOUS
 62
    7
 10
1715.3641497455235
 20
1760.6680747891414
 40
2.0810529047435997
 50
316.11476282138409
 51
318.74550559426223
  0
ARC
  8
_0-0_FRF74-1101
  6
CONTINUOUS
 62
    7
 10
1715.3681742189008
 20
1760.6641387711848
 40
2.0754238363787882
 50
313.47948027216972
 51
316.11605965847764
  0
ARC
  8
_0-0_FRF74-1101
  6
CONTINUOUS
 62
    7
 10
1715.3713132524972
 20
1760.6608054486762
 40
2.0708451555967726
 50
310.83925284265945
 51
313.47992001037392
  0
ARC
  8
_0-0_FRF74-1101
  6
CONTINUOUS
 62
    7
 10
1715.3737193286042
 20
1760.6580451185746
 40
2.0671834084227547
 50
308.1935070018834
 51
310.83883092241354
  0
ARC
  8
_0-0_FRF74-1101
  6
CONTINUOUS
 62
    7
 10
1715.3753713111341
 20
1760.6560216057812
 40
2.0645716229464424
 50
305.54179987674974
 51
308.19219820747941
  0
ARC
  8
_0-0_FRF74-1101
  6
CONTINUOUS
 62
    7
 10
1715.3771747063693
 20
1760.6534972364532
 40
2.0614692569334649
 50
302.88610419368348
 51
305.54179987676343
  0
LINE
  8
_0-0_FRF74-1101
  6
CONTINUOUS
 62
    7
 10
1716.496492324188
 20
1758.9223751819109
 11
1716.4964341402492
 21
1758.9223375610468
  0
ARC
  8
_0-0_FRF74-1101
  6
CONTINUOUS
 62
    7
 10
1715.3830120971265
 20
1760.6443415965227
 40
2.0506112611385112
 50
300.2124818917207
 51
302.88610419369184
  0
LINE
  8
_0-0_FRF74-1101
  6
CONTINUOUS
 62
    7
 10
1716.4148965337083
 20
1758.8722747090019
 11
1716.4148412063905
 21
1758.8722424915959
  0
ARC
  8
_0-0_FRF74-1101
  6
CONTINUOUS
 62
    7
 10
1715.4027831044123
 20
1760.610315783181
 40
2.0112584042585286
 50
297.48136218071011
 51
300.21170214319051
  0
LINE
  8
_0-0_FRF74-1101
  6
CONTINUOUS
 62
    7
 10
1716.3308985120107
 20
1758.826005788007
 11
1716.32025614192
 21
1758.8204701200559
  0
ARC
  8
_0-0_FRF74-1101
  6
CONTINUOUS
 62
    7
 10
1715.6434113547959
 20
1760.1217101479242
 40
1.4667462207156245
 50
294.67340256158184
 51
297.48136218068277
  0
LINE
  8
_0-0_FRF74-1101
  6
CONTINUOUS
 62
    7
 10
1716.2556976527408
 20
1758.7888748372677
 11
1716.2447916610154
 21
1758.7838647739497
  0
ARC
  8
_0-0_FRF74-1101
  6
CONTINUOUS
 62
    7
 10
1715.4475289349239
 20
1760.51935994471
 40
1.9098616028778643
 50
293.23667616341311
 51
294.67340256157058
  0
ARC
  8
_0-0_FRF74-1101
  6
CONTINUOUS
 62
    7
 10
1715.456100635653
 20
1760.4993959718533
 40
1.8881352533084641
 50
291.78341943877967
 51
293.23667616336144
  0
LINE
  8
_0-0_FRF74-1101
  6
CONTINUOUS
 62
    7
 10
1716.1567859850543
 20
1758.7460863084109
 11
1716.1457042572486
 21
1758.7416576530045
  0
ARC
  8
_0-0_FRF74-1101
  6
CONTINUOUS
 62
    7
 10
1715.6360583385174
 20
1760.0169335168539
 40
1.3733417241879506
 50
288.79022409868611
 51
291.78341943880628
  0
LINE
  8
_0-0_FRF74-1101
  6
CONTINUOUS
 62
    7
 10
1716.0784174370031
 20
1758.7167850947949
 11
1716.0572069524485
 21
1758.7095684950077
  0
ARC
  8
_0-0_FRF74-1101
  6
CONTINUOUS
 62
    7
 10
1715.6236512213402
 20
1759.9838427251602
 40
1.3460109158576483
 50
285.87277183731482
 51
288.79022409873477
  0
LINE
  8
_0-0_FRF74-1101
  6
CONTINUOUS
 62
    7
 10
1715.99178809809
 20
1758.6891533316821
 11
1715.9817140090427
 21
1758.6862888271171
  0
ARC
  8
_0-0_FRF74-1101
  6
CONTINUOUS
 62
    7
 10
1715.5158228912637
 20
1760.3247671399413
 40
1.7034276372128365
 50
284.27163101481295
 51
285.87277183728702
  0
ARC
  8
_0-0_FRF74-1101
  6
CONTINUOUS
 62
    7
 10
1715.5256235583145
 20
1760.2862378963541
 40
1.6636714340990562
 50
282.63223342227229
 51
284.27163101485201
  0
LINE
  8
_0-0_FRF74-1101
  6
CONTINUOUS
 62
    7
 10
1715.8894555866395
 20
1758.6628374849331
 11
1715.8850217054969
 21
1758.6618437757054
  0
ARC
  8
_0-0_FRF74-1101
  6
CONTINUOUS
 62
    7
 10
1715.5737494520649
 20
1760.0507250861556
 40
1.4233347147720197
 50
280.35036334761548
 51
282.63223342230214
  0
LINE
  8
_0-0_FRF74-1101
  6
CONTINUOUS
 62
    7
 10
1715.8294757117819
 20
1758.6505516003454
 11
1715.8173294647518
 21
1758.6483332221555
  0
ARC
  8
_0-0_FRF74-1101
  6
CONTINUOUS
 62
    7
 10
1715.559600857225
 20
1760.0594701276648
 40
1.4344794879074916
 50
278.48318003263955
 51
280.35036334759803
  0
ARC
  8
_0-0_FRF74-1101
  6
CONTINUOUS
 62
    7
 10
1715.2942937258458
 20
1761.8383512841149
 40
3.2330361432957933
 50
277.65415155724264
 51
278.48292442028003
  0
ARC
  8
_0-0_FRF74-1101
  6
CONTINUOUS
 62
    7
 10
1715.4720063116349
 20
1760.5159921229936
 40
1.8987889719854902
 50
276.24262557474469
 51
277.65415155727283
  0
LINE
  8
_0-0_FRF74-1101
  6
CONTINUOUS
 62
    7
 10
1715.6784785945413
 20
1758.6284623201757
 11
1715.6707030179493
 21
1758.627611768811
  0
ARC
  8
_0-0_FRF74-1101
  6
CONTINUOUS
 62
    7
 10
1715.3149902921393
 20
1761.8794689274118
 40
3.2712545794002148
 50
275.149299667972
 51
276.24262557461759
  0
LINE
  8
_0-0_FRF74-1101
  6
CONTINUOUS
 62
    7
 10
1715.6085896398315
 20
1758.6214164498906
 11
1715.6085532379805
 21
1758.6214131695385
  0
ARC
  8
_0-0_FRF74-1101
  6
CONTINUOUS
 62
    7
 10
1715.1988517691511
 20
1763.1678431805362
 40
4.5648528057829676
 50
274.36487388755938
 51
275.14929966800031
  0
LINE
  8
_0-0_FRF74-1101
  6
CONTINUOUS
 62
    7
 10
1715.546272464866
 20
1758.6162302797447
 11
1715.5462393886671
 21
1758.616227755067
  0
ARC
  8
_0-0_FRF74-1101
  6
CONTINUOUS
 62
    7
 10
1715.0243243155458
 20
1765.4539188000172
 40
6.8575807811316425
 50
273.84215010405325
 51
274.36487388759002
  0
LINE
  8
_0-0_FRF74-1101
  6
CONTINUOUS
 62
    7
 10
1715.483836561375
 20
1758.61175082008
 11
1715.4213366519657
 21
1758.6075533970086
  0
LINE
  8
_0-0_FRF74-1101
  6
CONTINUOUS
 62
    7
 10
1715.4213366519657
 20
1758.6075533970086
 11
1715.4193834683986
 21
1758.60742523043
  0
LINE
  8
_0-0_FRF74-1101
  6
CONTINUOUS
 62
    7
 10
1645.419386313589
 20
1786.6074260946973
 11
1645.4206994658798
 21
1786.6208700514833
  0
ARC
  8
_0-0_FRF74-1101
  6
CONTINUOUS
 62
    7
 10
1661.6927627120358
 20
1785.03147955651
 40
16.34950165700505
 50
174.17957285496013
 51
174.42127244031249
  0
LINE
  8
_0-0_FRF74-1101
  6
CONTINUOUS
 62
    7
 10
1645.4275489993138
 20
1786.6894986492484
 11
1645.4286158264651
 21
1786.6999642534663
  0
ARC
  8
_0-0_FRF74-1101
  6
CONTINUOUS
 62
    7
 10
1654.2944604009019
 20
1785.7962110143371
 40
8.9117882568712812
 50
173.87142119159725
 51
174.17957285483038
  0
LINE
  8
_0-0_FRF74-1101
  6
CONTINUOUS
 62
    7
 10
1645.433604648978
 20
1786.7476337799385
 11
1645.4336074860985
 21
1786.7476602028041
  0
ARC
  8
_0-0_FRF74-1101
  6
CONTINUOUS
 62
    7
 10
1651.9877265437151
 20
1786.0439202645266
 40
6.5917923603629491
 50
173.4552776688011
 51
173.87142119153549
  0
LINE
  8
_0-0_FRF74-1101
  6
CONTINUOUS
 62
    7
 10
1645.4388916283669
 20
1786.7952442782912
 11
1645.4388953247217
 21
1786.7952764971692
  0
ARC
  8
_0-0_FRF74-1101
  6
CONTINUOUS
 62
    7
 10
1650.4922522715581
 20
1786.2155232321597
 40
5.0865047213608205
 50
172.91671386073733
 51
173.45527766897013
  0
LINE
  8
_0-0_FRF74-1101
  6
CONTINUOUS
 62
    7
 10
1645.4445679999849
 20
1786.8427502843031
 11
1645.4445725437108
 21
1786.8427868504775
  0
ARC
  8
_0-0_FRF74-1101
  6
CONTINUOUS
 62
    7
 10
1649.5454077556501
 20
1786.3332156009653
 40
4.1323736875810351
 50
172.25482437235701
 51
172.91671386047051
  0
LINE
  8
_0-0_FRF74-1101
  6
CONTINUOUS
 62
    7
 10
1645.4507326864004
 20
1786.8901252624685
 11
1645.4507380081507
 21
1786.890164390607
  0
ARC
  8
_0-0_FRF74-1101
  6
CONTINUOUS
 62
    7
 10
1648.8923072166515
 20
1786.4220825256102
 40
3.4732548494515489
 50
171.46863465630523
 51
172.25482437225571
  0
LINE
  8
_0-0_FRF74-1101
  6
CONTINUOUS
 62
    7
 10
1645.4574846264618
 20
1786.9373426765646
 11
1645.4574905623292
 21
1786.9373822461903
  0
ARC
  8
_0-0_FRF74-1101
  6
CONTINUOUS
 62
    7
 10
1648.4153160719027
 20
1786.4936767625504
 40
2.9909206444332161
 50
170.55719706001923
 51
171.46863465609812
  0
LINE
  8
_0-0_FRF74-1101
  6
CONTINUOUS
 62
    7
 10
1645.4649227811597
 20
1786.9843759894061
 11
1645.4649290277548
 21
1786.984413547875
  0
ARC
  8
_0-0_FRF74-1101
  6
CONTINUOUS
 62
    7
 10
1648.0526782230218
 20
1786.5540280350513
 40
2.6232951773015629
 50
169.51970129401084
 51
170.55719705961971
  0
LINE
  8
_0-0_FRF74-1101
  6
CONTINUOUS
 62
    7
 10
1645.4731461371721
 20
1787.0311986600132
 11
1645.4731521993835
 21
1787.0312314316618
  0
ARC
  8
_0-0_FRF74-1101
  6
CONTINUOUS
 62
    7
 10
1647.7689100140042
 20
1786.6065543372492
 40
2.3347065292906057
 50
168.35560661525005
 51
169.5197012940275
  0
LINE
  8
_0-0_FRF74-1101
  6
CONTINUOUS
 62
    7
 10
1645.482253710328
 20
1787.0777841397544
 11
1645.4822588424363
 21
1787.0778090434596
  0
ARC
  8
_0-0_FRF74-1101
  6
CONTINUOUS
 62
    7
 10
1647.542210400527
 20
1786.6532981257762
 40
2.1032379658309366
 50
167.06479481422502
 51
168.35560661512798
  0
ARC
  8
_0-0_FRF74-1101
  6
CONTINUOUS
 62
    7
 10
1647.3584755262129
 20
1786.6955122583304
 40
1.9147159861831329
 50
165.64774235570209
 51
167.06521463498339
  0
ARC
  8
_0-0_FRF74-1101
  6
CONTINUOUS
 62
    7
 10
1647.2093893165634
 20
1786.733657627092
 40
1.7608271722151836
 50
164.10679224825958
 51
165.64770847531815
  0
ARC
  8
_0-0_FRF74-1101
  6
CONTINUOUS
 62
    7
 10
1647.0655138144007
 20
1786.7746232025988
 40
1.6112332602430499
 50
162.4227933461184
 51
164.10679224813632
  0
LINE
  8
_0-0_FRF74-1101
  6
CONTINUOUS
 62
    7
 10
1645.529507615852
 20
1787.2612006136374
 11
1645.5331019558362
 21
1787.2725470682201
  0
ARC
  8
_0-0_FRF74-1101
  6
CONTINUOUS
 62
    7
 10
1646.6665469507229
 20
1786.9134933536677
 40
1.1889563181075684
 50
158.99442488785479
 51
162.42279334618388
  0
LINE
  8
_0-0_FRF74-1101
  6
CONTINUOUS
 62
    7
 10
1645.5566020691208
 20
1787.3396851956511
 11
1645.5608935466305
 21
1787.350861626139
  0
ARC
  8
_0-0_FRF74-1101
  6
CONTINUOUS
 62
    7
 10
1647.1204556774455
 20
1786.7520276946245
 40
1.6705795752987063
 50
155.73338966801617
 51
158.99442488801421
  0
LINE
  8
_0-0_FRF74-1101
  6
CONTINUOUS
 62
    7
 10
1645.5974836088956
 20
1787.4386077670281
 11
1645.5975461976911
 21
1787.4387466015082
  0
ARC
  8
_0-0_FRF74-1101
  6
CONTINUOUS
 62
    7
 10
1647.1992645752143
 20
1786.7166664384356
 40
1.7569580310294308
 50
152.62267321950043
 51
155.73338966794333
  0
LINE
  8
_0-0_FRF74-1101
  6
CONTINUOUS
 62
    7
 10
1645.6390903644019
 20
1787.524600813688
 11
1645.6391546499251
 21
1787.5247249532449
  0
ARC
  8
_0-0_FRF74-1101
  6
CONTINUOUS
 62
    7
 10
1647.2751648156711
 20
1786.6775190181568
 40
1.8423591286372556
 50
149.64739628289061
 51
152.62267321944404
  0
LINE
  8
_0-0_FRF74-1101
  6
CONTINUOUS
 62
    7
 10
1645.6853342124693
 20
1787.608500120004
 11
1645.6853893620705
 21
1787.6085942986331
  0
ARC
  8
_0-0_FRF74-1101
  6
CONTINUOUS
 62
    7
 10
1647.3455744055809
 20
1786.636414685305
 40
1.9238886608287531
 50
146.79165444463933
 51
149.64739628288191
  0
LINE
  8
_0-0_FRF74-1101
  6
CONTINUOUS
 62
    7
 10
1645.7358864911143
 20
1787.6900998362328
 11
1645.735920873293
 21
1787.69015236101
  0
ARC
  8
_0-0_FRF74-1101
  6
CONTINUOUS
 62
    7
 10
1647.4067168952763
 20
1786.596463003664
 40
1.9969265778805523
 50
144.03655420504276
 51
146.7915711956814
  0
LINE
  8
_0-0_FRF74-1101
  6
CONTINUOUS
 62
    7
 10
1645.7904208349557
 20
1787.7691960520765
 11
1645.7904586211016
 21
1787.7692481300824
  0
ARC
  8
_0-0_FRF74-1101
  6
CONTINUOUS
 62
    7
 10
1647.4588432233627
 20
1786.558721291234
 40
2.0612817392668861
 50
141.37101418372058
 51
144.03655420491472
  0
LINE
  8
_0-0_FRF74-1101
  6
CONTINUOUS
 62
    7
 10
1645.8485601313193
 20
1787.845527714949
 11
1645.8486193004369
 21
1787.8456017579656
  0
ARC
  8
_0-0_FRF74-1101
  6
CONTINUOUS
 62
    7
 10
1647.4803237156823
 20
1786.5416771663752
 40
2.0887026210751314
 50
138.74565266883261
 51
141.37101418377117
  0
LINE
  8
_0-0_FRF74-1101
  6
CONTINUOUS
 62
    7
 10
1645.9100584373568
 20
1787.9189736467927
 11
1645.9101096709232
 21
1787.9190320585376
  0
ARC
  8
_0-0_FRF74-1101
  6
CONTINUOUS
 62
    7
 10
1647.4746641690153
 20
1786.5467445645836
 40
2.0811063748792789
 50
136.11498764572221
 51
138.74565266893396
  0
ARC
  8
_0-0_FRF74-1101
  6
CONTINUOUS
 62
    7
 10
1647.4706217706446
 20
1786.5506978125272
 40
2.0754524435178805
 50
133.47975241449478
 51
136.1162848639797
  0
ARC
  8
_0-0_FRF74-1101
  6
CONTINUOUS
 62
    7
 10
1647.4674654743553
 20
1786.5540493320573
 40
2.0708486803048451
 50
130.83954144817329
 51
133.48019262153213
  0
ARC
  8
_0-0_FRF74-1101
  6
CONTINUOUS
 62
    7
 10
1647.4650430488737
 20
1786.556828572948
 40
2.0671619346543704
 50
128.19378101188889
 51
130.83911996702309
  0
ARC
  8
_0-0_FRF74-1101
  6
CONTINUOUS
 62
    7
 10
1647.4633760844167
 20
1786.5588711271539
 40
2.0645259201776471
 50
125.54202874364873
 51
128.19247250987371
  0
ARC
  8
_0-0_FRF74-1101
  6
CONTINUOUS
 62
    7
 10
1647.4615581366124
 20
1786.5614158454914
 40
2.0613985369843482
 50
122.88625554233634
 51
125.54202874368552
  0
LINE
  8
_0-0_FRF74-1101
  6
CONTINUOUS
 62
    7
 10
1646.3422743450074
 20
1788.2924755562269
 11
1646.3423326238239
 21
1788.2925132386561
  0
ARC
  8
_0-0_FRF74-1101
  6
CONTINUOUS
 62
    7
 10
1647.4557139396618
 20
1786.5705821672075
 40
2.0505278757619712
 50
120.21253186816342
 51
122.88625554231876
  0
LINE
  8
_0-0_FRF74-1101
  6
CONTINUOUS
 62
    7
 10
1646.4238699176581
 20
1788.342576095959
 11
1646.4239253788312
 21
1788.3426083913741
  0
ARC
  8
_0-0_FRF74-1101
  6
CONTINUOUS
 62
    7
 10
1647.4359577537025
 20
1786.6045826782899
 40
2.0112043424597776
 50
117.48133485054353
 51
120.21175082074397
  0
LINE
  8
_0-0_FRF74-1101
  6
CONTINUOUS
 62
    7
 10
1646.5078681445598
 20
1788.3888451546457
 11
1646.5185105250703
 21
1788.3943808215665
  0
ARC
  8
_0-0_FRF74-1101
  6
CONTINUOUS
 62
    7
 10
1647.1953439206591
 20
1787.0931611779001
 40
1.4667228799082086
 50
114.67332587380253
 51
117.48133485042879
  0
LINE
  8
_0-0_FRF74-1101
  6
CONTINUOUS
 62
    7
 10
1646.5830691501355
 20
1788.42597609822
 11
1646.5939751611922
 21
1788.4309861527411
  0
ARC
  8
_0-0_FRF74-1101
  6
CONTINUOUS
 62
    7
 10
1647.3912290573312
 20
1786.6955040796329
 40
1.9098460149939633
 50
113.23658497997026
 51
114.6733258737537
  0
ARC
  8
_0-0_FRF74-1101
  6
CONTINUOUS
 62
    7
 10
1647.3826599664385
 20
1786.7154620616557
 40
1.8881261999590915
 50
111.78331848561535
 51
113.23658498002942
  0
LINE
  8
_0-0_FRF74-1101
  6
CONTINUOUS
 62
    7
 10
1646.6819810659842
 20
1788.4687645527936
 11
1646.6930628310847
 21
1788.4731932004597
  0
ARC
  8
_0-0_FRF74-1101
  6
CONTINUOUS
 62
    7
 10
1647.2027080746507
 20
1787.1979125054665
 40
1.3733459598046829
 50
108.79012587384136
 51
111.78331848564444
  0
LINE
  8
_0-0_FRF74-1101
  6
CONTINUOUS
 62
    7
 10
1646.760349840768
 20
1788.4980656957591
 11
1646.7815603892277
 21
1788.5052822767175
  0
ARC
  8
_0-0_FRF74-1101
  6
CONTINUOUS
 62
    7
 10
1647.2151191200849
 20
1787.2309920659166
 40
1.3460270110389958
 50
105.8727011843191
 51
108.79012587382786
  0
LINE
  8
_0-0_FRF74-1101
  6
CONTINUOUS
 62
    7
 10
1646.8469794378047
 20
1788.5256973948531
 11
1646.8570535545475
 21
1788.528561893866
  0
ARC
  8
_0-0_FRF74-1101
  6
CONTINUOUS
 62
    7
 10
1647.322950762082
 20
1786.8900544838652
 40
1.7034572905174881
 50
104.2715841502577
 51
105.87270118432849
  0
ARC
  8
_0-0_FRF74-1101
  6
CONTINUOUS
 62
    7
 10
1647.3131512446735
 20
1786.9285793397739
 40
1.6637056230779699
 50
102.63221606496563
 51
104.27158415031406
  0
LINE
  8
_0-0_FRF74-1101
  6
CONTINUOUS
 62
    7
 10
1646.9493122312906
 20
1788.5520132228135
 11
1646.953746081434
 21
1788.5530069236834
  0
ARC
  8
_0-0_FRF74-1101
  6
CONTINUOUS
 62
    7
 10
1647.2650256505497
 20
1787.1640909992975
 40
1.4233700907217484
 50
100.35040038734921
 51
102.63221606495559
  0
LINE
  8
_0-0_FRF74-1101
  6
CONTINUOUS
 62
    7
 10
1647.009292129756
 20
1788.5642991200798
 11
1647.0214383238069
 21
1788.5665174967073
  0
ARC
  8
_0-0_FRF74-1101
  6
CONTINUOUS
 62
    7
 10
1647.2791739134911
 20
1787.1553475234953
 40
1.4345132719791698
 50
98.483266329149998
 51
100.35040038742777
  0
ARC
  8
_0-0_FRF74-1101
  6
CONTINUOUS
 62
    7
 10
1647.5444897180116
 20
1785.3764266132343
 40
3.2331105256742259
 50
97.654259445314935
 51
98.483010808330178
  0
ARC
  8
_0-0_FRF74-1101
  6
CONTINUOUS
 62
    7
 10
1647.3667704748345
 20
1786.6988164487882
 40
1.8988320665169378
 50
96.242769783640355
 51
97.654259445407689
  0
LINE
  8
_0-0_FRF74-1101
  6
CONTINUOUS
 62
    7
 10
1647.1602887550061
 20
1788.5863885709095
 11
1647.1680643012537
 21
1788.5872391387597
  0
ARC
  8
_0-0_FRF74-1101
  6
CONTINUOUS
 62
    7
 10
1647.52379308896
 20
1785.3353108650481
 40
3.2713270193865873
 50
95.149471569506929
 51
96.242769783606121
  0
LINE
  8
_0-0_FRF74-1101
  6
CONTINUOUS
 62
    7
 10
1647.2301774645052
 20
1788.5934346092977
 11
1647.230213860767
 21
1788.5934378892566
  0
ARC
  8
_0-0_FRF74-1101
  6
CONTINUOUS
 62
    7
 10
1647.6399378371789
 20
1784.0469107124034
 40
4.5649515996021774
 50
94.365065401973339
 51
95.149471569521751
  0
LINE
  8
_0-0_FRF74-1101
  6
CONTINUOUS
 62
    7
 10
1647.2924944081351
 20
1788.5986209591485
 11
1647.2925274799425
 21
1788.5986234836023
  0
ARC
  8
_0-0_FRF74-1101
  6
CONTINUOUS
 62
    7
 10
1647.8144765091365
 20
1781.7607887575775
 40
6.8577266298320296
 50
93.842354564364243
 51
94.365065402004248
  0
LINE
  8
_0-0_FRF74-1101
  6
CONTINUOUS
 62
    7
 10
1647.3549300734578
 20
1788.6031006185615
 11
1647.4174297401019
 21
1788.6072982493652
  0
LINE
  8
_0-0_FRF74-1101
  6
CONTINUOUS
 62
    7
 10
1647.4174297401019
 20
1788.6072982493652
 11
1647.4193829161243
 21
1788.6074264225228
  0
LINE
  8
_0-0_FRF74-1101
  6
CONTINUOUS
 62
    7
 10
1715.4193834683986
 20
1788.6074264225228
 11
1715.4328173997339
 21
1788.6061151799549
  0
ARC
  8
_0-0_FRF74-1101
  6
CONTINUOUS
 62
    7
 10
1713.8444246452045
 20
1772.3327270831419
 40
16.350723277339711
 50
84.183703716586905
 51
84.425203450512825
  0
LINE
  8
_0-0_FRF74-1101
  6
CONTINUOUS
 62
    7
 10
1715.5013948564065
 20
1788.5992756233618
 11
1715.5118526615274
 21
1788.59821035303
  0
ARC
  8
_0-0_FRF74-1101
  6
CONTINUOUS
 62
    7
 10
1714.6086707567817
 20
1779.7316343609543
 40
8.9124579873518073
 50
83.875806936582876
 51
84.183703716601428
  0
LINE
  8
_0-0_FRF74-1101
  6
CONTINUOUS
 62
    7
 10
1715.5594867087507
 20
1788.5932288225508
 11
1715.5595131097698
 21
1788.59322598982
  0
ARC
  8
_0-0_FRF74-1101
  6
CONTINUOUS
 62
    7
 10
1714.8562217472384
 20
1782.0385580436596
 40
6.5922902412616509
 50
83.460007739021776
 51
83.875806936553161
  0
LINE
  8
_0-0_FRF74-1101
  6
CONTINUOUS
 62
    7
 10
1715.6070618244064
 20
1788.5879496034572
 11
1715.6070940196162
 21
1788.587945912511
  0
ARC
  8
_0-0_FRF74-1101
  6
CONTINUOUS
 62
    7
 10
1715.0277140879525
 20
1783.5341586284983
 40
5.0868897193927793
 50
82.921889637779373
 51
83.460007738960599
  0
LINE
  8
_0-0_FRF74-1101
  6
CONTINUOUS
 62
    7
 10
1715.6545325986185
 20
1788.5822816036198
 11
1715.654569142738
 21
1788.5822770659865
  0
ARC
  8
_0-0_FRF74-1101
  6
CONTINUOUS
 62
    7
 10
1715.1453299621671
 20
1784.4810867477904
 40
4.1326851524274408
 50
82.260547845056678
 51
82.921889637605716
  0
LINE
  8
_0-0_FRF74-1101
  6
CONTINUOUS
 62
    7
 10
1715.7018725342084
 20
1788.5761260558556
 11
1715.7019116461859
 21
1788.5761207402829
  0
ARC
  8
_0-0_FRF74-1101
  6
CONTINUOUS
 62
    7
 10
1715.2341388585398
 20
1785.1342493563936
 40
3.4735126319184619
 50
81.475008192650051
 51
82.260547844944227
  0
LINE
  8
_0-0_FRF74-1101
  6
CONTINUOUS
 62
    7
 10
1715.7490551332876
 20
1788.5693841767604
 11
1715.749094697645
 21
1788.5693782461835
  0
ARC
  8
_0-0_FRF74-1101
  6
CONTINUOUS
 62
    7
 10
1715.3056864017476
 20
1785.6112909773367
 40
2.9911354377534445
 50
80.564322948699996
 51
81.475008192526047
  0
LINE
  8
_0-0_FRF74-1101
  6
CONTINUOUS
 62
    7
 10
1715.7960538970183
 20
1788.5619571608561
 11
1715.7960914668674
 21
1788.5619509171704
  0
ARC
  8
_0-0_FRF74-1101
  6
CONTINUOUS
 62
    7
 10
1715.365998697813
 20
1785.9739731216066
 40
2.6234726719222845
 50
79.527680997699363
 51
80.564322948710554
  0
LINE
  8
_0-0_FRF74-1101
  6
CONTINUOUS
 62
    7
 10
1715.8428423227965
 20
1788.5537461770587
 11
1715.8428751289234
 21
1788.5537401131951
  0
ARC
  8
_0-0_FRF74-1101
  6
CONTINUOUS
 62
    7
 10
1715.4184918033211
 20
1786.2577826730699
 40
2.3348494113998401
 50
78.364539704542835
 51
79.527680997570613
  0
LINE
  8
_0-0_FRF74-1101
  6
CONTINUOUS
 62
    7
 10
1715.8893939004088
 20
1788.5446523652195
 11
1715.889418868667
 21
1788.5446472238664
  0
ARC
  8
_0-0_FRF74-1101
  6
CONTINUOUS
 62
    7
 10
1715.4652071559231
 20
1786.4845228053896
 40
2.1033469035880841
 50
77.074777521481209
 51
78.364539704456121
  0
ARC
  8
_0-0_FRF74-1101
  6
CONTINUOUS
 62
    7
 10
1715.5073971404954
 20
1786.668298837543
 40
1.9147902156321024
 50
75.658865740596227
 51
77.075200440951605
  0
ARC
  8
_0-0_FRF74-1101
  6
CONTINUOUS
 62
    7
 10
1715.5455227913835
 20
1786.8174279256962
 40
1.7608647460431381
 50
74.119139011191095
 51
75.65883679776357
  0
ARC
  8
_0-0_FRF74-1101
  6
CONTINUOUS
 62
    7
 10
1715.5864638718772
 20
1786.9613351344631
 40
1.6112470438584761
 50
72.436455516004202
 51
74.119139011220085
  0
LINE
  8
_0-0_FRF74-1101
  6
CONTINUOUS
 62
    7
 10
1716.0726791680322
 20
1788.4974704547155
 11
1716.0840154203147
 21
1788.4938823207876
  0
ARC
  8
_0-0_FRF74-1101
  6
CONTINUOUS
 62
    7
 10
1715.7252286819573
 20
1787.3603413038975
 40
1.1889672664094748
 50
69.010997464078926
 51
72.436455516083328
  0
LINE
  8
_0-0_FRF74-1101
  6
CONTINUOUS
 62
    7
 10
1716.1511033805355
 20
1788.4704196352345
 11
1716.1622696014706
 21
1788.4661357835091
  0
ARC
  8
_0-0_FRF74-1101
  6
CONTINUOUS
 62
    7
 10
1715.5639013297694
 20
1786.906438401169
 40
1.6705389887869999
 50
65.752772774862578
 51
69.010997464132842
  0
LINE
  8
_0-0_FRF74-1101
  6
CONTINUOUS
 62
    7
 10
1716.2499494750602
 20
1788.4296056458929
 11
1716.2500871014577
 21
1788.4295436577331
  0
ARC
  8
_0-0_FRF74-1101
  6
CONTINUOUS
 62
    7
 10
1715.5285777495567
 20
1786.8276452791374
 40
1.7568876344913706
 50
62.644767505069616
 51
65.752772774919109
  0
LINE
  8
_0-0_FRF74-1101
  6
CONTINUOUS
 62
    7
 10
1716.3358780858207
 20
1788.3880684035805
 11
1716.3360011925988
 21
1788.3880047130715
  0
ARC
  8
_0-0_FRF74-1101
  6
CONTINUOUS
 62
    7
 10
1715.4894651565508
 20
1786.7517432785291
 40
1.8422743396404986
 50
59.672132206031002
 51
62.644767505031183
  0
LINE
  8
_0-0_FRF74-1101
  6
CONTINUOUS
 62
    7
 10
1716.4197169907482
 20
1788.3419024741665
 11
1716.4198101581246
 21
1788.3418479707414
  0
ARC
  8
_0-0_FRF74-1101
  6
CONTINUOUS
 62
    7
 10
1715.4483911552093
 20
1786.6813182050194
 40
1.9238019602011494
 50
56.818994006947776
 51
59.672132206024649
  0
LINE
  8
_0-0_FRF74-1101
  6
CONTINUOUS
 62
    7
 10
1716.501260648846
 20
1788.2914361545631
 11
1716.5013122014373
 21
1788.2914024438958
  0
ARC
  8
_0-0_FRF74-1101
  6
CONTINUOUS
 62
    7
 10
1715.4084878474246
 20
1786.6201860777692
 40
1.9968047503779431
 50
54.066491667910242
 51
56.818943609758406
  0
LINE
  8
_0-0_FRF74-1101
  6
CONTINUOUS
 62
    7
 10
1716.5803047153217
 20
1788.2369960354461
 11
1716.5803531807887
 21
1788.2369609090842
  0
ARC
  8
_0-0_FRF74-1101
  6
CONTINUOUS
 62
    7
 10
1715.3706102989991
 20
1786.5678226750344
 40
2.061431610412372
 50
51.403575448238684
 51
54.066491667997113
  0
LINE
  8
_0-0_FRF74-1101
  6
CONTINUOUS
 62
    7
 10
1716.6565948832731
 20
1788.1789539339384
 11
1716.6566646266656
 21
1788.1788982656451
  0
ARC
  8
_0-0_FRF74-1101
  6
CONTINUOUS
 62
    7
 10
1715.3536778529726
 20
1786.5464660058058
 40
2.0886860978572761
 50
48.780287560936529
 51
51.403575448101606
  0
LINE
  8
_0-0_FRF74-1101
  6
CONTINUOUS
 62
    7
 10
1716.7300139796453
 20
1788.1175511345621
 11
1716.7300724256811
 21
1788.1174999333959
  0
ARC
  8
_0-0_FRF74-1101
  6
CONTINUOUS
 62
    7
 10
1715.3587539732657
 20
1786.5521424704721
 40
2.081071427093784
 50
46.151680667928709
 51
48.780287560932337
  0
LINE
  8
_0-0_FRF74-1101
  6
CONTINUOUS
 62
    7
 10
1716.8004195564911
 20
1788.0529617903135
 11
1716.800454179536
 21
1788.0529285319117
  0
ARC
  8
_0-0_FRF74-1101
  6
CONTINUOUS
 62
    7
 10
1715.3626737426066
 20
1786.5561537718386
 40
2.0754631452300227
 50
43.518622603422337
 51
46.151680667973665
  0
ARC
  8
_0-0_FRF74-1101
  6
CONTINUOUS
 62
    7
 10
1715.3659782347522
 20
1786.5592683744517
 40
2.0709222056752372
 50
40.880726946680163
 51
43.519089765564736
  0
ARC
  8
_0-0_FRF74-1101
  6
CONTINUOUS
 62
    7
 10
1715.3686995095545
 20
1786.5616428350149
 40
2.067310669065292
 50
38.23743640951713
 51
40.880332576526065
  0
ARC
  8
_0-0_FRF74-1101
  6
CONTINUOUS
 62
    7
 10
1715.3706756940956
 20
1786.5632587782111
 40
2.0647583278040909
 50
35.588320688252843
 51
38.236155960417086
  0
ARC
  8
_0-0_FRF74-1101
  6
CONTINUOUS
 62
    7
 10
1715.3730982730347
 20
1786.5649924275572
 40
2.0617793298564893
 50
32.935379331958579
 51
35.588320688211752
  0
LINE
  8
_0-0_FRF74-1101
  6
CONTINUOUS
 62
    7
 10
1717.1035172986908
 20
1787.6859670038391
 11
1717.1035625820759
 21
1787.6858971010665
  0
ARC
  8
_0-0_FRF74-1101
  6
CONTINUOUS
 62
    7
 10
1715.3828149993556
 20
1786.5711877365602
 40
2.0502558890919635
 50
30.26287993812651
 51
32.93537933183849
  0
LINE
  8
_0-0_FRF74-1101
  6
CONTINUOUS
 62
    7
 10
1717.1536666009411
 20
1787.6044514085809
 11
1717.1537080654298
 21
1787.6043803449613
  0
ARC
  8
_0-0_FRF74-1101
  6
CONTINUOUS
 62
    7
 10
1715.416484504085
 20
1786.5907735788096
 40
2.0113041486756797
 50
27.532213505653935
 51
30.262006946487215
  0
LINE
  8
_0-0_FRF74-1101
  6
CONTINUOUS
 62
    7
 10
1717.2000106367141
 20
1787.5204933821421
 11
1717.2055551931546
 21
1787.50985699334
  0
ARC
  8
_0-0_FRF74-1101
  6
CONTINUOUS
 62
    7
 10
1715.9050065119081
 20
1786.831904569751
 40
1.4666445925793734
 50
24.72450221320625
 51
27.532213505612933
  0
LINE
  8
_0-0_FRF74-1101
  6
CONTINUOUS
 62
    7
 10
1717.2372029088156
 20
1787.4453368162212
 11
1717.2422220471983
 21
1787.4344367076799
  0
ARC
  8
_0-0_FRF74-1101
  6
CONTINUOUS
 62
    7
 10
1715.5076762001283
 20
1786.6357358869559
 40
1.9096000357702003
 50
23.287826119298309
 51
24.724502213231087
  0
ARC
  8
_0-0_FRF74-1101
  6
CONTINUOUS
 62
    7
 10
1715.5276672833179
 20
1786.6443403726166
 40
1.88783583165935
 50
21.834588850839456
 51
23.287826119134284
  0
LINE
  8
_0-0_FRF74-1101
  6
CONTINUOUS
 62
    7
 10
1717.2800725416896
 20
1787.3464799155331
 11
1717.28451014538
 21
1787.335404510196
  0
ARC
  8
_0-0_FRF74-1101
  6
CONTINUOUS
 62
    7
 10
1716.0099806953763
 20
1786.8247363749661
 40
1.3730285005291456
 50
18.841266754327879
 51
21.834588850866588
  0
LINE
  8
_0-0_FRF74-1101
  6
CONTINUOUS
 62
    7
 10
1717.3094380803113
 20
1787.2681523963311
 11
1717.3166721324078
 21
1787.2469525705096
  0
ARC
  8
_0-0_FRF74-1101
  6
CONTINUOUS
 62
    7
 10
1716.0431868104188
 20
1786.8123990397153
 40
1.345585982554343
 50
15.923509185624242
 51
18.841266754234038
  0
LINE
  8
_0-0_FRF74-1101
  6
CONTINUOUS
 62
    7
 10
1717.3371410705595
 20
1787.1815656810982
 11
1717.340013962742
 21
1787.1714959980286
  0
ARC
  8
_0-0_FRF74-1101
  6
CONTINUOUS
 62
    7
 10
1715.7025497614823
 20
1786.7043255746344
 40
1.7028027527880494
 50
14.322137039071247
 51
15.92350918560563
  0
ARC
  8
_0-0_FRF74-1101
  6
CONTINUOUS
 62
    7
 10
1715.7411225475967
 20
1786.7141735275336
 40
1.6629926786241072
 50
12.682435111927807
 51
14.322137038875288
  0
LINE
  8
_0-0_FRF74-1101
  6
CONTINUOUS
 62
    7
 10
1717.3635413567049
 20
1787.0792787959276
 11
1717.3645466364953
 21
1787.074811632669
  0
ARC
  8
_0-0_FRF74-1101
  6
CONTINUOUS
 62
    7
 10
1715.9777864066245
 20
1786.7627384102173
 40
1.4214406886405713
 50
10.395130762308067
 51
12.682435111912639
  0
LINE
  8
_0-0_FRF74-1101
  6
CONTINUOUS
 62
    7
 10
1717.3758967170963
 20
1787.0192168519532
 11
1717.3781367326067
 21
1787.0070061228205
  0
ARC
  8
_0-0_FRF74-1101
  6
CONTINUOUS
 62
    7
 10
1715.967841957488
 20
1786.7482924836997
 40
1.4338284764203411
 50
8.5193736973941139
 51
10.39513076240819
  0
ARC
  8
_0-0_FRF74-1101
  6
CONTINUOUS
 62
    7
 10
1714.1899065836776
 20
1786.481978361242
 40
3.2315985966449174
 50
7.6865422459261392
 51
8.5191152399655667
  0
ARC
  8
_0-0_FRF74-1101
  6
CONTINUOUS
 62
    7
 10
1715.5115607857842
 20
1786.6603569225194
 40
1.8979611867506618
 50
6.2685539726200483
 51
7.6865422456223422
  0
LINE
  8
_0-0_FRF74-1101
  6
CONTINUOUS
 62
    7
 10
1717.3981741232765
 20
1786.8675929744234
 11
1717.3990317517666
 21
1786.8597853881781
  0
ARC
  8
_0-0_FRF74-1101
  6
CONTINUOUS
 62
    7
 10
1714.1486664854008
 20
1786.5027472756715
 40
3.269915989529466
 50
5.1702447026812814
 51
6.2685539726225432
  0
LINE
  8
_0-0_FRF74-1101
  6
CONTINUOUS
 62
    7
 10
1717.4052782735137
 20
1786.7974169892573
 11
1717.4052816081189
 21
1786.7973801360815
  0
ARC
  8
_0-0_FRF74-1101
  6
CONTINUOUS
 62
    7
 10
1712.8607221716584
 20
1786.3861723794803
 40
4.5631252766730892
 50
4.3822600558380032
 51
5.1702447026611926
  0
LINE
  8
_0-0_FRF74-1101
  6
CONTINUOUS
 62
    7
 10
1717.4105069609113
 20
1786.7348422263183
 11
1717.4105095276109
 21
1786.7348087335126
  0
ARC
  8
_0-0_FRF74-1101
  6
CONTINUOUS
 62
    7
 10
1710.5753867608537
 20
1786.2110034727013
 40
6.8551641255262963
 50
3.8571736650667692
 51
4.3822600557761504
  0
LINE
  8
_0-0_FRF74-1101
  6
CONTINUOUS
 62
    7
 10
1717.4150228351025
 20
1786.672147224403
 11
1717.419254244553
 21
1786.6093874003427
  0
LINE
  8
_0-0_FRF74-1101
  6
CONTINUOUS
 62
    7
 10
1717.419254244553
 20
1786.6093874003427
 11
1717.4193834469781
 21
1786.6074260946973
  0
LINE
  8
_0-0_FRF74-1101
  6
CONTINUOUS
 62
    7
 10
1647.4193829161243
 20
1758.60742523043
 11
1647.4059489796009
 21
1758.6087364797047
  0
ARC
  8
_0-0_FRF74-1101
  6
CONTINUOUS
 62
    7
 10
1648.994362714056
 20
1774.8822625716812
 40
16.350862657916473
 50
264.1836794675753
 51
264.42517725654329
  0
LINE
  8
_0-0_FRF74-1101
  6
CONTINUOUS
 62
    7
 10
1647.3373714936592
 20
1758.6155760697052
 11
1647.3269136850126
 21
1758.6166413448677
  0
ARC
  8
_0-0_FRF74-1101
  6
CONTINUOUS
 62
    7
 10
1648.2301071263964
 20
1767.4832933710572
 40
8.912534799151711
 50
263.87578518403291
 51
264.18367946760452
  0
LINE
  8
_0-0_FRF74-1101
  6
CONTINUOUS
 62
    7
 10
1647.2792796154786
 20
1758.6216228970115
 11
1647.2792532154945
 21
1758.6216257296414
  0
ARC
  8
_0-0_FRF74-1101
  6
CONTINUOUS
 62
    7
 10
1647.9825532093564
 20
1765.1763506598272
 40
6.5923478209030044
 50
263.45998938793281
 51
263.87578518414455
  0
LINE
  8
_0-0_FRF74-1101
  6
CONTINUOUS
 62
    7
 10
1647.2317044763549
 20
1758.6269021355683
 11
1647.2316722824564
 21
1758.6269058263749
  0
ARC
  8
_0-0_FRF74-1101
  6
CONTINUOUS
 62
    7
 10
1647.8110589895009
 20
1763.6807379055113
 40
5.0869349947101199
 50
262.92187574790773
 51
263.45998938792593
  0
LINE
  8
_0-0_FRF74-1101
  6
CONTINUOUS
 62
    7
 10
1647.1842336761069
 20
1758.6325701520691
 11
1647.1841971335336
 21
1758.6325746895193
  0
ARC
  8
_0-0_FRF74-1101
  6
CONTINUOUS
 62
    7
 10
1647.6934419345457
 20
1762.7338021418607
 40
4.1327226961408119
 50
262.26053951617217
 51
262.92187574801039
  0
LINE
  8
_0-0_FRF74-1101
  6
CONTINUOUS
 62
    7
 10
1647.1368937112611
 20
1758.6387257129823
 11
1647.1368546010538
 21
1758.6387310283205
  0
ARC
  8
_0-0_FRF74-1101
  6
CONTINUOUS
 62
    7
 10
1647.6046322414909
 20
1762.0806343696581
 40
3.4735449517750743
 50
261.47500658200386
 51
262.26053951628501
  0
LINE
  8
_0-0_FRF74-1101
  6
CONTINUOUS
 62
    7
 10
1647.0897110790554
 20
1758.6454676010019
 11
1647.0896715166443
 21
1758.6454735312884
  0
ARC
  8
_0-0_FRF74-1101
  6
CONTINUOUS
 62
    7
 10
1647.5330841307821
 20
1761.6035890410726
 40
2.9911640068043477
 50
260.56432927462794
 51
261.47500658215824
  0
LINE
  8
_0-0_FRF74-1101
  6
CONTINUOUS
 62
    7
 10
1647.042712277675
 20
1758.6528946208923
 11
1647.0426747099041
 21
1758.6529008642287
  0
ARC
  8
_0-0_FRF74-1101
  6
CONTINUOUS
 62
    7
 10
1647.4727714159146
 20
1761.24090411628
 40
2.623498429416165
 50
259.52769654063508
 51
260.56432927457092
  0
LINE
  8
_0-0_FRF74-1101
  6
CONTINUOUS
 62
    7
 10
1646.9959238090726
 20
1758.6611056030238
 11
1646.9958910051068
 21
1758.661111666479
  0
ARC
  8
_0-0_FRF74-1101
  6
CONTINUOUS
 62
    7
 10
1647.420277993506
 20
1760.9570924074862
 40
2.3348729899073488
 50
258.36456580585838
 51
259.527696540514
  0
LINE
  8
_0-0_FRF74-1101
  6
CONTINUOUS
 62
    7
 10
1646.9493721828103
 20
1758.6701994068299
 11
1646.9493472167387
 21
1758.6702045477209
  0
ARC
  8
_0-0_FRF74-1101
  6
CONTINUOUS
 62
    7
 10
1647.3735623966238
 20
1760.7303505548759
 40
2.103368747899709
 50
257.07481557741937
 51
258.36456580584098
  0
ARC
  8
_0-0_FRF74-1101
  6
CONTINUOUS
 62
    7
 10
1647.331372221277
 20
1760.5465731216725
 40
1.9148106517298278
 50
255.65891719395114
 51
257.07523842641427
  0
ARC
  8
_0-0_FRF74-1101
  6
CONTINUOUS
 62
    7
 10
1647.2932464095193
 20
1760.3974428377269
 40
1.7608839837637571
 50
254.11920528489327
 51
255.65888818297157
  0
ARC
  8
_0-0_FRF74-1101
  6
CONTINUOUS
 62
    7
 10
1647.2523053480904
 20
1760.2535350635196
 40
1.6112657429369999
 50
252.43653912991675
 51
254.11920528492004
  0
LINE
  8
_0-0_FRF74-1101
  6
CONTINUOUS
 62
    7
 10
1646.7660866510062
 20
1758.717381206327
 11
1646.7547503922692
 21
1758.7209693240973
  0
ARC
  8
_0-0_FRF74-1101
  6
CONTINUOUS
 62
    7
 10
1647.113539135973
 20
1759.8545224265638
 40
1.1889793937323443
 50
249.01111291400116
 51
252.43653912988398
  0
LINE
  8
_0-0_FRF74-1101
  6
CONTINUOUS
 62
    7
 10
1646.6876623303351
 20
1758.7444319144254
 11
1646.6764961024066
 21
1758.7487157430226
  0
ARC
  8
_0-0_FRF74-1101
  6
CONTINUOUS
 62
    7
 10
1647.2748647099029
 20
1760.308423398264
 40
1.6705487003544333
 50
245.7529050824615
 51
249.01111291398999
  0
LINE
  8
_0-0_FRF74-1101
  6
CONTINUOUS
 62
    7
 10
1646.588816093642
 20
1758.7852457144786
 11
1646.588678472111
 21
1758.7853077000641
  0
ARC
  8
_0-0_FRF74-1101
  6
CONTINUOUS
 62
    7
 10
1647.3101847005873
 20
1760.3872090229086
 40
1.7568890362972034
 50
242.64490067769515
 51
245.75290508241631
  0
LINE
  8
_0-0_FRF74-1101
  6
CONTINUOUS
 62
    7
 10
1646.5028873470831
 20
1758.826782777011
 11
1646.5027642480677
 21
1758.8268464631415
  0
ARC
  8
_0-0_FRF74-1101
  6
CONTINUOUS
 62
    7
 10
1647.3492923071926
 20
1760.4631017978277
 40
1.8422652564642412
 50
239.672249743734
 51
242.64490067772994
  0
LINE
  8
_0-0_FRF74-1101
  6
CONTINUOUS
 62
    7
 10
1646.419048321593
 20
1758.87294853401
 11
1646.418955164474
 21
1758.8730030311781
  0
ARC
  8
_0-0_FRF74-1101
  6
CONTINUOUS
 62
    7
 10
1647.3903596963846
 20
1760.533515875994
 40
1.9237800478265179
 50
236.81907883169549
 51
239.67224974368855
  0
LINE
  8
_0-0_FRF74-1101
  6
CONTINUOUS
 62
    7
 10
1646.3375045787861
 20
1758.9234147071966
 11
1646.3374530371502
 21
1758.9234484105914
  0
ARC
  8
_0-0_FRF74-1101
  6
CONTINUOUS
 62
    7
 10
1647.4302549629433
 20
1760.5946359019956
 40
1.9967683091542687
 50
234.06652751943966
 51
236.81902878712049
  0
LINE
  8
_0-0_FRF74-1101
  6
CONTINUOUS
 62
    7
 10
1646.2584604920958
 20
1758.9778547175015
 11
1646.2584120180072
 21
1758.9778898500658
  0
ARC
  8
_0-0_FRF74-1101
  6
CONTINUOUS
 62
    7
 10
1647.4681214208467
 20
1760.6469840896032
 40
2.0613763411311941
 50
231.40354171988355
 51
234.06652751939345
  0
LINE
  8
_0-0_FRF74-1101
  6
CONTINUOUS
 62
    7
 10
1646.1821703668538
 20
1759.0358967839275
 11
1646.1821006200539
 21
1759.0359524550076
  0
ARC
  8
_0-0_FRF74-1101
  6
CONTINUOUS
 62
    7
 10
1647.4850518258086
 20
1760.6683381830549
 40
2.0886275421219338
 50
228.7801823234328
 51
231.40354171987167
  0
LINE
  8
_0-0_FRF74-1101
  6
CONTINUOUS
 62
    7
 10
1646.1087513987445
 20
1759.0972996271394
 11
1646.1086929568864
 21
1759.0973508248353
  0
ARC
  8
_0-0_FRF74-1101
  6
CONTINUOUS
 62
    7
 10
1647.4799889587075
 20
1760.6626768598107
 40
2.0810329935834506
 50
226.15152861982941
 51
228.78018232339244
  0
LINE
  8
_0-0_FRF74-1101
  6
CONTINUOUS
 62
    7
 10
1646.0383460176531
 20
1759.161889083045
 11
1646.0383114038991
 21
1759.1619223326986
  0
ARC
  8
_0-0_FRF74-1101
  6
CONTINUOUS
 62
    7
 10
1647.4760833663165
 20
1760.6586803200803
 40
2.0754451784387928
 50
223.51844878855889
 51
226.15152861986653
  0
ARC
  8
_0-0_FRF74-1101
  6
CONTINUOUS
 62
    7
 10
1647.4727941998574
 20
1760.6555802658136
 40
2.0709253701138577
 50
220.88055723738557
 51
223.51891547720646
  0
ARC
  8
_0-0_FRF74-1101
  6
CONTINUOUS
 62
    7
 10
1647.4700892147475
 20
1760.6532198958303
 40
2.0673353718481002
 50
218.23729732530563
 51
220.88016235917664
  0
ARC
  8
_0-0_FRF74-1101
  6
CONTINUOUS
 62
    7
 10
1647.4681298006622
 20
1760.6516171536421
 40
2.0648043734888932
 50
215.5882387681277
 51
218.23601643368954
  0
ARC
  8
_0-0_FRF74-1101
  6
CONTINUOUS
 62
    7
 10
1647.4657257121985
 20
1760.6498967416735
 40
2.0618481159419932
 50
212.93538399289017
 51
215.58823876808364
  0
LINE
  8
_0-0_FRF74-1101
  6
CONTINUOUS
 62
    7
 10
1645.7352490466533
 20
1759.5288846261201
 11
1645.735203766402
 21
1759.5289545240425
  0
ARC
  8
_0-0_FRF74-1101
  6
CONTINUOUS
 62
    7
 10
1647.4560130128898
 20
1760.6437040333954
 40
2.0503294689878833
 50
210.26297889077455
 51
212.93538399281005
  0
LINE
  8
_0-0_FRF74-1101
  6
CONTINUOUS
 62
    7
 10
1645.6850996432763
 20
1759.6104002209938
 11
1645.685058188837
 21
1759.6104712671081
  0
ARC
  8
_0-0_FRF74-1101
  6
CONTINUOUS
 62
    7
 10
1647.422315192588
 20
1760.6241015842238
 40
2.0113449025115155
 50
207.53236809416546
 51
210.26210631253329
  0
LINE
  8
_0-0_FRF74-1101
  6
CONTINUOUS
 62
    7
 10
1645.6387554299654
 20
1759.6943581303553
 11
1645.6332108411902
 21
1759.7049945111744
  0
ARC
  8
_0-0_FRF74-1101
  6
CONTINUOUS
 62
    7
 10
1646.9337638468721
 20
1760.38295365153
 40
1.4666515320895035
 50
204.72467114499239
 51
207.53236809414497
  0
LINE
  8
_0-0_FRF74-1101
  6
CONTINUOUS
 62
    7
 10
1645.6015629552717
 20
1759.7695145746861
 11
1645.5965437832824
 21
1759.7804146716178
  0
ARC
  8
_0-0_FRF74-1101
  6
CONTINUOUS
 62
    7
 10
1647.3310760681622
 20
1760.5791154458798
 40
1.909587697409358
 50
203.28798679734646
 51
204.72467114501856
  0
ARC
  8
_0-0_FRF74-1101
  6
CONTINUOUS
 62
    7
 10
1647.3110765676911
 20
1760.5705072708176
 40
1.8878143031631818
 50
201.83473399817683
 51
203.28798679743312
  0
LINE
  8
_0-0_FRF74-1101
  6
CONTINUOUS
 62
    7
 10
1645.5586930721072
 20
1759.868371295644
 11
1645.5542554482963
 21
1759.8794466699314
  0
ARC
  8
_0-0_FRF74-1101
  6
CONTINUOUS
 62
    7
 10
1646.8287541039613
 20
1760.3901062137472
 40
1.372996719945593
 50
198.84134585551553
 51
201.83473399801127
  0
LINE
  8
_0-0_FRF74-1101
  6
CONTINUOUS
 62
    7
 10
1645.5293274088644
 20
1759.9466986618816
 11
1645.5220933379235
 21
1759.9678984471702
  0
ARC
  8
_0-0_FRF74-1101
  6
CONTINUOUS
 62
    7
 10
1646.7955312642966
 20
1760.4024377678663
 40
1.3455365374290369
 50
195.92348595213659
 51
198.84134585538737
  0
LINE
  8
_0-0_FRF74-1101
  6
CONTINUOUS
 62
    7
 10
1645.5016244023213
 20
1760.0332852166225
 11
1645.4987515179932
 21
1760.043354887639
  0
ARC
  8
_0-0_FRF74-1101
  6
CONTINUOUS
 62
    7
 10
1647.1361417498631
 20
1760.5105034894725
 40
1.7027256348625117
 50
194.32204418846413
 51
195.92348595208239
  0
ARC
  8
_0-0_FRF74-1101
  6
CONTINUOUS
 62
    7
 10
1647.0975627509524
 20
1760.5006540169888
 40
1.6629091650898096
 50
192.68226289495698
 51
194.3220441882612
  0
LINE
  8
_0-0_FRF74-1101
  6
CONTINUOUS
 62
    7
 10
1645.4752243204525
 20
1760.1355719600986
 11
1645.4742190519746
 21
1760.1400391357752
  0
ARC
  8
_0-0_FRF74-1101
  6
CONTINUOUS
 62
    7
 10
1646.8609025158325
 20
1760.45209070388
 40
1.4213610414294451
 50
190.39483310651175
 51
192.68226289480216
  0
LINE
  8
_0-0_FRF74-1101
  6
CONTINUOUS
 62
    7
 10
1645.4628692129763
 20
1760.195633896215
 11
1645.4606292586268
 21
1760.2078446493847
  0
ARC
  8
_0-0_FRF74-1101
  6
CONTINUOUS
 62
    7
 10
1646.870847136227
 20
1760.4665366092033
 40
1.4337489293380106
 50
188.518970876607
 51
190.39483310669763
  0
ARC
  8
_0-0_FRF74-1101
  6
CONTINUOUS
 62
    7
 10
1648.6486882067115
 20
1760.7328238186849
 40
3.2314217999517703
 50
187.68609312143451
 51
188.51871228215103
  0
ARC
  8
_0-0_FRF74-1101
  6
CONTINUOUS
 62
    7
 10
1647.32710581119
 20
1760.5544654970668
 40
1.8978582585174317
 50
186.26802669454079
 51
187.68609312162687
  0
LINE
  8
_0-0_FRF74-1101
  6
CONTINUOUS
 62
    7
 10
1645.4405928795704
 20
1760.3472580448467
 11
1645.4397353213885
 21
1760.3550656530315
  0
ARC
  8
_0-0_FRF74-1101
  6
CONTINUOUS
 62
    7
 10
1648.6899304090339
 20
1760.7120548005978
 40
3.2697414820185822
 50
185.16965758521033
 51
186.26802669456308
  0
LINE
  8
_0-0_FRF74-1101
  6
CONTINUOUS
 62
    7
 10
1645.4334893992313
 20
1760.4174341819905
 11
1645.4334860642057
 21
1760.4174710440168
  0
ARC
  8
_0-0_FRF74-1101
  6
CONTINUOUS
 62
    7
 10
1649.9778108993687
 20
1760.8286106255719
 40
4.5628854865094395
 50
184.38163042890721
 51
185.16965758536674
  0
LINE
  8
_0-0_FRF74-1101
  6
CONTINUOUS
 62
    7
 10
1645.4282613681639
 20
1760.4800090964413
 11
1645.4282588012873
 21
1760.4800425963863
  0
ARC
  8
_0-0_FRF74-1101
  6
CONTINUOUS
 62
    7
 10
1652.2630324047855
 20
1761.0037455505012
 40
6.8548081661871185
 50
183.85651591985328
 51
184.38163042880785
  0
LINE
  8
_0-0_FRF74-1101
  6
CONTINUOUS
 62
    7
 10
1645.423746190449
 20
1760.5427042577628
 11
1645.4195154935751
 21
1760.6054642475106
  0
LINE
  8
_0-0_FRF74-1101
  6
CONTINUOUS
 62
    7
 10
1645.4195154935751
 20
1760.6054642475106
 11
1645.419386313589
 21
1760.6074255582555
  0
LINE
  8
_0-0_FRF74-1101
  6
CONTINUOUS
 62
    7
 10
1647.4193829161243
 20
1788.6074264225228
 11
1715.4193834683986
 21
1788.6074264225228
  0
LINE
  8
_0-0_FRF74-1101
  6
CONTINUOUS
 62
    7
 10
1715.4193834683986
 20
1758.60742523043
 11
1647.4193829161243
 21
1758.60742523043
  0
LINE
  8
_0-0_FRF74-1101
  6
CONTINUOUS
 62
    7
 10
2245.4193580013825
 20
1760.6074255582555
 11
2245.4193580013825
 21
1765.6074254464968
  0
LINE
  8
_0-0_FRF74-1101
  6
CONTINUOUS
 62
    7
 10
2245.4193580013825
 20
1775.6074256886407
 11
2245.4193580013825
 21
1786.6074260946973
  0
LINE
  8
_0-0_FRF74-1101
  6
CONTINUOUS
 62
    7
 10
2317.4193847042634
 20
1786.6074260946973
 11
2317.4193847042634
 21
1760.6074255582555
  0
LINE
  8
_0-0_FRF74-1101
  6
CONTINUOUS
 62
    7
 10
2317.4193847042634
 20
1760.6074255582555
 11
2317.4180714947893
 21
1760.5939815046938
  0
ARC
  8
_0-0_FRF74-1101
  6
CONTINUOUS
 62
    7
 10
2301.1474690452865
 20
1762.1832870809562
 40
16.348039524190515
 50
354.17934801778011
 51
354.42107094352411
  0
LINE
  8
_0-0_FRF74-1101
  6
CONTINUOUS
 62
    7
 10
2317.4112216571916
 20
1760.5253524431462
 11
2317.4101547803812
 21
1760.5148867588457
  0
ARC
  8
_0-0_FRF74-1101
  6
CONTINUOUS
 62
    7
 10
2308.5451153860804
 20
1761.4185930699316
 40
8.9109824687967798
 50
353.8711664171185
 51
354.17934801779819
  0
LINE
  8
_0-0_FRF74-1101
  6
CONTINUOUS
 62
    7
 10
2317.4051657248042
 20
1760.4672169327046
 11
2317.4051628863926
 21
1760.4671904989243
  0
ARC
  8
_0-0_FRF74-1101
  6
CONTINUOUS
 62
    7
 10
2310.8516477032426
 20
1761.1708950741649
 40
6.5911881618563983
 50
353.45498213703308
 51
353.87116641710401
  0
LINE
  8
_0-0_FRF74-1101
  6
CONTINUOUS
 62
    7
 10
2317.3998784824662
 20
1760.4196061503692
 11
2317.3998747843698
 21
1760.4195739177737
  0
ARC
  8
_0-0_FRF74-1101
  6
CONTINUOUS
 62
    7
 10
2312.3469921209339
 20
1760.9992991758254
 40
5.0860303366451358
 50
352.91636502482044
 51
353.45498213705395
  0
LINE
  8
_0-0_FRF74-1101
  6
CONTINUOUS
 62
    7
 10
2317.3942018098119
 20
1760.3720998918916
 11
2317.3941972638481
 21
1760.3720633095277
  0
ARC
  8
_0-0_FRF74-1101
  6
CONTINUOUS
 62
    7
 10
2313.2937555464014
 20
1760.8816110136131
 40
4.1319802929003684
 50
352.25440919355532
 51
352.91636502478332
  0
LINE
  8
_0-0_FRF74-1101
  6
CONTINUOUS
 62
    7
 10
2317.3880367745896
 20
1760.3247247007801
 11
2317.3880314500643
 21
1760.32468555436
  0
ARC
  8
_0-0_FRF74-1101
  6
CONTINUOUS
 62
    7
 10
2313.9468009354246
 20
1760.7927467514623
 40
3.472916460141148
 50
351.46813952701007
 51
352.25440919342509
  0
LINE
  8
_0-0_FRF74-1101
  6
CONTINUOUS
 62
    7
 10
2317.3812844282638
 20
1760.2775071212573
 11
2317.3812784890611
 21
1760.2774675317278
  0
ARC
  8
_0-0_FRF74-1101
  6
CONTINUOUS
 62
    7
 10
2314.4237522932071
 20
1760.7211542481252
 40
2.9906218586557891
 50
350.55660775939901
 51
351.46813952708749
  0
LINE
  8
_0-0_FRF74-1101
  6
CONTINUOUS
 62
    7
 10
2317.3738458001485
 20
1760.2304736985079
 11
2317.3738395496662
 21
1760.230436119054
  0
ARC
  8
_0-0_FRF74-1101
  6
CONTINUOUS
 62
    7
 10
2314.7863601558574
 20
1760.6608041084394
 40
2.6230261568791455
 50
349.51900297282663
 51
350.55660775937423
  0
LINE
  8
_0-0_FRF74-1101
  6
CONTINUOUS
 62
    7
 10
2317.3656218938618
 20
1760.1836509815103
 11
2317.3656158272697
 21
1760.1836181884114
  0
ARC
  8
_0-0_FRF74-1101
  6
CONTINUOUS
 62
    7
 10
2315.0701049578092
 20
1760.6082785371907
 40
2.334460657975562
 50
348.35478382778484
 51
349.51900297289853
  0
LINE
  8
_0-0_FRF74-1101
  6
CONTINUOUS
 62
    7
 10
2317.3565136838611
 20
1760.1370655268975
 11
2317.3565085470118
 21
1760.1370406019973
  0
ARC
  8
_0-0_FRF74-1101
  6
CONTINUOUS
 62
    7
 10
2315.2967857477165
 20
1760.5615352120687
 40
2.1030106238238533
 50
347.06383160583829
 51
348.35478382774284
  0
ARC
  8
_0-0_FRF74-1101
  6
CONTINUOUS
 62
    7
 10
2315.4805050962477
 20
1760.5193213726332
 40
1.9145038413258018
 50
345.6466224021915
 51
347.06425209361504
  0
ARC
  8
_0-0_FRF74-1101
  6
CONTINUOUS
 62
    7
 10
2315.6295778637627
 20
1760.4811763190605
 40
1.7606281280845408
 50
344.10549962352462
 51
345.64658913404963
  0
ARC
  8
_0-0_FRF74-1101
  6
CONTINUOUS
 62
    7
 10
2315.773447698426
 20
1760.4402088483139
 40
1.6110391479239561
 50
342.42129950470797
 51
344.10549962336131
  0
LINE
  8
_0-0_FRF74-1101
  6
CONTINUOUS
 62
    7
 10
2317.3092561623298
 20
1759.9536500149281
 11
2317.3056614546285
 21
1759.9423034271481
  0
ARC
  8
_0-0_FRF74-1101
  6
CONTINUOUS
 62
    7
 10
2316.1723442202956
 20
1760.3013491834056
 40
1.1888321196545466
 50
338.99255241644755
 51
342.42129950482911
  0
LINE
  8
_0-0_FRF74-1101
  6
CONTINUOUS
 62
    7
 10
2317.28215922956
 20
1759.8751655915889
 11
2317.277867285065
 21
1759.8639890364357
  0
ARC
  8
_0-0_FRF74-1101
  6
CONTINUOUS
 62
    7
 10
2315.7184082708091
 20
1760.4628418528396
 40
1.6704900816402732
 50
335.73130841766312
 51
338.99255241647052
  0
LINE
  8
_0-0_FRF74-1101
  6
CONTINUOUS
 62
    7
 10
2317.2412738136336
 20
1759.7762432427794
 11
2317.2412111891863
 21
1759.7761043426835
  0
ARC
  8
_0-0_FRF74-1101
  6
CONTINUOUS
 62
    7
 10
2315.6395151960073
 20
1760.4982444211964
 40
1.7569622498964277
 50
332.62056209206298
 51
335.73130841757643
  0
LINE
  8
_0-0_FRF74-1101
  6
CONTINUOUS
 62
    7
 10
2317.1996633827812
 20
1759.6902506199417
 11
2317.1995990516939
 21
1759.6901264036051
  0
ARC
  8
_0-0_FRF74-1101
  6
CONTINUOUS
 62
    7
 10
2315.5635139946821
 20
1760.5374475719393
 40
1.8424786229651346
 50
329.64543687924788
 51
332.62056209204627
  0
LINE
  8
_0-0_FRF74-1101
  6
CONTINUOUS
 62
    7
 10
2317.1534158726317
 20
1759.606351715126
 11
2317.1533606651064
 21
1759.6062574449729
  0
ARC
  8
_0-0_FRF74-1101
  6
CONTINUOUS
 62
    7
 10
2315.4929864245059
 20
1760.578624103332
 40
1.9241464437869238
 50
326.79003162399903
 51
329.64543687928574
  0
LINE
  8
_0-0_FRF74-1101
  6
CONTINUOUS
 62
    7
 10
2317.1028601732273
 20
1759.5247521707352
 11
2317.1028257319549
 21
1759.5246995589343
  0
ARC
  8
_0-0_FRF74-1101
  6
CONTINUOUS
 62
    7
 10
2315.4317172237329
 20
1760.6186611770249
 40
1.9973371443268162
 50
324.03544267257303
 51
326.78994608016427
  0
LINE
  8
_0-0_FRF74-1101
  6
CONTINUOUS
 62
    7
 10
2317.0483228372941
 20
1759.4456556534612
 11
2317.0482845860324
 21
1759.4456029365706
  0
ARC
  8
_0-0_FRF74-1101
  6
CONTINUOUS
 62
    7
 10
2315.3794633793464
 20
1760.6564959811467
 40
2.0618501849766435
 50
321.37062805393839
 51
324.03544267255268
  0
LINE
  8
_0-0_FRF74-1101
  6
CONTINUOUS
 62
    7
 10
2316.9901818693597
 20
1759.3693238360092
 11
2316.9901220775027
 21
1759.3692490147437
  0
ARC
  8
_0-0_FRF74-1101
  6
CONTINUOUS
 62
    7
 10
2315.3579267833265
 20
1760.6735839007681
 40
2.089342234587833
 50
318.74611550920713
 51
321.37062805392952
  0
LINE
  8
_0-0_FRF74-1101
  6
CONTINUOUS
 62
    7
 10
2316.9286840458308
 20
1759.2958783460424
 11
2316.9286326680344
 21
1759.2958197689052
  0
ARC
  8
_0-0_FRF74-1101
  6
CONTINUOUS
 62
    7
 10
2315.3637165218797
 20
1760.6684021014562
 40
2.0815726756772346
 50
316.11609737349545
 51
318.74611550917689
  0
ARC
  8
_0-0_FRF74-1101
  6
CONTINUOUS
 62
    7
 10
2315.3678861099665
 20
1760.6643265374598
 40
2.0757422843537094
 50
313.4812934746638
 51
316.11739718387327
  0
ARC
  8
_0-0_FRF74-1101
  6
CONTINUOUS
 62
    7
 10
2315.3711638175773
 20
1760.6608470113047
 40
2.0709620948022485
 50
310.84129686096469
 51
313.48173674263268
  0
ARC
  8
_0-0_FRF74-1101
  6
CONTINUOUS
 62
    7
 10
2315.3737002624907
 20
1760.6579358927802
 40
2.0671010152680838
 50
308.19553385576779
 51
310.84087808441132
  0
ARC
  8
_0-0_FRF74-1101
  6
CONTINUOUS
 62
    7
 10
2315.3754707882763
 20
1760.6557617470933
 40
2.0642975440820521
 50
305.5435671570761
 51
308.19422688774489
  0
ARC
  8
_0-0_FRF74-1101
  6
CONTINUOUS
 62
    7
 10
2315.3773878005081
 20
1760.6530785131442
 40
2.0609998660623816
 50
302.88735937463872
 51
305.54356715708485
  0
LINE
  8
_0-0_FRF74-1101
  6
CONTINUOUS
 62
    7
 10
2316.4964884676456
 20
1758.9223751460931
 11
2316.4964296388939
 21
1758.922337106475
  0
ARC
  8
_0-0_FRF74-1101
  6
CONTINUOUS
 62
    7
 10
2315.3832815697087
 20
1760.6438347053422
 40
2.0500372208416024
 50
300.21303874814203
 51
302.88735937461564
  0
LINE
  8
_0-0_FRF74-1101
  6
CONTINUOUS
 62
    7
 10
2316.4148943623054
 20
1758.8722739096065
 11
2316.4148381264063
 21
1758.8722411623967
  0
ARC
  8
_0-0_FRF74-1101
  6
CONTINUOUS
 62
    7
 10
2315.4029595004076
 20
1760.6099680251339
 40
2.0108687185470204
 50
297.48136318858224
 51
300.21224988340441
  0
LINE
  8
_0-0_FRF74-1101
  6
CONTINUOUS
 62
    7
 10
2316.3308951149984
 20
1758.8260037602438
 11
2316.3202526942555
 21
1758.8204680657082
  0
ARC
  8
_0-0_FRF74-1101
  6
CONTINUOUS
 62
    7
 10
2315.6434945311253
 20
1760.1215415022834
 40
1.4665584539066865
 50
294.67301195176549
 51
297.48136318858826
  0
LINE
  8
_0-0_FRF74-1101
  6
CONTINUOUS
 62
    7
 10
2316.2556933613414
 20
1758.7888726420606
 11
2316.2447872473117
 21
1758.7838626125999
  0
ARC
  8
_0-0_FRF74-1101
  6
CONTINUOUS
 62
    7
 10
2315.4476016992026
 20
1760.5192209689862
 40
1.9097050618339297
 50
293.23614883633502
 51
294.67301195175276
  0
ARC
  8
_0-0_FRF74-1101
  6
CONTINUOUS
 62
    7
 10
2315.4561577939348
 20
1760.4992928374509
 40
1.8880178032805506
 50
291.78278254009149
 51
293.23614883632541
  0
LINE
  8
_0-0_FRF74-1101
  6
CONTINUOUS
 62
    7
 10
2316.1567800691482
 20
1758.7460844491013
 11
2316.1456980949888
 21
1758.741655838104
  0
ARC
  8
_0-0_FRF74-1101
  6
CONTINUOUS
 62
    7
 10
2315.6360745934185
 20
1760.0169167446693
 40
1.3733195160509233
 50
288.78949476720607
 51
291.78278254020256
  0
LINE
  8
_0-0_FRF74-1101
  6
CONTINUOUS
 62
    7
 10
2316.0784099889065
 20
1758.7167837164507
 11
2316.0571990657691
 21
1758.7095672686942
  0
ARC
  8
_0-0_FRF74-1101
  6
CONTINUOUS
 62
    7
 10
2315.6236444196807
 20
1759.9838915047148
 40
1.3460579072444161
 50
285.87209587643969
 51
288.78949476711051
  0
LINE
  8
_0-0_FRF74-1101
  6
CONTINUOUS
 62
    7
 10
2315.9917788737043
 20
1758.6891525683204
 11
2315.9817045869681
 21
1758.6862881360069
  0
ARC
  8
_0-0_FRF74-1101
  6
CONTINUOUS
 62
    7
 10
2315.5158021239813
 20
1760.3248798320483
 40
1.7035398003429991
 50
284.27103363265547
 51
285.87209587647823
  0
ARC
  8
_0-0_FRF74-1101
  6
CONTINUOUS
 62
    7
 10
2315.5255956347291
 20
1760.2863770416375
 40
1.6638109981690619
 50
282.63174606863106
 51
284.27103363286164
  0
LINE
  8
_0-0_FRF74-1101
  6
CONTINUOUS
 62
    7
 10
2315.8894443749382
 20
1758.6628373495214
 11
2315.885011229796
 21
1758.6618438448456
  0
ARC
  8
_0-0_FRF74-1101
  6
CONTINUOUS
 62
    7
 10
2315.5737127664029
 20
1760.0508974695038
 40
1.4235085898886357
 50
280.35018393035648
 51
282.631746068594
  0
LINE
  8
_0-0_FRF74-1101
  6
CONTINUOUS
 62
    7
 10
2315.8294658806672
 20
1758.6505521370837
 11
2315.8173210171935
 21
1758.6483340508846
  0
ARC
  8
_0-0_FRF74-1101
  6
CONTINUOUS
 62
    7
 10
2315.5595711878027
 20
1760.0596121561794
 40
1.4346222028936255
 50
278.48334521004443
 51
280.35018393026451
  0
ARC
  8
_0-0_FRF74-1101
  6
CONTINUOUS
 62
    7
 10
2315.2942342051492
 20
1761.8386580792333
 40
3.2333462258073675
 50
277.65446791406879
 51
278.48309020590557
  0
ARC
  8
_0-0_FRF74-1101
  6
CONTINUOUS
 62
    7
 10
2315.4719716527002
 20
1760.5161692379465
 40
1.8989672183322819
 50
276.2431964417209
 51
277.65446791396204
  0
LINE
  8
_0-0_FRF74-1101
  6
CONTINUOUS
 62
    7
 10
2315.6784821260976
 20
1758.628464303197
 11
2315.6707072608842
 21
1758.6276137512561
  0
ARC
  8
_0-0_FRF74-1101
  6
CONTINUOUS
 62
    7
 10
2315.314930049336
 20
1761.8797606611108
 40
3.2715496248007607
 50
275.15006473296603
 51
276.2431964417089
  0
LINE
  8
_0-0_FRF74-1101
  6
CONTINUOUS
 62
    7
 10
2315.6085993860925
 20
1758.6214182499789
 11
2315.6085630240968
 21
1758.6214149727284
  0
ARC
  8
_0-0_FRF74-1101
  6
CONTINUOUS
 62
    7
 10
2315.1987652745547
 20
1763.1682342016481
 40
4.5652490946282374
 50
274.3657765596314
 51
275.15006473300679
  0
LINE
  8
_0-0_FRF74-1101
  6
CONTINUOUS
 62
    7
 10
2315.5462878459448
 20
1758.6162316359218
 11
2315.5462548014389
 21
1758.6162291131395
  0
ARC
  8
_0-0_FRF74-1101
  6
CONTINUOUS
 62
    7
 10
2315.0241880015301
 20
1765.4544882890184
 40
6.8581588126886297
 50
273.84314363925427
 51
274.36577655968625
  0
LINE
  8
_0-0_FRF74-1101
  6
CONTINUOUS
 62
    7
 10
2315.4838576363281
 20
1758.6117515465371
 11
2315.4213634581997
 21
1758.6075534198053
  0
LINE
  8
_0-0_FRF74-1101
  6
CONTINUOUS
 62
    7
 10
2315.4213634581997
 20
1758.6075534198053
 11
2315.4194104534699
 21
1758.60742523043
  0
LINE
  8
_0-0_FRF74-1101
  6
CONTINUOUS
 62
    7
 10
2245.4193580013825
 20
1786.6074260946973
 11
2245.4206712135051
 21
1786.6208701289415
  0
ARC
  8
_0-0_FRF74-1101
  6
CONTINUOUS
 62
    7
 10
2261.6912728694824
 20
1785.031559142004
 40
16.348039260433872
 50
174.17932920805228
 51
174.42105179991705
  0
LINE
  8
_0-0_FRF74-1101
  6
CONTINUOUS
 62
    7
 10
2245.4275210642613
 20
1786.6894990923197
 11
2245.4285879430072
 21
1786.6999647615548
  0
ARC
  8
_0-0_FRF74-1101
  6
CONTINUOUS
 62
    7
 10
2254.2936270256887
 20
1785.7962555416339
 40
8.9109824537833386
 50
173.87114803628276
 51
174.17932920781803
  0
LINE
  8
_0-0_FRF74-1101
  6
CONTINUOUS
 62
    7
 10
2245.4335770071002
 20
1786.7476345196164
 11
2245.4335798455077
 21
1786.747660953283
  0
ARC
  8
_0-0_FRF74-1101
  6
CONTINUOUS
 62
    7
 10
2251.9870948354578
 20
1786.0439542721529
 40
6.5911881945948814
 50
173.45496433723977
 51
173.8711480363832
  0
LINE
  8
_0-0_FRF74-1101
  6
CONTINUOUS
 62
    7
 10
2245.438864257108
 20
1786.7952452339864
 11
2245.4388679551976
 21
1786.7952774664288
  0
ARC
  8
_0-0_FRF74-1101
  6
CONTINUOUS
 62
    7
 10
2250.4917505406188
 20
1786.2155506269005
 40
5.0860304394020197
 50
172.9163479822719
 51
173.45496433714106
  0
LINE
  8
_0-0_FRF74-1101
  6
CONTINUOUS
 62
    7
 10
2245.4445409363279
 20
1786.842751424791
 11
2245.4445454822794
 21
1786.8427880069685
  0
ARC
  8
_0-0_FRF74-1101
  6
CONTINUOUS
 62
    7
 10
2249.5449871966089
 20
1786.3332390647761
 40
4.1319804424876612
 50
172.25439308877577
 51
172.91634798238371
  0
LINE
  8
_0-0_FRF74-1101
  6
CONTINUOUS
 62
    7
 10
2245.4507059767284
 20
1786.8901265485965
 11
2245.4507113012378
 21
1786.8901656948151
  0
ARC
  8
_0-0_FRF74-1101
  6
CONTINUOUS
 62
    7
 10
2248.8919418692294
 20
1786.4221035053049
 40
3.4729166467581458
 50
171.4681245451637
 51
172.25439308880297
  0
LINE
  8
_0-0_FRF74-1101
  6
CONTINUOUS
 62
    7
 10
2245.4574583265648
 20
1786.9373440612537
 11
2245.4574642657471
 21
1786.937383650577
  0
ARC
  8
_0-0_FRF74-1101
  6
CONTINUOUS
 62
    7
 10
2248.4149905581294
 20
1786.4936961289502
 40
2.9906220735789955
 50
170.55659408999185
 51
171.46812454520133
  0
LINE
  8
_0-0_FRF74-1101
  6
CONTINUOUS
 62
    7
 10
2245.4648969562422
 20
1786.9843774176527
 11
2245.4649032067
 21
1786.9844149969038
  0
ARC
  8
_0-0_FRF74-1101
  6
CONTINUOUS
 62
    7
 10
2248.0523827334187
 20
1786.5540463510217
 40
2.6230263957013129
 50
169.51899081075939
 51
170.55659408992963
  0
LINE
  8
_0-0_FRF74-1101
  6
CONTINUOUS
 62
    7
 10
2245.4731208618609
 20
1787.0312000688896
 11
2245.4731269284271
 21
1787.0312328618079
  0
ARC
  8
_0-0_FRF74-1101
  6
CONTINUOUS
 62
    7
 10
2247.7686379615425
 20
1786.6065719788151
 40
2.3344609160784104
 50
168.35477337308845
 51
169.5189908108801
  0
LINE
  8
_0-0_FRF74-1101
  6
CONTINUOUS
 62
    7
 10
2245.482229068682
 20
1787.0777854584051
 11
2245.4822342055045
 21
1787.0778103831501
  0
ARC
  8
_0-0_FRF74-1101
  6
CONTINUOUS
 62
    7
 10
2247.5419571858579
 20
1786.6533153439671
 40
2.103010887772041
 50
167.06382305696411
 51
168.35477337310189
  0
ARC
  8
_0-0_FRF74-1101
  6
CONTINUOUS
 62
    7
 10
2247.3582378479232
 20
1786.6955292097057
 40
1.9145041097112114
 50
165.64661596059614
 51
167.0642435411394
  0
ARC
  8
_0-0_FRF74-1101
  6
CONTINUOUS
 62
    7
 10
2247.209165078305
 20
1786.7336742816281
 40
1.7606283898836672
 50
164.10549548368337
 51
165.64658269101236
  0
ARC
  8
_0-0_FRF74-1101
  6
CONTINUOUS
 62
    7
 10
2247.0652952093083
 20
1786.7746417733956
 40
1.6110393709453696
 50
162.42129786319541
 51
164.10549548374107
  0
LINE
  8
_0-0_FRF74-1101
  6
CONTINUOUS
 62
    7
 10
2245.5294865467376
 20
1787.2612007181383
 11
2245.533081258809
 21
1787.2725473185822
  0
ARC
  8
_0-0_FRF74-1101
  6
CONTINUOUS
 62
    7
 10
2246.6663981885636
 20
1786.9135016230871
 40
1.1888318109478757
 50
158.99255166273414
 51
162.4212978631941
  0
LINE
  8
_0-0_FRF74-1101
  6
CONTINUOUS
 62
    7
 10
2245.5565834730933
 20
1787.339685118835
 11
2245.5608754236018
 21
1787.3508616892086
  0
ARC
  8
_0-0_FRF74-1101
  6
CONTINUOUS
 62
    7
 10
2247.1203345456897
 20
1786.7520088078554
 40
1.6704902055887598
 50
155.73130804938032
 51
158.9925516627236
  0
LINE
  8
_0-0_FRF74-1101
  6
CONTINUOUS
 62
    7
 10
2245.5974688942838
 20
1787.4386074786489
 11
2245.5975315199057
 21
1787.4387463813478
  0
ARC
  8
_0-0_FRF74-1101
  6
CONTINUOUS
 62
    7
 10
2247.199227695924
 20
1786.7166062080148
 40
1.7569624555507268
 50
152.62056203831639
 51
155.73130804938302
  0
LINE
  8
_0-0_FRF74-1101
  6
CONTINUOUS
 62
    7
 10
2245.6390793272908
 20
1787.5246001053094
 11
2245.6391436582353
 21
1787.524724321368
  0
ARC
  8
_0-0_FRF74-1101
  6
CONTINUOUS
 62
    7
 10
2247.2752288535567
 20
1786.6774030794581
 40
1.842478779617972
 50
149.64543705063696
 51
152.62056203831699
  0
LINE
  8
_0-0_FRF74-1101
  6
CONTINUOUS
 62
    7
 10
2245.6853268376435
 20
1787.6084990106801
 11
2245.6853820449483
 21
1787.6085932804563
  0
ARC
  8
_0-0_FRF74-1101
  6
CONTINUOUS
 62
    7
 10
2247.3457563583356
 20
1786.6362265861405
 40
1.9241465247664513
 50
146.79003191497242
 51
149.64543705065046
  0
LINE
  8
_0-0_FRF74-1101
  6
CONTINUOUS
 62
    7
 10
2245.7358825365091
 20
1787.6900985549146
 11
2245.7359169774791
 21
1787.690151166255
  0
ARC
  8
_0-0_FRF74-1101
  6
CONTINUOUS
 62
    7
 10
2247.4070254514336
 20
1786.5961895835026
 40
1.9973370963009172
 50
144.0354429659302
 51
146.78994638989764
  0
LINE
  8
_0-0_FRF74-1101
  6
CONTINUOUS
 62
    7
 10
2245.7904198707374
 20
1787.7691950705839
 11
2245.7904581224166
 21
1787.7692477880505
  0
ARC
  8
_0-0_FRF74-1101
  6
CONTINUOUS
 62
    7
 10
2247.4592791819441
 20
1786.5583548633008
 40
2.0618499954971146
 50
141.37062820857804
 51
144.03544296603653
  0
LINE
  8
_0-0_FRF74-1101
  6
CONTINUOUS
 62
    7
 10
2245.8485608364786
 20
1787.8455268858029
 11
2245.848620628653
 21
1787.8456017074666
  0
ARC
  8
_0-0_FRF74-1101
  6
CONTINUOUS
 62
    7
 10
2247.4808156899321
 20
1786.541267014773
 40
2.0893419319556101
 50
138.7461154163247
 51
141.37062820851466
  0
LINE
  8
_0-0_FRF74-1101
  6
CONTINUOUS
 62
    7
 10
2245.9100586571785
 20
1787.9189723724905
 11
2245.9101100349767
 21
1787.9190309496289
  0
ARC
  8
_0-0_FRF74-1101
  6
CONTINUOUS
 62
    7
 10
2247.4750259699813
 20
1786.5464487977943
 40
2.0815723977722191
 50
136.11609706288218
 51
138.74611541640655
  0
ARC
  8
_0-0_FRF74-1101
  6
CONTINUOUS
 62
    7
 10
2247.4708564729026
 20
1786.5505242734912
 40
2.0757421332513863
 50
133.48129307357667
 51
136.1173968571745
  0
ARC
  8
_0-0_FRF74-1101
  6
CONTINUOUS
 62
    7
 10
2247.4675789188682
 20
1786.5540036360758
 40
2.0709621680647277
 50
130.8412965909379
 51
133.48173630959582
  0
ARC
  8
_0-0_FRF74-1101
  6
CONTINUOUS
 62
    7
 10
2247.4650426834596
 20
1786.5569145096672
 40
2.0671014108374166
 50
128.19553403538643
 51
130.84087776732682
  0
ARC
  8
_0-0_FRF74-1101
  6
CONTINUOUS
 62
    7
 10
2247.4632724102617
 20
1786.5590883307236
 40
2.0642983509670545
 50
125.54356819341372
 51
128.1942270063721
  0
ARC
  8
_0-0_FRF74-1101
  6
CONTINUOUS
 62
    7
 10
2247.4613556502522
 20
1786.5617712115338
 40
2.0610011069095693
 50
122.88736182975003
 51
125.54356819339675
  0
LINE
  8
_0-0_FRF74-1101
  6
CONTINUOUS
 62
    7
 10
2246.3422542351877
 20
1788.2924755726199
 11
2246.3423130661113
 21
1788.2925136136462
  0
ARC
  8
_0-0_FRF74-1101
  6
CONTINUOUS
 62
    7
 10
2247.4554620166923
 20
1786.5710148134679
 40
2.0500387082187563
 50
120.21304281745273
 51
122.88736182972221
  0
LINE
  8
_0-0_FRF74-1101
  6
CONTINUOUS
 62
    7
 10
2246.4238483498011
 20
1788.3425768212671
 11
2246.4239045874365
 21
1788.3426095694931
  0
ARC
  8
_0-0_FRF74-1101
  6
CONTINUOUS
 62
    7
 10
2247.4357837840116
 20
1786.6048820102101
 40
2.0108696075962897
 50
117.48136800389194
 51
120.21225394559967
  0
LINE
  8
_0-0_FRF74-1101
  6
CONTINUOUS
 62
    7
 10
2246.5078476092299
 20
1788.388846985843
 11
2246.5184900319728
 21
1788.3943826825555
  0
ARC
  8
_0-0_FRF74-1101
  6
CONTINUOUS
 62
    7
 10
2247.1952482740198
 20
1787.0933093613594
 40
1.4665583879639721
 50
114.67301622535949
 51
117.48136800391738
  0
LINE
  8
_0-0_FRF74-1101
  6
CONTINUOUS
 62
    7
 10
2246.5830493719295
 20
1788.4259781159967
 11
2246.5939554881697
 21
1788.4309881474578
  0
ARC
  8
_0-0_FRF74-1101
  6
CONTINUOUS
 62
    7
 10
2247.3911407774722
 20
1786.6956306956813
 40
1.9097041317745467
 50
113.23615226156514
 51
114.67301622531453
  0
ARC
  8
_0-0_FRF74-1101
  6
CONTINUOUS
 62
    7
 10
2247.3825845433707
 20
1786.7155591485398
 40
1.8880165229776842
 50
111.7827848295167
 51
113.23615226156831
  0
LINE
  8
_0-0_FRF74-1101
  6
CONTINUOUS
 62
    7
 10
2246.6819626732085
 20
1788.4687663200077
 11
2246.6930446460383
 21
1788.4731949309871
  0
ARC
  8
_0-0_FRF74-1101
  6
CONTINUOUS
 62
    7
 10
2247.2026675441475
 20
1787.1979356823679
 40
1.3733177525491727
 50
108.78949311140192
 51
111.78278482952143
  0
LINE
  8
_0-0_FRF74-1101
  6
CONTINUOUS
 62
    7
 10
2246.7603327542424
 20
1788.4980670538475
 11
2246.7815436769665
 21
1788.5052835007798
  0
ARC
  8
_0-0_FRF74-1101
  6
CONTINUOUS
 62
    7
 10
2247.2150973353409
 20
1787.2309620471274
 40
1.3460549550179377
 50
105.87208826419784
 51
108.78949311137248
  0
LINE
  8
_0-0_FRF74-1101
  6
CONTINUOUS
 62
    7
 10
2246.8469638607407
 20
1788.5256981927596
 11
2246.8570381488935
 21
1788.5285626240295
  0
ARC
  8
_0-0_FRF74-1101
  6
CONTINUOUS
 62
    7
 10
2247.3229390665656
 20
1786.8899755353441
 40
1.7035349460150058
 50
104.27102187843379
 51
105.87208826423236
  0
ARC
  8
_0-0_FRF74-1101
  6
CONTINUOUS
 62
    7
 10
2247.3131452045054
 20
1786.9284797399589
 40
1.6638046866770537
 50
102.63172852627402
 51
104.27102187837779
  0
LINE
  8
_0-0_FRF74-1101
  6
CONTINUOUS
 62
    7
 10
2246.949298341598
 20
1788.5520133847476
 11
2246.9537325711153
 21
1788.553007131015
  0
ARC
  8
_0-0_FRF74-1101
  6
CONTINUOUS
 62
    7
 10
2247.2650207541437
 20
1787.1639973857241
 40
1.4234635244380109
 50
100.35000527828718
 51
102.63172852627169
  0
LINE
  8
_0-0_FRF74-1101
  6
CONTINUOUS
 62
    7
 10
2247.0092801027472
 20
1788.5642991834197
 11
2247.0214270944139
 21
1788.5665176191642
  0
ARC
  8
_0-0_FRF74-1101
  6
CONTINUOUS
 62
    7
 10
2247.2791714682062
 20
1787.1552444875938
 40
1.4346163299344104
 50
98.482908460683944
 51
100.3500052783038
  0
ARC
  8
_0-0_FRF74-1101
  6
CONTINUOUS
 62
    7
 10
2247.5444940517677
 20
1785.3762021110172
 40
3.2333347211539643
 50
97.653916808763825
 51
98.482653327194242
  0
ARC
  8
_0-0_FRF74-1101
  6
CONTINUOUS
 62
    7
 10
2247.3667700606534
 20
1786.69868718559
 40
1.8989612391459454
 50
96.242451221656893
 51
97.653916808714243
  0
LINE
  8
_0-0_FRF74-1101
  6
CONTINUOUS
 62
    7
 10
2247.1602847899421
 20
1788.5863888624338
 11
2247.1680607192479
 21
1788.5872394284354
  0
ARC
  8
_0-0_FRF74-1101
  6
CONTINUOUS
 62
    7
 10
2247.5237948802255
 20
1785.335094760313
 40
3.2715427149410345
 50
95.149170002129878
 51
96.242451221657205
  0
LINE
  8
_0-0_FRF74-1101
  6
CONTINUOUS
 62
    7
 10
2247.2301770459303
 20
1788.5934348750134
 11
2247.2302134240872
 21
1788.5934381531476
  0
ARC
  8
_0-0_FRF74-1101
  6
CONTINUOUS
 62
    7
 10
2247.6399397624828
 20
1784.0466170526827
 40
4.5652445489816786
 50
94.36477514926213
 51
95.149170002116307
  0
LINE
  8
_0-0_FRF74-1101
  6
CONTINUOUS
 62
    7
 10
2247.2924970965796
 20
1788.5986211592183
 11
2247.2925301555256
 21
1788.598623682522
  0
ARC
  8
_0-0_FRF74-1101
  6
CONTINUOUS
 62
    7
 10
2247.8144773929153
 20
1781.7603559590912
 40
6.8581582349732475
 50
93.842071448585997
 51
94.364775149261661
  0
LINE
  8
_0-0_FRF74-1101
  6
CONTINUOUS
 62
    7
 10
2247.3549358468013
 20
1788.6031007258737
 11
2247.4174385846932
 21
1788.6072982527121
  0
LINE
  8
_0-0_FRF74-1101
  6
CONTINUOUS
 62
    7
 10
2247.4174385846932
 20
1788.6072982527121
 11
2247.4193918568208
 21
1788.6074264225228
  0
LINE
  8
_0-0_FRF74-1101
  6
CONTINUOUS
 62
    7
 10
2315.4194104534699
 20
1788.6074264225228
 11
2315.4328437276963
 21
1788.6061150175974
  0
ARC
  8
_0-0_FRF74-1101
  6
CONTINUOUS
 62
    7
 10
2313.8440509385441
 20
1772.3314398135847
 40
16.35204316050357
 50
84.182777590648072
 51
84.424246515467104
  0
LINE
  8
_0-0_FRF74-1101
  6
CONTINUOUS
 62
    7
 10
2315.5014178583656
 20
1788.599274654646
 11
2315.5118751461528
 21
1788.5982092662266
  0
ARC
  8
_0-0_FRF74-1101
  6
CONTINUOUS
 62
    7
 10
2314.6084760673552
 20
1779.7309229497694
 40
8.9131866643530007
 50
83.874920279310132
 51
84.182777590662681
  0
LINE
  8
_0-0_FRF74-1101
  6
CONTINUOUS
 62
    7
 10
2315.5595069025012
 20
1788.5932272135713
 11
2315.5595332911225
 21
1788.5932243817581
  0
ARC
  8
_0-0_FRF74-1101
  6
CONTINUOUS
 62
    7
 10
2314.856082083023
 20
1782.0380230036571
 40
6.5928376826396935
 50
83.459174721336481
 51
83.874920279551773
  0
LINE
  8
_0-0_FRF74-1101
  6
CONTINUOUS
 62
    7
 10
2315.607079740741
 20
1788.5879475244233
 11
2315.6071119205326
 21
1788.5879438347704
  0
ARC
  8
_0-0_FRF74-1101
  6
CONTINUOUS
 62
    7
 10
2315.027609432364
 20
1783.5337369165402
 40
5.0873205822005216
 50
82.921126616084123
 51
83.459174721523993
  0
LINE
  8
_0-0_FRF74-1101
  6
CONTINUOUS
 62
    7
 10
2315.6545482676661
 20
1788.5822791222536
 11
2315.6545847938155
 21
1788.5822745863579
  0
ARC
  8
_0-0_FRF74-1101
  6
CONTINUOUS
 62
    7
 10
2315.1452468537072
 20
1784.4807355800008
 40
4.1330433530148536
 50
82.259871698317852
 51
82.921126616041846
  0
LINE
  8
_0-0_FRF74-1101
  6
CONTINUOUS
 62
    7
 10
2315.7018859937448
 20
1788.5761232570931
 11
2315.7019250857384
 21
1788.5761179437663
  0
ARC
  8
_0-0_FRF74-1101
  6
CONTINUOUS
 62
    7
 10
2315.2340700794903
 20
1785.1339460060326
 40
3.4738215204284333
 50
81.474436398271607
 51
82.259871698427389
  0
LINE
  8
_0-0_FRF74-1101
  6
CONTINUOUS
 62
    7
 10
2315.7490664287357
 20
1788.5693811627566
 11
2315.7491059717904
 21
1788.5693752349694
  0
ARC
  8
_0-0_FRF74-1101
  6
CONTINUOUS
 62
    7
 10
2315.3056276334542
 20
1785.6110220795881
 40
2.9914087698819869
 50
80.56387360877703
 51
81.474436398459702
  0
LINE
  8
_0-0_FRF74-1101
  6
CONTINUOUS
 62
    7
 10
2315.7960630814473
 20
1788.5619540509965
 11
2315.7961006294772
 21
1788.5619478106337
  0
ARC
  8
_0-0_FRF74-1101
  6
CONTINUOUS
 62
    7
 10
2315.3659471477404
 20
1785.9737302030935
 40
2.6237191926409671
 50
79.527372835267244
 51
80.563873608684489
  0
LINE
  8
_0-0_FRF74-1101
  6
CONTINUOUS
 62
    7
 10
2315.8428494569207
 20
1788.5537431079704
 11
2315.8428822416172
 21
1788.5537370478855
  0
ARC
  8
_0-0_FRF74-1101
  6
CONTINUOUS
 62
    7
 10
2315.4184455790055
 20
1786.2575601459025
 40
2.3350749122391727
 50
78.364391985083174
 51
79.527372835280758
  0
LINE
  8
_0-0_FRF74-1101
  6
CONTINUOUS
 62
    7
 10
2315.8893990525903
 20
1788.5446494907876
 11
2315.8894240008308
 21
1788.5446443534893
  0
ARC
  8
_0-0_FRF74-1101
  6
CONTINUOUS
 62
    7
 10
2315.4651649289162
 20
1786.4843168322543
 40
2.1035553843100243
 50
77.074809925548465
 51
78.364391985104177
  0
ARC
  8
_0-0_FRF74-1101
  6
CONTINUOUS
 62
    7
 10
2315.5073579728032
 20
1786.6681067520833
 40
1.9149844762560955
 50
75.659098146883082
 51
77.075232265473574
  0
ARC
  8
_0-0_FRF74-1101
  6
CONTINUOUS
 62
    7
 10
2315.5454860748177
 20
1786.8172480058945
 40
1.7610466129777136
 50
74.119590794220898
 51
75.659068744630687
  0
ARC
  8
_0-0_FRF74-1101
  6
CONTINUOUS
 62
    7
 10
2315.5864280328378
 20
1786.9611626106985
 40
1.6114215569127319
 50
72.437155493191128
 51
74.119590794491998
  0
LINE
  8
_0-0_FRF74-1101
  6
CONTINUOUS
 62
    7
 10
2316.0726772217454
 20
1788.4974702492821
 11
2316.0840143820187
 21
1788.4938819803381
  0
ARC
  8
_0-0_FRF74-1101
  6
CONTINUOUS
 62
    7
 10
2315.7252149151527
 20
1787.3602526103723
 40
1.1890553418039154
 50
69.01195311484048
 51
72.437155493234172
  0
LINE
  8
_0-0_FRF74-1101
  6
CONTINUOUS
 62
    7
 10
2316.1511026446387
 20
1788.4704202768739
 11
2316.1622699029772
 21
1788.4661362408297
  0
ARC
  8
_0-0_FRF74-1101
  6
CONTINUOUS
 62
    7
 10
2315.5638963502702
 20
1786.9063472994949
 40
1.6706263645979103
 50
65.753829326654014
 51
69.011953114774016
  0
LINE
  8
_0-0_FRF74-1101
  6
CONTINUOUS
 62
    7
 10
2316.2499522893409
 20
1788.4296068632448
 11
2316.2500900142963
 21
1788.4295448337484
  0
ARC
  8
_0-0_FRF74-1101
  6
CONTINUOUS
 62
    7
 10
2315.5286017882204
 20
1786.8276144693032
 40
1.7569081230667793
 50
62.64578730844606
 51
65.753829326685263
  0
LINE
  8
_0-0_FRF74-1101
  6
CONTINUOUS
 62
    7
 10
2316.3358837647984
 20
1788.3880701601802
 11
2316.336006815056
 21
1788.3880065016888
  0
ARC
  8
_0-0_FRF74-1101
  6
CONTINUOUS
 62
    7
 10
2315.489531592119
 20
1786.7517912545463
 40
1.8422053734664123
 50
59.672975207867744
 51
62.645787308469735
  0
LINE
  8
_0-0_FRF74-1101
  6
CONTINUOUS
 62
    7
 10
2316.4197252065305
 20
1788.341904608284
 11
2316.41981830653
 21
1788.3418501461138
  0
ARC
  8
_0-0_FRF74-1101
  6
CONTINUOUS
 62
    7
 10
2315.4485128270235
 20
1786.6814583850962
 40
1.9236255182787654
 50
56.819517325301902
 51
59.672975207846562
  0
LINE
  8
_0-0_FRF74-1101
  6
CONTINUOUS
 62
    7
 10
2316.501271051588
 20
1788.2914382778854
 11
2316.5013225401894
 21
1788.2914046097326
  0
ARC
  8
_0-0_FRF74-1101
  6
CONTINUOUS
 62
    7
 10
2315.4086752034823
 20
1786.6204255238049
 40
1.9965092807250826
 50
54.06655957702278
 51
56.819468597527667
  0
LINE
  8
_0-0_FRF74-1101
  6
CONTINUOUS
 62
    7
 10
2316.5803167601766
 20
1788.2369976288001
 11
2316.58036595556
 21
1788.236961973505
  0
ARC
  8
_0-0_FRF74-1101
  6
CONTINUOUS
 62
    7
 10
2315.3709088091459
 20
1786.5682138193347
 40
2.0609480806315004
 50
51.403022205688842
 51
54.066559577063998
  0
LINE
  8
_0-0_FRF74-1101
  6
CONTINUOUS
 62
    7
 10
2316.6566073058575
 20
1788.1789547564854
 11
2316.656677845931
 21
1788.1788984511759
  0
ARC
  8
_0-0_FRF74-1101
  6
CONTINUOUS
 62
    7
 10
2315.3539812522868
 20
1786.5468620620607
 40
2.0881956782089097
 50
48.779177732334489
 51
51.403022205599278
  0
LINE
  8
_0-0_FRF74-1101
  6
CONTINUOUS
 62
    7
 10
2316.7300246425434
 20
1788.1175516490318
 11
2316.7300831699977
 21
1788.1175003745361
  0
ARC
  8
_0-0_FRF74-1101
  6
CONTINUOUS
 62
    7
 10
2315.3589693923686
 20
1786.5524377113072
 40
2.0807148125192154
 50
46.150186009590669
 51
48.779177732314643
  0
LINE
  8
_0-0_FRF74-1101
  6
CONTINUOUS
 62
    7
 10
2316.8004270745105
 20
1788.0529622468048
 11
2316.8004616473777
 21
1788.0529290348691
  0
ARC
  8
_0-0_FRF74-1101
  6
CONTINUOUS
 62
    7
 10
2315.3628039393247
 20
1786.5563601856343
 40
2.0752296272999144
 50
43.516893690702716
 51
46.150186009632442
  0
ARC
  8
_0-0_FRF74-1101
  6
CONTINUOUS
 62
    7
 10
2315.3660199712244
 20
1786.5593906971385
 40
2.0708107385580283
 50
40.878914420407447
 51
43.517359010644022
  0
ARC
  8
_0-0_FRF74-1101
  6
CONTINUOUS
 62
    7
 10
2315.368650846156
 20
1786.5616868236557
 40
2.0673188199373489
 50
38.235689976954177
 51
40.878518675658839
  0
ARC
  8
_0-0_FRF74-1101
  6
CONTINUOUS
 62
    7
 10
2315.3705375967338
 20
1786.5632322192282
 40
2.0648803896843475
 50
35.586785700712369
 51
38.234409183721802
  0
ARC
  8
_0-0_FRF74-1101
  6
CONTINUOUS
 62
    7
 10
2315.3728675858674
 20
1786.5648995149377
 40
2.0620153025401962
 50
32.934202812500523
 51
35.586785700733074
  0
LINE
  8
_0-0_FRF74-1101
  6
CONTINUOUS
 62
    7
 10
2317.1035076802091
 20
1787.6859668509021
 11
2317.1035531839361
 21
1787.6858966048324
  0
ARC
  8
_0-0_FRF74-1101
  6
CONTINUOUS
 62
    7
 10
2315.3825541361398
 20
1786.5710745086506
 40
2.050528231615071
 50
30.262090743386722
 51
32.934202812492558
  0
LINE
  8
_0-0_FRF74-1101
  6
CONTINUOUS
 62
    7
 10
2317.1536551999629
 20
1787.6044510374991
 11
2317.1536969165427
 21
1787.6043795395726
  0
ARC
  8
_0-0_FRF74-1101
  6
CONTINUOUS
 62
    7
 10
2315.4162450081494
 20
1786.5906716927273
 40
2.0115523191646107
 50
27.531761813464353
 51
30.261215957272498
  0
LINE
  8
_0-0_FRF74-1101
  6
CONTINUOUS
 62
    7
 10
2317.1999985365383
 20
1787.5204921499642
 11
2317.2055430188666
 21
1787.5098556987666
  0
ARC
  8
_0-0_FRF74-1101
  6
CONTINUOUS
 62
    7
 10
2315.9048469373042
 20
1786.8318394784555
 40
1.4668047898735832
 50
24.724359705198438
 51
27.531761813483744
  0
LINE
  8
_0-0_FRF74-1101
  6
CONTINUOUS
 62
    7
 10
2317.237190372035
 20
1787.445335414486
 11
2317.2422094834023
 21
1787.434435293253
  0
ARC
  8
_0-0_FRF74-1101
  6
CONTINUOUS
 62
    7
 10
2315.5074878165024
 20
1786.6356587428199
 40
1.9097914124676074
 50
23.287829622118952
 51
24.724359705178788
  0
ARC
  8
_0-0_FRF74-1101
  6
CONTINUOUS
 62
    7
 10
2315.52748700757
 20
1786.644266719685
 40
1.8880183807755138
 50
21.834734932651713
 51
23.287829622140453
  0
LINE
  8
_0-0_FRF74-1101
  6
CONTINUOUS
 62
    7
 10
2317.2800599288921
 20
1787.3464786261588
 11
2317.2844975508024
 21
1787.3354032571376
  0
ARC
  8
_0-0_FRF74-1101
  6
CONTINUOUS
 62
    7
 10
2316.009855637079
 20
1786.8246862892902
 40
1.3731510585030857
 50
18.841684986498748
 51
21.834734932700826
  0
LINE
  8
_0-0_FRF74-1101
  6
CONTINUOUS
 62
    7
 10
2317.3094257759012
 20
1787.2681513766988
 11
2317.3166599680148
 21
1787.2469516468525
  0
ARC
  8
_0-0_FRF74-1101
  6
CONTINUOUS
 62
    7
 10
2316.0430725557194
 20
1786.8123529005106
 40
1.3456972048268199
 50
15.924173115982182
 51
18.841684986468302
  0
LINE
  8
_0-0_FRF74-1101
  6
CONTINUOUS
 62
    7
 10
2317.337129492144
 20
1787.1815650514077
 11
2317.3400024941266
 21
1787.1714954257607
  0
ARC
  8
_0-0_FRF74-1101
  6
CONTINUOUS
 62
    7
 10
2315.7024135073862
 20
1786.7042688802712
 40
1.702938147527556
 50
14.322930259218172
 51
15.924173115802477
  0
ARC
  8
_0-0_FRF74-1101
  6
CONTINUOUS
 62
    7
 10
2315.7409919131969
 20
1786.7141188368241
 40
1.6631221326715582
 50
12.683357980577449
 51
14.3229302592914
  0
LINE
  8
_0-0_FRF74-1101
  6
CONTINUOUS
 62
    7
 10
2317.3635311364651
 20
1787.0792786609261
 11
2317.3645364941794
 21
1787.0748114873297
  0
ARC
  8
_0-0_FRF74-1101
  6
CONTINUOUS
 62
    7
 10
2315.9776750061887
 20
1786.7626920083355
 40
1.4215496319296184
 50
10.396229065538881
 51
12.683357980718435
  0
LINE
  8
_0-0_FRF74-1101
  6
CONTINUOUS
 62
    7
 10
2317.3758875547715
 20
1787.019216909709
 11
2317.3781278115844
 21
1787.0070061840804
  0
ARC
  8
_0-0_FRF74-1101
  6
CONTINUOUS
 62
    7
 10
2315.9677269799731
 20
1786.7482451433534
 40
1.4339413453862095
 50
8.5206150625159776
 51
10.396229065612498
  0
ARC
  8
_0-0_FRF74-1101
  6
CONTINUOUS
 62
    7
 10
2314.189655367526
 20
1786.4818712300244
 40
3.2318550587214192
 50
7.6878474904424303
 51
8.5203565330959528
  0
ARC
  8
_0-0_FRF74-1101
  6
CONTINUOUS
 62
    7
 10
2315.511410023727
 20
1786.6602940084213
 40
1.8981121828118899
 50
6.2699682508760803
 51
7.6878474905674299
  0
LINE
  8
_0-0_FRF74-1101
  6
CONTINUOUS
 62
    7
 10
2317.3981683381216
 20
1786.8675931198507
 11
2317.3990261618392
 21
1786.8597855319617
  0
ARC
  8
_0-0_FRF74-1101
  6
CONTINUOUS
 62
    7
 10
2314.1484105333384
 20
1786.5026387123398
 40
3.2701767253503511
 50
5.1717435604018247
 51
6.2699682508228207
  0
LINE
  8
_0-0_FRF74-1101
  6
CONTINUOUS
 62
    7
 10
2317.405274286135
 20
1786.7974171218966
 11
2317.4052776217964
 21
1786.7973802677916
  0
ARC
  8
_0-0_FRF74-1101
  6
CONTINUOUS
 62
    7
 10
2312.8603665611181
 20
1786.3860208264005
 40
4.5634891409423348
 50
4.3838195760078662
 51
5.1717435603787649
  0
LINE
  8
_0-0_FRF74-1101
  6
CONTINUOUS
 62
    7
 10
2317.4105046580644
 20
1786.7348423254759
 11
2317.4105072256502
 21
1786.7348088330721
  0
ARC
  8
_0-0_FRF74-1101
  6
CONTINUOUS
 62
    7
 10
2310.5748542114002
 20
1786.2107757859724
 40
6.8557102305803479
 50
3.8587735764401208
 51
4.3838195761449636
  0
LINE
  8
_0-0_FRF74-1101
  6
CONTINUOUS
 62
    7
 10
2317.415022273145
 20
1786.6721472770369
 11
2317.4192554464935
 21
1786.609387401968
  0
LINE
  8
_0-0_FRF74-1101
  6
CONTINUOUS
 62
    7
 10
2317.4192554464935
 20
1786.609387401968
 11
2317.4193847042634
 21
1786.6074260946973
  0
LINE
  8
_0-0_FRF74-1101
  6
CONTINUOUS
 62
    7
 10
2247.4193918568208
 20
1758.60742523043
 11
2247.4059571751854
 21
1758.6087361978907
  0
ARC
  8
_0-0_FRF74-1101
  6
CONTINUOUS
 62
    7
 10
2248.9936258474772
 20
1774.8790280205762
 40
16.347571312226254
 50
264.18511605312193
 51
264.42667503038291
  0
LINE
  8
_0-0_FRF74-1101
  6
CONTINUOUS
 62
    7
 10
2247.3373759464616
 20
1758.6155743875465
 11
2247.3269175461855
 21
1758.61663945803
  0
ARC
  8
_0-0_FRF74-1101
  6
CONTINUOUS
 62
    7
 10
2248.2297049752146
 20
1767.4815103229719
 40
8.9107216651689125
 50
263.87714336850019
 51
264.18511605315251
  0
LINE
  8
_0-0_FRF74-1101
  6
CONTINUOUS
 62
    7
 10
2247.2792809187986
 20
1758.6216201031611
 11
2247.2792544942467
 21
1758.6216229377933
  0
ARC
  8
_0-0_FRF74-1101
  6
CONTINUOUS
 62
    7
 10
2247.9822541835092
 20
1765.1750135315751
 40
6.5909890636968402
 50
263.461240988057
 51
263.87714336849376
  0
LINE
  8
_0-0_FRF74-1101
  6
CONTINUOUS
 62
    7
 10
2247.2317032492979
 20
1758.6268985254897
 11
2247.2316710247687
 21
1758.6269022190945
  0
ARC
  8
_0-0_FRF74-1101
  6
CONTINUOUS
 62
    7
 10
2247.8108259393721
 20
1763.679687865369
 40
5.0858689721922374
 50
262.92298820907672
 51
263.46124098808968
  0
LINE
  8
_0-0_FRF74-1101
  6
CONTINUOUS
 62
    7
 10
2247.1842299793943
 20
1758.6325658433404
 11
2247.1841934009717
 21
1758.6325703845207
  0
ARC
  8
_0-0_FRF74-1101
  6
CONTINUOUS
 62
    7
 10
2247.6932497735147
 20
1762.7329313705445
 40
4.1318396152478725
 50
262.26147920196928
 51
262.92298820900669
  0
LINE
  8
_0-0_FRF74-1101
  6
CONTINUOUS
 62
    7
 10
2247.1368876210295
 20
1758.6387208530682
 11
2247.1368484708064
 21
1758.6387261731909
  0
ARC
  8
_0-0_FRF74-1101
  6
CONTINUOUS
 62
    7
 10
2247.6044675174394
 20
1762.0798855157855
 40
3.4727863732023483
 50
261.47573861602513
 51
262.26147920195189
  0
LINE
  8
_0-0_FRF74-1101
  6
CONTINUOUS
 62
    7
 10
2247.0897026868511
 20
1758.6454623672653
 11
2247.0896630815328
 21
1758.6454683034663
  0
ARC
  8
_0-0_FRF74-1101
  6
CONTINUOUS
 62
    7
 10
2247.532938787348
 20
1761.6029282051072
 40
2.9904953471259708
 50
260.56481746838386
 51
261.47573861608163
  0
LINE
  8
_0-0_FRF74-1101
  6
CONTINUOUS
 62
    7
 10
2247.0427016904541
 20
1758.6528892206172
 11
2247.0426640783662
 21
1758.6528954709893
  0
ARC
  8
_0-0_FRF74-1101
  6
CONTINUOUS
 62
    7
 10
2247.4726402509218
 20
1761.2403097639278
 40
2.6228976785739717
 50
259.52790341355967
 51
260.56481746831849
  0
LINE
  8
_0-0_FRF74-1101
  6
CONTINUOUS
 62
    7
 10
2246.9959111492008
 20
1758.6611002734367
 11
2246.9958783012207
 21
1758.6611063449045
  0
ARC
  8
_0-0_FRF74-1101
  6
CONTINUOUS
 62
    7
 10
2247.420157465996
 20
1760.9565501188674
 40
2.3343253691565882
 50
258.3644527003928
 51
259.52790341361828
  0
LINE
  8
_0-0_FRF74-1101
  6
CONTINUOUS
 62
    7
 10
2246.9493575880661
 20
1758.6701944151264
 11
2246.9493325801877
 21
1758.6701995646781
  0
ARC
  8
_0-0_FRF74-1101
  6
CONTINUOUS
 62
    7
 10
2247.3734500284654
 20
1760.7298503682937
 40
2.1028640095758107
 50
257.07434293352878
 51
258.36445270033425
  0
ARC
  8
_0-0_FRF74-1101
  6
CONTINUOUS
 62
    7
 10
2247.3312662526109
 20
1760.5461079450974
 40
1.9143414676695758
 50
255.65804495282458
 51
257.07476703787336
  0
ARC
  8
_0-0_FRF74-1101
  6
CONTINUOUS
 62
    7
 10
2247.2931457150589
 20
1760.397007878564
 40
1.7604453818753429
 50
254.11789435487754
 51
255.65801697537449
  0
ARC
  8
_0-0_FRF74-1101
  6
CONTINUOUS
 62
    7
 10
2247.2522066907491
 20
1760.2531197734675
 40
1.6108466168414126
 50
252.4347302050887
 51
254.11789435484383
  0
LINE
  8
_0-0_FRF74-1101
  6
CONTINUOUS
 62
    7
 10
2246.7660659838516
 20
1758.717380851617
 11
2246.7547315635456
 21
1758.7209687811937
  0
ARC
  8
_0-0_FRF74-1101
  6
CONTINUOUS
 62
    7
 10
2247.1134852537521
 20
1759.8542867642236
 40
1.1887446575677929
 50
249.00872068294146
 51
252.43473020513733
  0
LINE
  8
_0-0_FRF74-1101
  6
CONTINUOUS
 62
    7
 10
2246.6876461882061
 20
1758.7444331922825
 11
2246.6764820176641
 21
1758.7487167663244
  0
ARC
  8
_0-0_FRF74-1101
  6
CONTINUOUS
 62
    7
 10
2247.2748296162772
 20
1760.3081749591274
 40
1.670308266119108
 50
245.75024799856328
 51
249.00872068289263
  0
LINE
  8
_0-0_FRF74-1101
  6
CONTINUOUS
 62
    7
 10
2246.5888091135221
 20
1758.7852483116274
 11
2246.588671638734
 21
1758.785310238788
  0
ARC
  8
_0-0_FRF74-1101
  6
CONTINUOUS
 62
    7
 10
2247.3102113671202
 20
1760.3870875547389
 40
1.7567897283211624
 50
242.64227215239711
 51
245.75024799857536
  0
LINE
  8
_0-0_FRF74-1101
  6
CONTINUOUS
 62
    7
 10
2246.5028880641426
 20
1758.8267865472394
 11
2246.5027648416385
 21
1758.8268503044237
  0
ARC
  8
_0-0_FRF74-1101
  6
CONTINUOUS
 62
    7
 10
2247.3494083553046
 20
1760.4631448626196
 40
1.8423531475845656
 50
239.66994881355203
 51
242.64227215242249
  0
LINE
  8
_0-0_FRF74-1101
  6
CONTINUOUS
 62
    7
 10
2246.4190561285031
 20
1758.8729530960393
 11
2246.418962819741
 21
1758.8730076869483
  0
ARC
  8
_0-0_FRF74-1101
  6
CONTINUOUS
 62
    7
 10
2247.3905926694451
 20
1760.5337526635844
 40
1.9240941874703585
 50
236.81741088778301
 51
239.66994881355595
  0
LINE
  8
_0-0_FRF74-1101
  6
CONTINUOUS
 62
    7
 10
2246.3375187490251
 20
1758.9234192321521
 11
2246.3374670581265
 21
1758.9234530352987
  0
ARC
  8
_0-0_FRF74-1101
  6
CONTINUOUS
 62
    7
 10
2247.4306280472665
 20
1760.5950831227219
 40
1.9973352491146199
 50
234.06578312641236
 51
236.81735666271737
  0
LINE
  8
_0-0_FRF74-1101
  6
CONTINUOUS
 62
    7
 10
2246.2584798589987
 20
1758.9778581160836
 11
2246.2584330083296
 21
1758.9778920729709
  0
ARC
  8
_0-0_FRF74-1101
  6
CONTINUOUS
 62
    7
 10
2247.468732806115
 20
1760.6477552507649
 40
2.0623454204065697
 50
231.40407493546527
 51
234.06578312638567
  0
LINE
  8
_0-0_FRF74-1101
  6
CONTINUOUS
 62
    7
 10
2246.182192210626
 20
1759.0358985793355
 11
2246.1821242314736
 21
1759.0359528384645
  0
ARC
  8
_0-0_FRF74-1101
  6
CONTINUOUS
 62
    7
 10
2247.4856744954791
 20
1760.6691202619804
 40
2.0896121946478585
 50
228.78185366476617
 51
231.40407493550342
  0
LINE
  8
_0-0_FRF74-1101
  6
CONTINUOUS
 62
    7
 10
2246.1087710819875
 20
1759.0973008976971
 11
2246.1087128247082
 21
1759.0973519306897
  0
ARC
  8
_0-0_FRF74-1101
  6
CONTINUOUS
 62
    7
 10
2247.4804269043607
 20
1760.6632473533668
 40
2.0817367727637563
 50
226.15397674420814
 51
228.78185366473741
  0
LINE
  8
_0-0_FRF74-1101
  6
CONTINUOUS
 62
    7
 10
2246.0383605662073
 20
1759.1618904113168
 11
2246.0383258332581
 21
1759.161923772615
  0
ARC
  8
_0-0_FRF74-1101
  6
CONTINUOUS
 62
    7
 10
2247.4763402689432
 20
1760.6590622180986
 40
2.0758875311980476
 50
223.52135491397132
 51
226.15397674424605
  0
ARC
  8
_0-0_FRF74-1101
  6
CONTINUOUS
 62
    7
 10
2247.4728604799216
 20
1760.6557810700924
 40
2.0711047942745564
 50
220.88359877250826
 51
223.52182660827955
  0
ARC
  8
_0-0_FRF74-1101
  6
CONTINUOUS
 62
    7
 10
2247.4699578943791
 20
1760.6532495988158
 40
2.0672534112807091
 50
218.24015005048767
 51
220.88320846046872
  0
ARC
  8
_0-0_FRF74-1101
  6
CONTINUOUS
 62
    7
 10
2247.4678000437066
 20
1760.6514904595901
 40
2.0644697505515777
 50
215.5905843283692
 51
218.23887206600557
  0
ARC
  8
_0-0_FRF74-1101
  6
CONTINUOUS
 62
    7
 10
2247.46518527024
 20
1760.6496191155143
 40
2.0612543238407439
 50
212.93688754447609
 51
215.59058432834266
  0
LINE
  8
_0-0_FRF74-1101
  6
CONTINUOUS
 62
    7
 10
2245.7352363746982
 20
1759.5288844429156
 11
2245.7351914830797
 21
1759.5289537369306
  0
ARC
  8
_0-0_FRF74-1101
  6
CONTINUOUS
 62
    7
 10
2247.4554230391386
 20
1760.6433931025931
 40
2.0496760002985228
 50
210.26359236895925
 51
212.93688754450031
  0
LINE
  8
_0-0_FRF74-1101
  6
CONTINUOUS
 62
    7
 10
2245.6850851447748
 20
1759.6103996631277
 11
2245.6850441054371
 21
1759.6104699960958
  0
ARC
  8
_0-0_FRF74-1101
  6
CONTINUOUS
 62
    7
 10
2247.4218898665181
 20
1760.623885374828
 40
2.0108813807967252
 50
207.53236459216311
 51
210.26272175533893
  0
LINE
  8
_0-0_FRF74-1101
  6
CONTINUOUS
 62
    7
 10
2245.6387410748853
 20
1759.6943562926933
 11
2245.6331965491095
 21
1759.7049925542451
  0
ARC
  8
_0-0_FRF74-1101
  6
CONTINUOUS
 62
    7
 10
2246.933578793401
 20
1760.3828625781207
 40
1.4664589153939658
 50
204.72430520579931
 51
207.53236459210902
  0
LINE
  8
_0-0_FRF74-1101
  6
CONTINUOUS
 62
    7
 10
2245.6015489435722
 20
1759.7695125722494
 11
2245.5965298769001
 21
1759.7804126237056
  0
ARC
  8
_0-0_FRF74-1101
  6
CONTINUOUS
 62
    7
 10
2247.3309612432768
 20
1760.5790535016763
 40
1.9094709782124095
 50
203.2875326907407
 51
204.72430520580716
  0
ARC
  8
_0-0_FRF74-1101
  6
CONTINUOUS
 62
    7
 10
2247.3110156727817
 20
1760.5704687264938
 40
1.8877563714398811
 50
201.83423493738755
 51
203.28753269078848
  0
LINE
  8
_0-0_FRF74-1101
  6
CONTINUOUS
 62
    7
 10
2245.5586798374015
 20
1759.8683695611667
 11
2245.5542422780813
 21
1759.8794450539206
  0
ARC
  8
_0-0_FRF74-1101
  6
CONTINUOUS
 62
    7
 10
2246.8287973962842
 20
1760.3901143369364
 40
1.3730527542499664
 50
198.84096123238459
 51
201.83423493746594
  0
LINE
  8
_0-0_FRF74-1101
  6
CONTINUOUS
 62
    7
 10
2245.5293146927393
 20
1759.9466974122029
 11
2245.5220807279793
 21
1759.9678973519417
  0
ARC
  8
_0-0_FRF74-1101
  6
CONTINUOUS
 62
    7
 10
2246.7956762444765
 20
1760.4024809025645
 40
1.3456999673453027
 50
195.92343878777615
 51
198.8409612323766
  0
LINE
  8
_0-0_FRF74-1101
  6
CONTINUOUS
 62
    7
 10
2245.5016119196525
 20
1760.0332845790033
 11
2245.4987390302226
 21
1760.0433542993187
  0
ARC
  8
_0-0_FRF74-1101
  6
CONTINUOUS
 62
    7
 10
2247.1364096006791
 20
1760.5105814241369
 40
1.7030167596074655
 50
194.32226079073521
 51
195.92343878778465
  0
ARC
  8
_0-0_FRF74-1101
  6
CONTINUOUS
 62
    7
 10
2247.0978696490415
 20
1760.5007417654942
 40
1.6632405512108372
 50
192.68279596848666
 51
194.32226079084617
  0
LINE
  8
_0-0_FRF74-1101
  6
CONTINUOUS
 62
    7
 10
2245.4752113148252
 20
1760.1355718576567
 11
2245.4742059953978
 21
1760.1400390656936
  0
ARC
  8
_0-0_FRF74-1101
  6
CONTINUOUS
 62
    7
 10
2246.8612031836196
 20
1760.4521747905769
 40
1.4216855879143595
 50
190.39587285096917
 51
192.68279596836399
  0
LINE
  8
_0-0_FRF74-1101
  6
CONTINUOUS
 62
    7
 10
2245.4628553160233
 20
1760.1956340490342
 11
2245.4606151198773
 21
1760.2078448717086
  0
ARC
  8
_0-0_FRF74-1101
  6
CONTINUOUS
 62
    7
 10
2246.8711478847049
 20
1760.4666210531209
 40
1.4340738449323762
 50
188.52042271798751
 51
190.39587285106526
  0
ARC
  8
_0-0_FRF74-1101
  6
CONTINUOUS
 62
    7
 10
2248.6493693960902
 20
1760.7330113628855
 40
3.2321382321546333
 50
187.6877254172559
 51
188.52016495275737
  0
ARC
  8
_0-0_FRF74-1101
  6
CONTINUOUS
 62
    7
 10
2247.3274937211622
 20
1760.5545751159293
 40
1.8982736235101305
 50
186.26996217621991
 51
187.68772541732727
  0
LINE
  8
_0-0_FRF74-1101
  6
CONTINUOUS
 62
    7
 10
2245.4405749097723
 20
1760.3472585730833
 11
2245.4397170880929
 21
1760.3550661500472
  0
ARC
  8
_0-0_FRF74-1101
  6
CONTINUOUS
 62
    7
 10
2248.690595457726
 20
1760.712241488344
 40
3.270441009471925
 50
185.17182396081753
 51
186.26996217614951
  0
LINE
  8
_0-0_FRF74-1101
  6
CONTINUOUS
 62
    7
 10
2245.4334689103998
 20
1760.4174346852687
 11
2245.4334655783969
 21
1760.417471498379
  0
ARC
  8
_0-0_FRF74-1101
  6
CONTINUOUS
 62
    7
 10
2249.9787267499537
 20
1760.8288690586783
 40
4.563841262607971
 50
184.38396017545352
 51
185.17182396092235
  0
LINE
  8
_0-0_FRF74-1101
  6
CONTINUOUS
 62
    7
 10
2245.4282384175776
 20
1760.4800094777681
 11
2245.4282358522491
 21
1760.4800429396494
  0
ARC
  8
_0-0_FRF74-1101
  6
CONTINUOUS
 62
    7
 10
2252.2643971423136
 20
1761.0041318260469
 40
6.8562212876059476
 50
183.85895342964292
 51
184.38396017544162
  0
LINE
  8
_0-0_FRF74-1101
  6
CONTINUOUS
 62
    7
 10
2245.4237206305306
 20
1760.5427044690771
 11
2245.4194872653957
 21
1760.6054642534832
  0
LINE
  8
_0-0_FRF74-1101
  6
CONTINUOUS
 62
    7
 10
2245.4194872653957
 20
1760.6054642534832
 11
2245.4193580013825
 21
1760.6074255582555
  0
LINE
  8
_0-0_FRF74-1101
  6
CONTINUOUS
 62
    7
 10
2247.4193918568208
 20
1788.6074264225228
 11
2315.4194104534699
 21
1788.6074264225228
  0
LINE
  8
_0-0_FRF74-1101
  6
CONTINUOUS
 62
    7
 10
1670.4193848234729
 20
1775.6074256886407
 11
1670.4193848234729
 21
1765.6074254464968
  0
LINE
  8
_0-0_FRF74-1101
  6
CONTINUOUS
 62
    7
 10
2292.4194085461213
 20
1765.6074254464968
 11
2292.4194085461213
 21
1775.6074256886407
  0
LINE
  8
_0-0_FRF74-1101
  6
CONTINUOUS
 62
    7
 10
2292.4194085461213
 20
1775.6074256886407
 11
1670.4193848234729
 21
1775.6074256886407
  0
LINE
  8
_0-0_FRF74-1101
  6
CONTINUOUS
 62
    7
 10
2292.4194085461213
 20
1765.6074254464968
 11
1670.4193848234729
 21
1765.6074254464968
  0
LINE
  8
_0-0_FRF74-1101
  6
CONTINUOUS
 62
    7
 10
1645.9193798762874
 20
1571.8734935206503
 11
1670.4193848234729
 21
1571.8734935206503
  0
ARC
  8
_0-0_FRF74-1101
  6
CONTINUOUS
 62
    7
 10
1716.919383441952
 20
1572.3734935052985
 40
0.5
 50
270
 51
0
  0
ARC
  8
_0-0_FRF74-1101
  6
CONTINUOUS
 62
    7
 10
1645.9193834419523
 20
1572.3734935052985
 40
0.5000000000000568
 50
180
 51
270
  0
LINE
  8
_0-0_FRF74-1101
  6
CONTINUOUS
 62
    7
 10
2245.9193813664033
 20
1571.8734935206503
 11
2270.4193937641694
 21
1571.8734935206503
  0
LINE
  8
_0-0_FRF74-1101
  6
CONTINUOUS
 62
    7
 10
2292.4194085461213
 20
1571.8734935206503
 11
2316.9193613392426
 21
1571.8734935206503
  0
ARC
  8
_0-0_FRF74-1101
  6
CONTINUOUS
 62
    7
 10
2245.919383441952
 20
1572.3734935052985
 40
0.5
 50
180
 51
270
  0
LINE
  8
_0-0_FRF74-1101
  6
CONTINUOUS
 62
    7
 10
1717.4193834469781
 20
1582.1234935709417
 11
1717.4193834469781
 21
1572.5614670944542
  0
LINE
  8
_0-0_FRF74-1101
  6
CONTINUOUS
 62
    7
 10
1715.4193834683986
 20
1582.1234935709417
 11
1717.4193834469781
 21
1582.1234935709417
  0
LINE
  8
_0-0_FRF74-1101
  6
CONTINUOUS
 62
    7
 10
1715.4193834683986
 20
1582.1234935709417
 11
1647.4193829161243
 21
1582.1234935709417
  0
LINE
  8
_0-0_FRF74-1101
  6
CONTINUOUS
 62
    7
 10
1645.419386313589
 20
1572.5614670944542
 11
1645.419386313589
 21
1582.1234935709417
  0
LINE
  8
_0-0_FRF74-1101
  6
CONTINUOUS
 62
    7
 10
1645.419386313589
 20
1582.1234935709417
 11
1647.4193829161243
 21
1582.1234935709417
  0
LINE
  8
_0-0_FRF74-1101
  6
CONTINUOUS
 62
    7
 10
1717.4193834469781
 20
1572.5614670944542
 11
1717.4193834469781
 21
1572.3734936026067
  0
LINE
  8
_0-0_FRF74-1101
  6
CONTINUOUS
 62
    7
 10
1645.419386313589
 20
1572.3734936026067
 11
1645.419386313589
 21
1572.5614670944542
  0
LINE
  8
_0-0_FRF74-1101
  6
CONTINUOUS
 62
    7
 10
2317.4193847042634
 20
1582.1234935709417
 11
2317.4193847042634
 21
1572.5614670944542
  0
LINE
  8
_0-0_FRF74-1101
  6
CONTINUOUS
 62
    7
 10
2315.4194104534699
 20
1582.1234935709417
 11
2317.4193847042634
 21
1582.1234935709417
  0
LINE
  8
_0-0_FRF74-1101
  6
CONTINUOUS
 62
    7
 10
2315.4194104534699
 20
1582.1234935709417
 11
2247.4193918568208
 21
1582.1234935709417
  0
LINE
  8
_0-0_FRF74-1101
  6
CONTINUOUS
 62
    7
 10
2245.4193580013825
 20
1572.5614670944542
 11
2245.4193580013825
 21
1582.1234935709417
  0
LINE
  8
_0-0_FRF74-1101
  6
CONTINUOUS
 62
    7
 10
2245.4193580013825
 20
1582.1234935709417
 11
2247.4193918568208
 21
1582.1234935709417
  0
LINE
  8
_0-0_FRF74-1101
  6
CONTINUOUS
 62
    7
 10
2317.4193847042634
 20
1572.5614670944542
 11
2317.4193847042634
 21
1572.3734936026067
  0
LINE
  8
_0-0_FRF74-1101
  6
CONTINUOUS
 62
    7
 10
2245.4193580013825
 20
1572.3734936026067
 11
2245.4193580013825
 21
1572.5614670944542
  0
LINE
  8
_0-0_FRF74-1101
  6
CONTINUOUS
 62
    7
 10
1692.4193828416185
 20
1571.8734935206503
 11
1670.4193848234729
 21
1571.8734935206503
  0
LINE
  8
_0-0_FRF74-1101
  6
CONTINUOUS
 62
    7
 10
1692.4193828416185
 20
1533.8734947425455
 11
1692.4193828416185
 21
1571.8734935206503
  0
LINE
  8
_0-0_FRF74-1101
  6
CONTINUOUS
 62
    7
 10
1670.4193848234729
 20
1511.8734948617548
 11
1692.4193828416185
 21
1533.8734947425455
  0
LINE
  8
_0-0_FRF74-1101
  6
CONTINUOUS
 62
    7
 10
1670.4193848234729
 20
1511.8734948617548
 11
1670.4193848234729
 21
1571.8734935206503
  0
LINE
  8
_0-0_FRF74-1101
  6
CONTINUOUS
 62
    7
 10
2292.4194085461213
 20
1571.8734935206503
 11
2270.4193937641694
 21
1571.8734935206503
  0
LINE
  8
_0-0_FRF74-1101
  6
CONTINUOUS
 62
    7
 10
2292.4194085461213
 20
1511.8734948617548
 11
2292.4194085461213
 21
1571.8734935206503
  0
LINE
  8
_0-0_FRF74-1101
  6
CONTINUOUS
 62
    7
 10
2270.4193937641694
 20
1533.8734947425455
 11
2292.4194085461213
 21
1511.8734948617548
  0
LINE
  8
_0-0_FRF74-1101
  6
CONTINUOUS
 62
    7
 10
2270.4193937641694
 20
1533.8734947425455
 11
2270.4193937641694
 21
1571.8734935206503
  0
LINE
  8
_0-0_FRF74-1101
  6
CONTINUOUS
 62
    7
 10
2292.4194085461213
 20
1511.8734948617548
 11
1670.4193848234729
 21
1511.8734948617548
  0
LINE
  8
_0-0_FRF74-1101
  6
CONTINUOUS
 62
    7
 10
2270.4193937641694
 20
1533.8734947425455
 11
1692.4193828416185
 21
1533.8734947425455
  0
LINE
  8
_0-0_FRF74-1101
  6

 62
    7
 10
1681.419383441952
 20
1518.873493505298
 11
1681.419383441952
 21
1588.168641549996
  0
LINE
  8
_0-0_FRF74-1101
  6
CONTINUOUS
 62
    7
 10
2473.8486622785931
 20
1768.6074255889891
 11
2473.8208911707407
 21
1768.6074255889891
  0
LINE
  8
_0-0_FRF74-1101
  6
CONTINUOUS
 62
    7
 10
2473.8208911707407
 20
1772.6074256625636
 11
2473.8220022385722
 21
1772.6074256625636
  0
LINE
  8
_0-0_FRF74-1101
  6
CONTINUOUS
 62
    7
 10
2484.0708912210321
 20
1786.6074260946973
 11
2484.0708912210321
 21
1760.6074255582555
  0
LINE
  8
_0-0_FRF74-1101
  6
CONTINUOUS
 62
    7
 10
2474.0090737445062
 20
1760.5929686379297
 11
2474.0107269072896
 21
1760.5362975116741
  0
ARC
  8
_0-0_FRF74-1101
  6
CONTINUOUS
 62
    7
 10
3081.3278363997351
 20
1778.2524452088919
 40
607.57545487905338
 50
181.67091079619226
 51
181.72342338344424
  0
ARC
  8
_0-0_FRF74-1101
  6
CONTINUOUS
 62
    7
 10
2792.0585698679224
 20
1769.5487705300125
 40
318.17527776651463
 50
181.72342338344569
 51
181.8236994118042
  0
LINE
  8
_0-0_FRF74-1101
  6
CONTINUOUS
 62
    7
 10
2474.0444534975859
 20
1759.4231016141862
 11
2474.0550124623278
 21
1759.0914790942113
  0
LINE
  8
_0-0_FRF74-1101
  6
CONTINUOUS
 62
    7
 10
2474.0550124623278
 20
1759.0914790942113
 11
2474.0550182154184
 21
1759.091301324652
  0
ARC
  8
_0-0_FRF74-1101
  6
CONTINUOUS
 62
    7
 10
2474.5547579262166
 20
1759.1074255811404
 40
0.5
 50
181.84805754651762
 51
270.00000000000654
  0
LINE
  8
_0-0_FRF74-1101
  6
CONTINUOUS
 62
    7
 10
2474.5547579927152
 20
1758.60742523043
 11
2484.0708912210321
 21
1758.60742523043
  0
LINE
  8
_0-0_FRF74-1101
  6
CONTINUOUS
 62
    7
 10
2484.0708912210321
 20
1758.60742523043
 11
2484.0708912210321
 21
1760.6074255582555
  0
ARC
  8
_0-0_FRF74-1101
  6
CONTINUOUS
 62
    7
 10
2923.9458911553893
 20
1773.6074255811404
 40
450.12500000000011
 50
178.3431772041333
 51
181.65682279586511
  0
LINE
  8
_0-0_FRF74-1101
  6
CONTINUOUS
 62
    7
 10
2484.0708912210321
 20
1788.6074264225228
 11
2474.5547579927152
 21
1788.6074264225228
  0
LINE
  8
_0-0_FRF74-1101
  6
CONTINUOUS
 62
    7
 10
2484.0708912210321
 20
1786.6074260946973
 11
2484.0708912210321
 21
1788.6074264225228
  0
ARC
  8
_0-0_FRF74-1101
  6
CONTINUOUS
 62
    7
 10
2474.5547579262166
 20
1788.1074255811404
 40
0.5000000000000068
 50
90
 51
178.15194245348238
  0
LINE
  8
_0-0_FRF74-1101
  6
CONTINUOUS
 62
    7
 10
2413.8208925118452
 20
1775.6074256886407
 11
2473.8208911707407
 21
1775.6074256886407
  0
LINE
  8
_0-0_FRF74-1101
  6
CONTINUOUS
 62
    7
 10
2413.8208925118452
 20
1765.6074254464968
 11
2473.8208911707407
 21
1765.6074254464968
  0
LINE
  8
_0-0_FRF74-1101
  6
CONTINUOUS
 62
    7
 10
2473.8208911707407
 20
1775.6074256886407
 11
2473.8208911707407
 21
1765.6074254464968
  0
LINE
  8
_0-0_FRF74-1101
  6
CONTINUOUS
 62
    7
 10
2413.8208925118452
 20
1775.6074256886407
 11
2413.8208925118452
 21
1765.6074254464968
  0
LINE
  8
_0-2_
  6
CONTINUOUS
 62
    7
 10
2474.0550179949078
 20
1788.123550129375
 11
2474.0186770772343
 21
1786.6216045495732
  0
TEXT
  8
_0-2_
 62
    7
 10
1614.6943364596746
 20
1066.3317848654224
 40
15
 41
1
 50
0
  1
タオルバー　-LANGBERGER,Vota-
  0
TEXT
  8
_0-2_
 62
    7
 10
1614.3057740309894
 20
1014.7193048556493
 40
15
 41
1
 50
0
  1
クローム
  0
LINE
  8
_0-1_
  6
CONTINUOUS
 62
    4
 10
1645.419386313589
 20
1877.9059590984568
 11
2317.4193847042634
 21
1877.9059590984568
  0
POINT
  8
_0-1_
 62
    7
 10
1645.419386313589
 20
1877.9059590984568
  0
POINT
  8
_0-1_
 62
    7
 10
2317.4193847042634
 20
1877.9059590984568
  0
TEXT
  8
_0-1_
 62
    4
 10
1972.0443855089263
 20
1880.4059590984568
 40
12.5
 41
1
 50
0
  1
672
  0
LINE
  8
_0-1_
  6
CONTINUOUS
 62
    4
 10
2317.4193847042634
 20
1877.9059590984568
 11
2317.4193847042634
 21
1801.6074260946973
  0
LINE
  8
_0-1_
  6
CONTINUOUS
 62
    4
 10
1645.419386313589
 20
1877.9059590984568
 11
1645.419386313589
 21
1801.6074260946973
  0
LINE
  8
_0-1_
  6
CONTINUOUS
 62
    4
 10
2245.4193580013825
 20
1632.1234935709417
 11
2315.4194104534699
 21
1632.1234935709417
  0
LINE
  8
_0-1_
  6
CONTINUOUS
 62
    4
 10
2245.4193580013825
 20
1632.1234935709417
 11
2317.4193847042634
 21
1632.1234935709417
  0
POINT
  8
_0-1_
 62
    7
 10
2245.4193580013825
 20
1632.1234935709417
  0
POINT
  8
_0-1_
 62
    7
 10
2317.4193847042634
 20
1632.1234935709417
  0
LINE
  8
_0-1_
  6
CONTINUOUS
 62
    4
 10
2245.4193580013825
 20
1632.1234935709417
 11
2245.4193580013825
 21
1597.1234935709417
  0
LINE
  8
_0-1_
  6
CONTINUOUS
 62
    4
 10
2317.4193847042634
 20
1632.1234935709417
 11
2317.4193847042634
 21
1597.1234935709417
  0
TEXT
  8
_0-1_
 62
    4
 10
2275.169371352823
 20
1634.6234935709417
 40
12.5
 41
1
 50
0
  1
72
  0
LINE
  8
_0-1_
  6
CONTINUOUS
 62
    4
 10
2150.2009185288553
 20
1533.8734947425455
 11
2150.2009185288553
 21
1511.8734948617548
  0
POINT
  8
_0-1_
 62
    7
 10
2150.2009185288553
 20
1533.8734947425455
  0
POINT
  8
_0-1_
 62
    7
 10
2150.2009185288553
 20
1511.8734948617548
  0
TEXT
  8
_0-1_
 62
    4
 10
2147.6969928340445
 20
1538.7502410087586
 40
12.5
 41
1
 50
90
  1
22
  0
LINE
  8
_0-1_
  6
CONTINUOUS
 62
    7
 10
2150.2009185288553
 20
1533.8734947425455
 11
2150.2009185288553
 21
1553.0128032321536
  0
ENDSEC
  0
EOF
