  0
SECTION
  2
HEADER
  9
$ACADVER
  1
AC1009
  9
$INSBASE
 10
0
 20
0
 30
0
  9
$EXTMIN
 10
0
 20
0
  9
$EXTMAX
 10
1682
 20
1188
  9
$LIMMIN
 10
0
 20
0
  9
$LIMMAX
 10
1682
 20
1188
  9
$LTSCALE
 40
2
  0
ENDSEC
  0
SECTION
  2
TABLES
  0
TABLE
  2
LTYPE
 70
     9
  0
LTYPE
  2
CONTINUOUS
 70
    64
  3
実線
 72
    65
 73
     0
 40
0.0
  0
LTYPE
  2
DASHED1
 70
    64
  3
--  --  --  --  --  --  --  --  
 72
    65
 73
     2
 40
2.5
 49
1.25
 49
-1.25
  0
LTYPE
  2
DASHED2
 70
    64
  3
----    ----    ----    ----    
 72
    65
 73
     2
 40
5.0
 49
2.5
 49
-2.5
  0
LTYPE
  2
DASHED3
 70
    64
  3
------  ------  ------  ------  
 72
    65
 73
     2
 40
5.0
 49
3.75
 49
-1.25
  0
LTYPE
  2
CENTER1
 70
    64
  3
----- - ----- - ----- - ----- - 
 72
    65
 73
     4
 40
10.0
 49
6.25
 49
-1.25
 49
1.25
 49
-1.25
  0
LTYPE
  2
CENTER2
 70
    64
  3
----------  --  ----------  --  
 72
    65
 73
     4
 40
20.0
 49
12.5
 49
-2.5
 49
2.5
 49
-2.5
  0
LTYPE
  2
PHANTOM1
 70
    64
  3
--- - - --- - - --- - - --- - - 
 72
    65
 73
     6
 40
10.0
 49
3.25
 49
-1.25
 49
1.25
 49
-1.25
 49
1.25
 49
-1.25
  0
LTYPE
  2
PHANTOM2
 70
    64
  3
--------  -  -  --------  -  -  
 72
    65
 73
     6
 40
20.0
 49
10.0
 49
-2.5
 49
1.25
 49
-2.5
 49
1.25
 49
-2.5
  0
LTYPE
  2
DOT
 70
    64
  3
-   -   -   -   -   -   -   -   
 72
    65
 73
     2
 40
2.5
 49
0.625
 49
-1.875
  0
LTYPE
  2
DUMMY
 70
    64
  3
ダミー
 72
    65
 73
     0
 40
0.0
  0
LTYPE
  2
RAND1
 70
    64
  3
ランダム線1
 72
    65
 73
     4
 40
10.0
 49
1.0
 49
-2.0
 49
3.0
 49
-4.0
  0
LTYPE
  2
RAND2
 70
    64
  3
ランダム線2
 72
    65
 73
     4
 40
14.0
 49
2.0
 49
-3.0
 49
4.0
 49
-5.0
  0
LTYPE
  2
RAND3
 70
    64
  3
ランダム線3
 72
    65
 73
     4
 40
18.0
 49
3.0
 49
-4.0
 49
5.0
 49
-6.0
  0
LTYPE
  2
RAND4
 70
    64
  3
ランダム線4
 72
    65
 73
     4
 40
22.0
 49
4.0
 49
-5.0
 49
6.0
 49
-7.0
  0
LTYPE
  2
RAND5
 70
    64
  3
ランダム線5
 72
    65
 73
     4
 40
26.0
 49
5.0
 49
-6.0
 49
7.0
 49
-8.0
  0
LTYPE
  2
LONG1
 70
    64
  3
----------  --  ----------  --  
 72
    65
 73
     4
 40
40.0
 49
32.5
 49
-2.5
 49
2.5
 49
-2.5
  0
LTYPE
  2
LONG2
 70
    64
  3
--------  -  -  --------  -  -  
 72
    65
 73
     6
 40
40.0
 49
30.0
 49
-2.5
 49
1.25
 49
-2.5
 49
1.25
 49
-2.5
  0
LTYPE
  2
LONG3
 70
    64
  3
+++++++++++++++..+++++++++++++++
 72
    65
 73
     2
 40
40.0
 49
37.5
 49
-2.5
  0
LTYPE
  2
LONG4
 70
    64
  3
+++++++++++++++..+++++++++++++++
 72
    65
 73
     2
 40
80.0
 49
75.0
 49
-5.0
  0
LTYPE
  2
LONG5
 70
    64
  3
----------  --  ----------  --  
 72
    65
 73
     4
 40
60.0
 49
37.5
 49
-7.5
 49
7.5
 49
-7.5
  0
LTYPE
  2
dashed
 70
   64
  3
-------   -------------   ------
 72
   65
 73
    2
 40
7.5
 49
6
 49
-1.5
  0
LTYPE
  2
dashed_spaced
 70
   64
  3
----        --------        ----
 72
   65
 73
    2
 40
12
 49
6
 49
-6
  0
LTYPE
  2
long_dashed_dotted
 70
   64
  3
------------- --- --------------
 72
   65
 73
    4
 40
15.25
 49
12
 49
-1.5
 49
0.25
 49
-1.5
  0
LTYPE
  2
long_dashed_double-dotted
 70
   64
  3
----------- --- --- ------------
 72
   65
 73
    6
 40
17
 49
12
 49
-1.5
 49
0.25
 49
-1.5
 49
0.25
 49
-1.5
  0
LTYPE
  2
long_dashed_triplicate-dotted
 70
   64
  3
--------- --- --- --- ----------
 72
   65
 73
    8
 40
18.75
 49
12
 49
-1.5
 49
0.25
 49
-1.5
 49
0.25
 49
-1.5
 49
0.25
 49
-1.5
  0
LTYPE
  2
dotted
 70
   64
  3
   -       -       -       -    
 72
   65
 73
    2
 40
1.75
 49
0.25
 49
-1.5
  0
LTYPE
  2
chain
 70
   64
  3
-------------- -- --------------
 72
   65
 73
    4
 40
18.5
 49
12
 49
-1.5
 49
3.5
 49
-1.5
  0
LTYPE
  2
chain_double_dash
 70
   64
  3
------------ -- -- -------------
 72
   65
 73
    6
 40
23.5
 49
12
 49
-1.5
 49
3.5
 49
-1.5
 49
3.5
 49
-1.5
  0
LTYPE
  2
dashed_dotted
 70
   64
  3
-----------     -     ----------
 72
   65
 73
    4
 40
9.25
 49
6
 49
-1.5
 49
0.25
 49
-1.5
  0
LTYPE
  2
double-dashed_dotted
 70
   64
  3
------   -----------   -   -----
 72
   65
 73
    6
 40
16.75
 49
6
 49
-1.5
 49
6
 49
-1.5
 49
0.25
 49
-1.5
  0
LTYPE
  2
dashed_double-dotted
 70
   64
  3
---------    -    -    ---------
 72
   65
 73
    6
 40
11
 49
6
 49
-1.5
 49
0.25
 49
-1.5
 49
0.25
 49
-1.5
  0
LTYPE
  2
double-dashed_double-dotted
 70
   64
  3
-----   ---------   -   -   ----
 72
   65
 73
    8
 40
18.5
 49
6
 49
-1.5
 49
6
 49
-1.5
 49
0.25
 49
-1.5
 49
0.25
 49
-1.5
  0
LTYPE
  2
dashed_triplicate-dotted
 70
   64
  3
-------    -    -    -    ------
 72
   65
 73
    8
 40
12.75
 49
6
 49
-1.5
 49
0.25
 49
-1.5
 49
0.25
 49
-1.5
 49
0.25
 49
-1.5
  0
LTYPE
  2
double-dashed_triplicate-dotted
 70
   64
  3
-----  ---------  -  -  -  -----
 72
   65
 73
   10
 40
20.25
 49
6
 49
-1.5
 49
6
 49
-1.5
 49
0.25
 49
-1.5
 49
0.25
 49
-1.5
 49
0.25
 49
-1.5
  0
LTYPE
  2
undefined
 70
   64
  3
--------------------------------
 72
   65
 73
    0
 40
0
  0
ENDTAB
  0
TABLE
  2
STYLE
  5
3
100
AcDbSymbolTable
 70
     1
  0
STYLE
  5
10
100
AcDbSymbolTableRecord
100
AcDbTextStyleTableRecord
  2
STANDARD
 70
     0
 40
0.0
 41
1.0
 50
0.0
 71
     0
 42
0.2
  3
txt
  4
bigfont.shx
  0
STYLE
  5
26
100
AcDbSymbolTableRecord
100
AcDbTextStyleTableRecord
  2
TATEGAKI
 70
    68
 40
0.0
 41
1.0
 50
0.0
 71
     0
 42
1.0
  3
txt
  4
bigfont.shx
  0
ENDTAB
  0
TABLE
  2
LAYER
 70
    4
  0
LAYER
  2
_0-0_FRF74-1103
 70
   64
 62
    7
  6
CONTINUOUS
  0
LAYER
  2
_0-1_
 70
   64
 62
    7
  6
CONTINUOUS
  0
LAYER
  2
_0-2_
 70
   64
 62
    7
  6
CONTINUOUS
  0
LAYER
  2
ADD_LINE
 70
   64
 62
    7
  6
CONTINUOUS
  0
ENDTAB
  0
ENDSEC
  0
SECTION
  2
BLOCKS
  0
ENDSEC
  0
SECTION
  2
ENTITIES
  0
LINE
  8
_0-0_FRF74-1103
  6
CONTINUOUS
 62
    7
 10
1008.1525276917469
 20
796.39944832629249
 11
1008.1525276917469
 21
716.39945011443183
  0
ARC
  8
_0-0_FRF74-1103
  6
CONTINUOUS
 62
    7
 10
520.27752731963005
 20
794.39944826066574
 40
450.12499999999994
 50
358.34317720413486
 51
1.6568227958658492
  0
ARC
  8
_0-0_FRF74-1103
  6
CONTINUOUS
 62
    7
 10
801.52163720797
 20
781.39944740242049
 40
2
 50
180
 51
270
  0
ARC
  8
_0-0_FRF74-1103
  6
CONTINUOUS
 62
    7
 10
801.52163720797
 20
807.39944859451339
 40
2
 50
90
 51
180
  0
LINE
  8
_0-2_
  6
CONTINUOUS
 62
    7
 10
1079.8988725370491
 20
503.2673488237719
 11
689.8988725370491
 21
503.2673488237719
  0
LINE
  8
_0-2_
  6
CONTINUOUS
 62
    7
 10
1079.8988725371457
 20
1029.267348823772
 11
689.89887253714551
 21
1029.267348823772
  0
LINE
  8
_0-2_
  6
CONTINUOUS
 62
    7
 10
689.89887253714551
 20
1029.267348823772
 11
689.89887253714551
 21
469.2673488237719
  0
LINE
  8
_0-2_
  6
CONTINUOUS
 62
    7
 10
689.89887253714551
 20
469.2673488237719
 11
1079.8988725371457
 21
469.2673488237719
  0
LINE
  8
_0-2_
  6
CONTINUOUS
 62
    7
 10
1079.8988725371457
 20
469.2673488237719
 11
1079.8988725371457
 21
1029.267348823772
  0
LINE
  8
_0-2_
  6
CONTINUOUS
 62
    7
 10
1079.8988725370491
 20
520.26734882377195
 11
689.8988725370491
 21
520.26734882377195
  0
LINE
  8
_0-2_
  6
CONTINUOUS
 62
    7
 10
1079.8988725371457
 20
486.2673488237719
 11
929.29887253714571
 21
486.2673488237719
  0
LINE
  8
_0-2_
  6
CONTINUOUS
 62
    7
 10
1029.6988725371975
 20
486.2673488237719
 11
1029.6988725371975
 21
503.2673488237719
  0
LINE
  8
_0-2_
  6
CONTINUOUS
 62
    7
 10
979.49887253719749
 20
486.2673488237719
 11
979.49887253719749
 21
503.2673488237719
  0
LINE
  8
_0-2_
  6
CONTINUOUS
 62
    7
 10
929.29887253719744
 20
469.2673488237719
 11
929.29887253719744
 21
520.26734882377195
  0
TEXT
  8
_0-2_
 62
    7
 10
936.36516934588531
 20
473.92519932464324
 40
6
 41
1
 50
0
  1
大洋金物株式会社 ティーフォルム事業部
  0
TEXT
  8
_0-2_
 62
    7
 10
692.03092613020874
 20
496.95829989926438
 40
4.4000000000000004
 41
1
 50
0
  1
仕様
  0
TEXT
  8
_0-2_
 62
    7
 10
692.11008412622641
 20
513.7277384202182
 40
4.4000000000000004
 41
1
 50
0
  1
品名
  0
TEXT
  8
_0-2_
 62
    7
 10
931.58014201817321
 20
514.02354576782386
 40
4.4000000000000004
 41
1
 50
0
  1
品番
  0
TEXT
  8
_0-2_
 62
    7
 10
931.40046929208268
 20
496.85593532261146
 40
4.4000000000000004
 41
1
 50
0
  1
重量
  0
TEXT
  8
_0-2_
 62
    7
 10
981.63419090952073
 20
497.28379304790997
 40
4.4000000000000004
 41
1
 50
0
  1
容量
  0
TEXT
  8
_0-2_
 62
    7
 10
1031.8476186341097
 20
497.19837872271296
 40
4.4000000000000004
 41
1
 50
0
  1
縮尺
  0
TEXT
  8
_0-2_
 62
    4
 10
690.59866426069993
 20
460.90948008418826
 40
5
 41
1
 50
0
  1
120907S
  0
TEXT
  8
_0-2_
 62
    7
 10
942.89541103866486
 20
507.16508785728229
 40
6
 41
1
 50
0
  1
FRF74-1103
  0
LINE
  8
_0-1_
  6
CONTINUOUS
 62
    4
 10
871.52164279486874
 20
829.39944859451339
 11
799.52164279486874
 21
829.39944859451339
  0
POINT
  8
_0-1_
 62
    7
 10
871.52164279486874
 20
829.39944859451339
  0
POINT
  8
_0-1_
 62
    7
 10
799.52164279486874
 20
829.39944859451339
  0
LINE
  8
_0-1_
  6
CONTINUOUS
 62
    4
 10
871.52164279486874
 20
829.39944859451339
 11
871.52164279486874
 21
813.39944826066574
  0
LINE
  8
_0-1_
  6
CONTINUOUS
 62
    4
 10
799.52164279486874
 20
829.39944859451339
 11
799.52164279486874
 21
813.39944826066574
  0
TEXT
  8
_0-1_
 62
    4
 10
833.02164279486874
 20
830.39944859451339
 40
5
 41
1
 50
0
  1
72
  0
LINE
  8
_0-1_
  6
CONTINUOUS
 62
    4
 10
714.52164279486783
 20
716.3994482606646
 11
714.52164279486783
 21
809.39944826066574
  0
POINT
  8
_0-1_
 62
    7
 10
714.52164279486783
 20
716.3994482606646
  0
POINT
  8
_0-1_
 62
    7
 10
714.52164279486783
 20
809.39944826066574
  0
LINE
  8
_0-1_
  6
CONTINUOUS
 62
    4
 10
714.52164279486783
 20
716.3994482606646
 11
728.52164279486783
 21
716.3994482606646
  0
LINE
  8
_0-1_
  6
CONTINUOUS
 62
    4
 10
714.52164279486783
 20
809.39944826066574
 11
795.52164279486874
 21
809.39944826066574
  0
TEXT
  8
_0-1_
 62
    4
 10
713.52164279486783
 20
760.39944826066517
 40
5
 41
1
 50
90
  1
93
  0
LINE
  8
_0-1_
  6
CONTINUOUS
 62
    4
 10
734.52164279486863
 20
696.3994482606646
 11
936.52164279486783
 21
696.3994482606646
  0
POINT
  8
_0-1_
 62
    7
 10
734.52164279486863
 20
696.3994482606646
  0
POINT
  8
_0-1_
 62
    7
 10
936.52164279486783
 20
696.3994482606646
  0
LINE
  8
_0-1_
  6
CONTINUOUS
 62
    4
 10
734.52164279486863
 20
696.3994482606646
 11
734.52164279486863
 21
710.39944826066323
  0
LINE
  8
_0-1_
  6
CONTINUOUS
 62
    4
 10
936.52164279486783
 20
696.3994482606646
 11
936.52164279486783
 21
710.69944826066444
  0
TEXT
  8
_0-1_
 62
    4
 10
831.77164279486828
 20
697.3994482606646
 40
5
 41
1
 50
0
  1
202
  0
LINE
  8
_0-1_
  6
CONTINUOUS
 62
    4
 10
956.52164279486783
 20
726.3994482606646
 11
956.52164279486783
 21
716.3994482606646
  0
POINT
  8
_0-1_
 62
    7
 10
956.52164279486783
 20
726.3994482606646
  0
POINT
  8
_0-1_
 62
    7
 10
956.52164279486783
 20
716.3994482606646
  0
LINE
  8
_0-1_
  6
CONTINUOUS
 62
    4
 10
956.52164279486783
 20
726.3994482606646
 11
940.52164279486783
 21
726.3994482606646
  0
LINE
  8
_0-1_
  6
CONTINUOUS
 62
    4
 10
956.52164279486783
 20
716.3994482606646
 11
940.52164279486783
 21
716.3994482606646
  0
TEXT
  8
_0-1_
 62
    4
 10
955.52164279486783
 20
718.8994482606646
 40
5
 41
1
 50
90
  1
10
  0
LINE
  8
_0-1_
  6
CONTINUOUS
 62
    4
 10
940.15252731963062
 20
809.39944826066574
 11
940.15252731963062
 21
779.39944826066574
  0
POINT
  8
_0-1_
 62
    7
 10
940.15252731963062
 20
809.39944826066574
  0
POINT
  8
_0-1_
 62
    7
 10
940.15252731963062
 20
779.39944826066574
  0
LINE
  8
_0-1_
  6
CONTINUOUS
 62
    4
 10
940.15252731963062
 20
809.39944826066574
 11
954.15252731963062
 21
809.39944826066574
  0
LINE
  8
_0-1_
  6
CONTINUOUS
 62
    4
 10
940.15252731963062
 20
779.39944826066574
 11
954.15252731963062
 21
779.39944826066574
  0
LINE
  8
_0-1_
  6
CONTINUOUS
 62
    4
 10
960.15252731963062
 20
829.39944826066574
 11
1030.1525238472473
 21
829.39944826066574
  0
POINT
  8
_0-1_
 62
    7
 10
960.15252731963062
 20
829.39944826066574
  0
POINT
  8
_0-1_
 62
    7
 10
1030.1525238472473
 20
829.39944826066574
  0
LINE
  8
_0-1_
  6
CONTINUOUS
 62
    4
 10
960.15252731963062
 20
829.39944826066574
 11
960.15252731963062
 21
815.39944826066574
  0
LINE
  8
_0-1_
  6
CONTINUOUS
 62
    4
 10
1030.1525238472473
 20
829.39944826066574
 11
1030.1525238472473
 21
802.39944832629249
  0
TEXT
  8
_0-1_
 62
    4
 10
992.65252558343889
 20
830.39944826066574
 40
5
 41
1
 50
0
  1
70
  0
LINE
  8
_0-1_
  6
CONTINUOUS
 62
    4
 10
1008.4025273196303
 20
696.39944826066323
 11
1030.4025273196303
 21
696.39944826066323
  0
POINT
  8
_0-1_
 62
    7
 10
1008.4025273196303
 20
696.39944826066323
  0
POINT
  8
_0-1_
 62
    7
 10
1030.4025273196303
 20
696.39944826066323
  0
LINE
  8
_0-1_
  6
CONTINUOUS
 62
    4
 10
1008.4025273196303
 20
696.39944826066323
 11
1008.4025273196303
 21
710.39944826066323
  0
LINE
  8
_0-1_
  6
CONTINUOUS
 62
    4
 10
1030.4025273196303
 20
696.39944826066323
 11
1030.4025273196303
 21
710.39944826066323
  0
TEXT
  8
_0-1_
 62
    4
 10
1016.9025273196303
 20
697.39944826066323
 40
5
 41
1
 50
0
  1
22
  0
LINE
  8
_0-0_FRF74-1103
  6
CONTINUOUS
 62
    7
 10
936.52164290021358
 20
726.28199707573935
 11
936.52164290021358
 21
726.09945040053412
  0
LINE
  8
_0-0_FRF74-1103
  6
CONTINUOUS
 62
    7
 10
936.52164290021358
 20
716.69944774216697
 11
936.52164290021358
 21
716.51690106696174
  0
LINE
  8
_0-0_FRF74-1103
  6
CONTINUOUS
 62
    7
 10
936.52164290021358
 20
726.09945040053412
 11
936.52164290021358
 21
716.69944774216697
  0
LINE
  8
_0-0_FRF74-1103
  6
CONTINUOUS
 62
    7
 10
934.52164257238803
 20
726.39944802826926
 11
744.52164495657382
 21
726.39944802826926
  0
LINE
  8
_0-0_FRF74-1103
  6
CONTINUOUS
 62
    7
 10
934.52164257238803
 20
716.39945011443183
 11
734.52165449331699
 21
716.39945011443183
  0
LINE
  8
_0-0_FRF74-1103
  6
CONTINUOUS
 62
    7
 10
734.52165449331699
 20
716.39945011443183
 11
744.52164495657382
 21
726.39944802826926
  0
LINE
  8
_0-0_FRF74-1103
  6
CONTINUOUS
 62
    7
 10
734.52165449331699
 20
796.39944832629249
 11
734.52165449331699
 21
716.39945011443183
  0
LINE
  8
_0-0_FRF74-1103
  6
CONTINUOUS
 62
    7
 10
734.52165449331699
 20
796.39944832629249
 11
744.52164495657382
 21
786.39944668716475
  0
LINE
  8
_0-0_FRF74-1103
  6
CONTINUOUS
 62
    7
 10
744.52164495657382
 20
786.39944668716475
 11
744.52164495657382
 21
726.39944802826926
  0
LINE
  8
_0-0_FRF74-1103
  6
CONTINUOUS
 62
    7
 10
846.52164304922519
 20
796.39944832629249
 11
846.52164304922519
 21
786.39944668716475
  0
LINE
  8
_0-0_FRF74-1103
  6
CONTINUOUS
 62
    7
 10
846.52164304922519
 20
786.39944668716475
 11
744.52164495657382
 21
786.39944668716475
  0
LINE
  8
_0-0_FRF74-1103
  6
CONTINUOUS
 62
    7
 10
846.52164304922519
 20
796.39944832629249
 11
734.52165449331699
 21
796.39944832629249
  0
ARC
  8
_0-0_FRF74-1103
  6
CONTINUOUS
 62
    7
 10
869.52164155910907
 20
807.39944859451339
 40
2
 50
0
 51
90
  0
LINE
  8
_0-0_FRF74-1103
  6
CONTINUOUS
 62
    7
 10
871.52164155910907
 20
781.39944740242049
 11
871.52164155910907
 21
807.39944859451339
  0
ARC
  8
_0-0_FRF74-1103
  6
CONTINUOUS
 62
    7
 10
869.52164155910907
 20
781.39944740242049
 40
2
 50
270
 51
0
  0
LINE
  8
_0-0_FRF74-1103
  6
CONTINUOUS
 62
    7
 10
801.52163720797
 20
809.39944859451339
 11
869.52164155910907
 21
809.39944859451339
  0
LINE
  8
_0-0_FRF74-1103
  6
CONTINUOUS
 62
    7
 10
799.52163720797
 20
807.39944859451339
 11
799.52163720797
 21
796.39944832629249
  0
LINE
  8
_0-0_FRF74-1103
  6
CONTINUOUS
 62
    7
 10
799.52163720797
 20
781.39944740242049
 11
799.52163720797
 21
786.39944668716475
  0
LINE
  8
_0-0_FRF74-1103
  6
CONTINUOUS
 62
    7
 10
801.52163720797
 20
779.39944740242049
 11
869.52164155910907
 21
779.39944740242049
  0
LINE
  8
_0-0_FRF74-1103
  6
CONTINUOUS
 62
    7
 10
970.37475594314446
 20
789.39944904154822
 11
970.40252705099692
 21
789.39944904154822
  0
LINE
  8
_0-0_FRF74-1103
  6
CONTINUOUS
 62
    7
 10
970.40252705099692
 20
793.39944783455417
 11
970.40141691448798
 21
793.39944783455417
  0
LINE
  8
_0-0_FRF74-1103
  6
CONTINUOUS
 62
    7
 10
960.15252729174381
 20
807.39944826668784
 11
960.15252729174381
 21
781.39944773024604
  0
LINE
  8
_0-0_FRF74-1103
  6
CONTINUOUS
 62
    7
 10
960.15252729174381
 20
809.39944859451339
 11
969.66866069468369
 21
809.39944859451339
  0
LINE
  8
_0-0_FRF74-1103
  6
CONTINUOUS
 62
    7
 10
960.15252729174381
 20
807.39944826668784
 11
960.15252729174381
 21
809.39944859451339
  0
LINE
  8
_0-0_FRF74-1103
  6
CONTINUOUS
 62
    7
 10
969.66866069468369
 20
779.39944740242049
 11
960.15252729174381
 21
779.39944740242049
  0
LINE
  8
_0-0_FRF74-1103
  6
CONTINUOUS
 62
    7
 10
960.15252729174381
 20
779.39944740242049
 11
960.15252729174381
 21
781.39944773024604
  0
ARC
  8
_0-0_FRF74-1103
  6
CONTINUOUS
 62
    7
 10
969.66866054880268
 20
808.89944826066574
 40
0.5000000000000057
 50
1.8480575465143616
 51
90
  0
LINE
  8
_0-0_FRF74-1103
  6
CONTINUOUS
 62
    7
 10
970.21434494289269
 20
781.38499360388801
 11
970.21143729759717
 21
781.28552477866174
  0
ARC
  8
_0-0_FRF74-1103
  6
CONTINUOUS
 62
    7
 10
418.19589953926294
 20
797.42189089888916
 40
552.25133430186384
 50
358.25943888818739
 51
358.3256223646153
  0
ARC
  8
_0-0_FRF74-1103
  6
CONTINUOUS
 62
    7
 10
612.36180829674129
 20
791.52160237491489
 40
357.99579762843064
 50
358.15734297588961
 51
358.25943888818693
  0
LINE
  8
_0-0_FRF74-1103
  6
CONTINUOUS
 62
    7
 10
970.17248553816034
 20
780.010287434681
 11
970.16840818835544
 21
779.88354958564742
  0
LINE
  8
_0-0_FRF74-1103
  6
CONTINUOUS
 62
    7
 10
970.16840818835544
 20
779.88354958564742
 11
970.16840093764176
 21
779.88332535928771
  0
ARC
  8
_0-0_FRF74-1103
  6
CONTINUOUS
 62
    7
 10
969.66866054880268
 20
779.89944826066574
 40
0.5
 50
269.99999999999341
 51
358.15194245348221
  0
LINE
  8
_0-0_FRF74-1103
  6
CONTINUOUS
 62
    7
 10
970.40252705099692
 20
796.39944832629249
 11
970.40252705099692
 21
786.39944668716475
  0
LINE
  8
_0-0_FRF74-1103
  6
CONTINUOUS
 62
    7
 10
970.20474114450326
 20
807.41362672156379
 11
970.16840048011125
 21
808.91557280890038
  0
LINE
  8
_0-0_FRF74-1103
  6
CONTINUOUS
 62
    7
 10
1030.1525238472473
 20
716.39945011443183
 11
1008.1525276917469
 21
716.39945011443183
  0
LINE
  8
_0-0_FRF74-1103
  6
CONTINUOUS
 62
    7
 10
1008.1525276917469
 20
796.39944832629249
 11
1030.1525238472473
 21
796.39944832629249
  0
LINE
  8
_0-0_FRF74-1103
  6
CONTINUOUS
 62
    7
 10
1030.1525238472473
 20
796.39944832629249
 11
1030.1525238472473
 21
716.39945011443183
  0
LINE
  8
_0-0_FRF74-1103
  6
CONTINUOUS
 62
    7
 10
1008.1525276917469
 20
796.39944832629249
 11
970.40252705099692
 21
796.39944832629249
  0
LINE
  8
_0-0_FRF74-1103
  6
CONTINUOUS
 62
    7
 10
1008.1525276917469
 20
786.39944668716475
 11
970.40252705099692
 21
786.39944668716475
  0
TEXT
  8
_0-1_
 62
    4
 10
939.15252731963062
 20
791.89944826066574
 40
5
 41
1
 50
90
  1
30
  0
LINE
  8
_0-2_
  6
CONTINUOUS
 62
    7
 10
934.52164257238803
 20
726.39944802826926
 11
936.52164290021358
 21
726.28199707573935
  0
LINE
  8
_0-2_
  6
CONTINUOUS
 62
    7
 10
934.52164257238803
 20
716.39945011443183
 11
936.52164290021358
 21
716.51690106696174
  0
TEXT
  8
_0-2_
 62
    7
 10
703.48450996090992
 20
489.15719870013658
 40
6
 41
1
 50
0
  1
クローム
  0
TEXT
  8
_0-2_
 62
    7
 10
704.52645968509307
 20
506.99149662678974
 40
6
 41
1
 50
0
  1
タオルリング　-LANGBERGER,Vota-
  0
ENDSEC
  0
EOF
