  0
SECTION
  2
HEADER
  9
$ACADVER
  1
AC1009
  9
$INSBASE
 10
0
 20
0
 30
0
  9
$EXTMIN
 10
0
 20
0
  9
$EXTMAX
 10
4205
 20
2970
  9
$LIMMIN
 10
0
 20
0
  9
$LIMMAX
 10
4205
 20
2970
  9
$LTSCALE
 40
5
  0
ENDSEC
  0
SECTION
  2
TABLES
  0
TABLE
  2
LTYPE
 70
     9
  0
LTYPE
  2
CONTINUOUS
 70
    64
  3
実線
 72
    65
 73
     0
 40
0.0
  0
LTYPE
  2
DASHED1
 70
    64
  3
--  --  --  --  --  --  --  --  
 72
    65
 73
     2
 40
2.5
 49
1.25
 49
-1.25
  0
LTYPE
  2
DASHED2
 70
    64
  3
----    ----    ----    ----    
 72
    65
 73
     2
 40
5.0
 49
2.5
 49
-2.5
  0
LTYPE
  2
DASHED3
 70
    64
  3
------  ------  ------  ------  
 72
    65
 73
     2
 40
5.0
 49
3.75
 49
-1.25
  0
LTYPE
  2
CENTER1
 70
    64
  3
----- - ----- - ----- - ----- - 
 72
    65
 73
     4
 40
10.0
 49
6.25
 49
-1.25
 49
1.25
 49
-1.25
  0
LTYPE
  2
CENTER2
 70
    64
  3
----------  --  ----------  --  
 72
    65
 73
     4
 40
20.0
 49
12.5
 49
-2.5
 49
2.5
 49
-2.5
  0
LTYPE
  2
PHANTOM1
 70
    64
  3
--- - - --- - - --- - - --- - - 
 72
    65
 73
     6
 40
10.0
 49
3.25
 49
-1.25
 49
1.25
 49
-1.25
 49
1.25
 49
-1.25
  0
LTYPE
  2
PHANTOM2
 70
    64
  3
--------  -  -  --------  -  -  
 72
    65
 73
     6
 40
20.0
 49
10.0
 49
-2.5
 49
1.25
 49
-2.5
 49
1.25
 49
-2.5
  0
LTYPE
  2
DOT
 70
    64
  3
-   -   -   -   -   -   -   -   
 72
    65
 73
     2
 40
2.5
 49
0.625
 49
-1.875
  0
LTYPE
  2
DUMMY
 70
    64
  3
ダミー
 72
    65
 73
     0
 40
0.0
  0
LTYPE
  2
RAND1
 70
    64
  3
ランダム線1
 72
    65
 73
     4
 40
10.0
 49
1.0
 49
-2.0
 49
3.0
 49
-4.0
  0
LTYPE
  2
RAND2
 70
    64
  3
ランダム線2
 72
    65
 73
     4
 40
14.0
 49
2.0
 49
-3.0
 49
4.0
 49
-5.0
  0
LTYPE
  2
RAND3
 70
    64
  3
ランダム線3
 72
    65
 73
     4
 40
18.0
 49
3.0
 49
-4.0
 49
5.0
 49
-6.0
  0
LTYPE
  2
RAND4
 70
    64
  3
ランダム線4
 72
    65
 73
     4
 40
22.0
 49
4.0
 49
-5.0
 49
6.0
 49
-7.0
  0
LTYPE
  2
RAND5
 70
    64
  3
ランダム線5
 72
    65
 73
     4
 40
26.0
 49
5.0
 49
-6.0
 49
7.0
 49
-8.0
  0
LTYPE
  2
LONG1
 70
    64
  3
----------  --  ----------  --  
 72
    65
 73
     4
 40
40.0
 49
32.5
 49
-2.5
 49
2.5
 49
-2.5
  0
LTYPE
  2
LONG2
 70
    64
  3
--------  -  -  --------  -  -  
 72
    65
 73
     6
 40
40.0
 49
30.0
 49
-2.5
 49
1.25
 49
-2.5
 49
1.25
 49
-2.5
  0
LTYPE
  2
LONG3
 70
    64
  3
+++++++++++++++..+++++++++++++++
 72
    65
 73
     2
 40
40.0
 49
37.5
 49
-2.5
  0
LTYPE
  2
LONG4
 70
    64
  3
+++++++++++++++..+++++++++++++++
 72
    65
 73
     2
 40
80.0
 49
75.0
 49
-5.0
  0
LTYPE
  2
LONG5
 70
    64
  3
----------  --  ----------  --  
 72
    65
 73
     4
 40
60.0
 49
37.5
 49
-7.5
 49
7.5
 49
-7.5
  0
LTYPE
  2
dashed
 70
   64
  3
-------   -------------   ------
 72
   65
 73
    2
 40
7.5
 49
6
 49
-1.5
  0
LTYPE
  2
dashed_spaced
 70
   64
  3
----        --------        ----
 72
   65
 73
    2
 40
12
 49
6
 49
-6
  0
LTYPE
  2
long_dashed_dotted
 70
   64
  3
------------- --- --------------
 72
   65
 73
    4
 40
15.25
 49
12
 49
-1.5
 49
0.25
 49
-1.5
  0
LTYPE
  2
long_dashed_double-dotted
 70
   64
  3
----------- --- --- ------------
 72
   65
 73
    6
 40
17
 49
12
 49
-1.5
 49
0.25
 49
-1.5
 49
0.25
 49
-1.5
  0
LTYPE
  2
long_dashed_triplicate-dotted
 70
   64
  3
--------- --- --- --- ----------
 72
   65
 73
    8
 40
18.75
 49
12
 49
-1.5
 49
0.25
 49
-1.5
 49
0.25
 49
-1.5
 49
0.25
 49
-1.5
  0
LTYPE
  2
dotted
 70
   64
  3
   -       -       -       -    
 72
   65
 73
    2
 40
1.75
 49
0.25
 49
-1.5
  0
LTYPE
  2
chain
 70
   64
  3
-------------- -- --------------
 72
   65
 73
    4
 40
18.5
 49
12
 49
-1.5
 49
3.5
 49
-1.5
  0
LTYPE
  2
chain_double_dash
 70
   64
  3
------------ -- -- -------------
 72
   65
 73
    6
 40
23.5
 49
12
 49
-1.5
 49
3.5
 49
-1.5
 49
3.5
 49
-1.5
  0
LTYPE
  2
dashed_dotted
 70
   64
  3
-----------     -     ----------
 72
   65
 73
    4
 40
9.25
 49
6
 49
-1.5
 49
0.25
 49
-1.5
  0
LTYPE
  2
double-dashed_dotted
 70
   64
  3
------   -----------   -   -----
 72
   65
 73
    6
 40
16.75
 49
6
 49
-1.5
 49
6
 49
-1.5
 49
0.25
 49
-1.5
  0
LTYPE
  2
dashed_double-dotted
 70
   64
  3
---------    -    -    ---------
 72
   65
 73
    6
 40
11
 49
6
 49
-1.5
 49
0.25
 49
-1.5
 49
0.25
 49
-1.5
  0
LTYPE
  2
double-dashed_double-dotted
 70
   64
  3
-----   ---------   -   -   ----
 72
   65
 73
    8
 40
18.5
 49
6
 49
-1.5
 49
6
 49
-1.5
 49
0.25
 49
-1.5
 49
0.25
 49
-1.5
  0
LTYPE
  2
dashed_triplicate-dotted
 70
   64
  3
-------    -    -    -    ------
 72
   65
 73
    8
 40
12.75
 49
6
 49
-1.5
 49
0.25
 49
-1.5
 49
0.25
 49
-1.5
 49
0.25
 49
-1.5
  0
LTYPE
  2
double-dashed_triplicate-dotted
 70
   64
  3
-----  ---------  -  -  -  -----
 72
   65
 73
   10
 40
20.25
 49
6
 49
-1.5
 49
6
 49
-1.5
 49
0.25
 49
-1.5
 49
0.25
 49
-1.5
 49
0.25
 49
-1.5
  0
LTYPE
  2
undefined
 70
   64
  3
--------------------------------
 72
   65
 73
    0
 40
0
  0
ENDTAB
  0
TABLE
  2
STYLE
  5
3
100
AcDbSymbolTable
 70
     1
  0
STYLE
  5
10
100
AcDbSymbolTableRecord
100
AcDbTextStyleTableRecord
  2
STANDARD
 70
     0
 40
0.0
 41
1.0
 50
0.0
 71
     0
 42
0.2
  3
txt
  4
bigfont.shx
  0
STYLE
  5
26
100
AcDbSymbolTableRecord
100
AcDbTextStyleTableRecord
  2
TATEGAKI
 70
    68
 40
0.0
 41
1.0
 50
0.0
 71
     0
 42
1.0
  3
txt
  4
bigfont.shx
  0
ENDTAB
  0
TABLE
  2
LAYER
 70
    4
  0
LAYER
  2
_0-0_FRF74-1301
 70
   64
 62
    7
  6
CONTINUOUS
  0
LAYER
  2
_0-1_
 70
   64
 62
    7
  6
CONTINUOUS
  0
LAYER
  2
_0-2_
 70
   64
 62
    7
  6
CONTINUOUS
  0
LAYER
  2
ADD_LINE
 70
   64
 62
    7
  6
CONTINUOUS
  0
ENDTAB
  0
ENDSEC
  0
SECTION
  2
BLOCKS
  0
ENDSEC
  0
SECTION
  2
ENTITIES
  0
LINE
  8
_0-2_
  6
CONTINUOUS
 62
    7
 10
2552.566283385414
 20
1056.1979530071658
 11
1577.5662833854144
 21
1056.1979530071658
  0
LINE
  8
_0-2_
  6
CONTINUOUS
 62
    7
 10
2552.5662833856559
 20
2371.1979530071658
 11
1577.5662833856554
 21
2371.1979530071658
  0
LINE
  8
_0-2_
  6
CONTINUOUS
 62
    7
 10
1577.5662833856554
 20
2371.1979530071658
 11
1577.5662833856554
 21
971.19795300716578
  0
LINE
  8
_0-2_
  6
CONTINUOUS
 62
    7
 10
1577.5662833856554
 20
971.19795300716578
 11
2552.5662833856559
 21
971.19795300716578
  0
LINE
  8
_0-2_
  6
CONTINUOUS
 62
    7
 10
2552.5662833856559
 20
971.19795300716578
 11
2552.5662833856559
 21
2371.1979530071658
  0
LINE
  8
_0-2_
  6
CONTINUOUS
 62
    7
 10
2552.566283385414
 20
1098.6979530071658
 11
1577.5662833854144
 21
1098.6979530071658
  0
LINE
  8
_0-2_
  6
CONTINUOUS
 62
    7
 10
2552.5662833856559
 20
1013.6979530071658
 11
2176.0662833856559
 21
1013.6979530071658
  0
LINE
  8
_0-2_
  6
CONTINUOUS
 62
    7
 10
2427.066283385785
 20
1013.6979530071658
 11
2427.066283385785
 21
1056.1979530071658
  0
LINE
  8
_0-2_
  6
CONTINUOUS
 62
    7
 10
2301.566283385785
 20
1013.6979530071658
 11
2301.566283385785
 21
1056.1979530071658
  0
LINE
  8
_0-2_
  6
CONTINUOUS
 62
    7
 10
2176.066283385785
 20
971.19795300716578
 11
2176.066283385785
 21
1098.6979530071658
  0
TEXT
  8
_0-2_
 62
    7
 10
2196.3388549397118
 20
983.13221232091132
 40
15
 41
1
 50
0
  1
大洋金物株式会社 ティーフォルム事業部
  0
TEXT
  8
_0-2_
 62
    7
 10
1578.1476923649509
 20
947.26970852156592
 40
15
 41
1
 50
0
  1
120907S
  0
TEXT
  8
_0-2_
 62
    7
 10
2211.5256034060785
 20
1065.334252852228
 40
15
 41
1
 50
0
  1
FRF74-1301
  0
TEXT
  8
_0-2_
 62
    7
 10
1582.8750828572131
 20
1080.7343511503877
 40
11
 41
1
 50
0
  1
品名
  0
TEXT
  8
_0-2_
 62
    7
 10
1584.6653190366922
 20
1037.1766457401898
 40
11
 41
1
 50
0
  1
仕様
  0
TEXT
  8
_0-2_
 62
    7
 10
2183.0590642652819
 20
1080.1315954814579
 40
11
 41
1
 50
0
  1
品番
  0
TEXT
  8
_0-2_
 62
    7
 10
2183.0568574992371
 20
1037.182349606808
 40
11
 41
1
 50
0
  1
重量
  0
TEXT
  8
_0-2_
 62
    7
 10
2308.1776163454042
 20
1037.5114084130682
 40
11
 41
1
 50
0
  1
容量
  0
TEXT
  8
_0-2_
 62
    7
 10
2433.6646030852935
 20
1037.4114153200876
 40
11
 41
1
 50
0
  1
縮尺
  0
LINE
  8
_0-1_
  6
CONTINUOUS
 62
    4
 10
2425.1687526587834
 20
1765.1967188628464
 11
2425.1687526587834
 21
1799.9884240157837
  0
LINE
  8
_0-1_
  6
CONTINUOUS
 62
    4
 10
2503.4695795388025
 20
1765.1967188628464
 11
2503.4695795388025
 21
1827.9884240157846
  0
LINE
  8
_0-1_
  6
CONTINUOUS
 62
    4
 10
2375.1538993790973
 20
1879.4884240157835
 11
2375.1538993790973
 21
1814.4884240157835
  0
POINT
  8
_0-1_
 62
    7
 10
2375.1538993790973
 20
1879.4884240157835
  0
POINT
  8
_0-1_
 62
    7
 10
2375.1538993790973
 20
1814.4884240157835
  0
LINE
  8
_0-1_
  6
CONTINUOUS
 62
    4
 10
2375.1538993790973
 20
1879.4884240157835
 11
2406.6687526587839
 21
1879.4884240157835
  0
LINE
  8
_0-1_
  6
CONTINUOUS
 62
    4
 10
2375.1538993790973
 20
1814.4884240157835
 11
2406.6687526587848
 21
1814.4884240157835
  0
TEXT
  8
_0-1_
 62
    4
 10
2372.6538993790973
 20
1840.7384240157835
 40
12.5
 41
1
 50
90
  1
65
  0
LINE
  8
_0-1_
  6
CONTINUOUS
 62
    4
 10
2425.1687526587834
 20
1765.1967188628464
 11
2503.4695795388025
 21
1765.1967188628464
  0
POINT
  8
_0-1_
 62
    7
 10
2425.1687526587834
 20
1765.1967188628464
  0
POINT
  8
_0-1_
 62
    7
 10
2503.4695795388025
 20
1765.1967188628464
  0
TEXT
  8
_0-1_
 62
    4
 10
2451.8191660987932
 20
1767.6967188628464
 40
12.5
 41
1
 50
0
  1
78.3
  0
LINE
  8
_0-0_FRF74-1301
  6
CONTINUOUS
 62
    7
 10
1690.2061568312376
 20
1838.9884240157846
 11
2252.606156831238
 21
1838.9884240157846
  0
LINE
  8
_0-0_FRF74-1301
  6
CONTINUOUS
 62
    7
 10
2252.606156831238
 20
1854.9884240157846
 11
1690.2061568312376
 21
1854.9884240157846
  0
ARC
  8
_0-0_FRF74-1301
  6
CONTINUOUS
 62
    7
 10
2288.606156831238
 20
1858.9884240157849
 40
1
 50
0
 51
101.08748921097258
  0
ARC
  8
_0-0_FRF74-1301
  6
CONTINUOUS
 62
    7
 10
2288.6061568312375
 20
1834.9884240157849
 40
1.0000000000001403
 50
258.91251078903497
 51
359.99999999999994
  0
LINE
  8
_0-0_FRF74-1301
  6
CONTINUOUS
 62
    7
 10
2289.606156831238
 20
1834.9884240157849
 11
2289.606156831238
 21
1858.9884240157849
  0
ARC
  8
_0-0_FRF74-1301
  6
CONTINUOUS
 62
    7
 10
2253.6061568312375
 20
1858.9884240157849
 40
0.9999999999999392
 50
78.912510789026143
 51
180
  0
ARC
  8
_0-0_FRF74-1301
  6
CONTINUOUS
 62
    7
 10
2253.6061568312375
 20
1834.9884240157849
 40
1
 50
180
 51
281.08748921098021
  0
LINE
  8
_0-0_FRF74-1301
  6
CONTINUOUS
 62
    7
 10
2252.606156831238
 20
1858.9884240157849
 11
2252.606156831238
 21
1834.9884240157849
  0
ARC
  8
_0-0_FRF74-1301
  6
CONTINUOUS
 62
    7
 10
2271.106156831238
 20
1948.2898797709961
 40
90
 50
258.91251078903014
 51
281.08748921097134
  0
ARC
  8
_0-0_FRF74-1301
  6
CONTINUOUS
 62
    7
 10
2271.106156831238
 20
1745.6869682605729
 40
90
 50
78.912510789029412
 51
101.08748921097062
  0
ARC
  8
_0-0_FRF74-1301
  6
CONTINUOUS
 62
    7
 10
2260.0980991039596
 20
1846.9884240157849
 40
30.000000000000107
 50
349.60967019657284
 51
10.390329803428019
  0
ARC
  8
_0-0_FRF74-1301
  6
CONTINUOUS
 62
    7
 10
1654.2061568312376
 20
1834.9884240157849
 40
1
 50
180
 51
281.08748921097259
  0
ARC
  8
_0-0_FRF74-1301
  6
CONTINUOUS
 62
    7
 10
1654.2061568312376
 20
1858.9884240157849
 40
0.9999999999999392
 50
78.912510789026143
 51
180
  0
LINE
  8
_0-0_FRF74-1301
  6
CONTINUOUS
 62
    7
 10
1653.2061568312381
 20
1858.9884240157849
 11
1653.2061568312381
 21
1834.9884240157849
  0
ARC
  8
_0-0_FRF74-1301
  6
CONTINUOUS
 62
    7
 10
1689.2061568312376
 20
1834.9884240157849
 40
1.0000000000000395
 50
258.91251078903053
 51
359.99999999999994
  0
ARC
  8
_0-0_FRF74-1301
  6
CONTINUOUS
 62
    7
 10
1689.2061568312376
 20
1858.9884240157849
 40
1
 50
0
 51
101.08748921096941
  0
LINE
  8
_0-0_FRF74-1301
  6
CONTINUOUS
 62
    7
 10
1690.2061568312376
 20
1834.9884240157849
 11
1690.2061568312376
 21
1858.9884240157849
  0
ARC
  8
_0-0_FRF74-1301
  6
CONTINUOUS
 62
    7
 10
1671.7061568312376
 20
1745.6869682605734
 40
90
 50
78.912510789029412
 51
101.08748921097062
  0
ARC
  8
_0-0_FRF74-1301
  6
CONTINUOUS
 62
    7
 10
1671.7061568312376
 20
1948.2898797709961
 40
90
 50
258.91251078903014
 51
281.08748921097134
  0
ARC
  8
_0-0_FRF74-1301
  6
CONTINUOUS
 62
    7
 10
1682.714214558516
 20
1846.9884240157849
 40
29.999999999999936
 50
169.60967019657275
 51
190.39032980342805
  0
ARC
  8
_0-0_FRF74-1301
  6
CONTINUOUS
 62
    7
 10
2271.106156831238
 20
1846.9884240157835
 40
32.5
 50
0
 51
165.74996730219459
  0
ARC
  8
_0-0_FRF74-1301
  6
CONTINUOUS
 62
    7
 10
2271.106156831238
 20
1846.9884240157835
 40
32.500000000000057
 50
194.25003269780234
 51
0
  0
ARC
  8
_0-0_FRF74-1301
  6
CONTINUOUS
 62
    7
 10
1671.1061568312377
 20
1846.9884240157835
 40
32.500000000000028
 50
14.250032697805443
 51
345.74996730219931
  0
ARC
  8
_0-0_FRF74-1301
  6
CONTINUOUS
 62
    8
 10
2271.106156831238
 20
1846.9884240157839
 40
14.67139938061996
 50
270.00000000000091
 51
306.8936541100594
  0
ARC
  8
_0-0_FRF74-1301
  6
CONTINUOUS
 62
    8
 10
2271.106156831238
 20
1846.9884240157839
 40
14.671399380619956
 50
53.106345889954532
 51
126.8936541100455
  0
ARC
  8
_0-0_FRF74-1301
  6
CONTINUOUS
 62
    8
 10
2271.106156831238
 20
1846.9884240157839
 40
14.671399380619977
 50
233.10634588994182
 51
270.00000000000091
  0
ARC
  8
_0-0_FRF74-1301
  6
CONTINUOUS
 62
    8
 10
2271.106156831238
 20
1846.9884240157839
 40
16.769848738597943
 50
270.00000000000068
 51
314.02016133093912
  0
ARC
  8
_0-0_FRF74-1301
  6
CONTINUOUS
 62
    8
 10
2271.106156831238
 20
1846.9884240157839
 40
16.76984873859768
 50
45.979838669070148
 51
134.02016133092985
  0
ARC
  8
_0-0_FRF74-1301
  6
CONTINUOUS
 62
    8
 10
2271.106156831238
 20
1846.9884240157839
 40
16.769848738597883
 50
225.97983866906219
 51
270.0000000000008
  0
ARC
  8
_0-0_FRF74-1301
  6
CONTINUOUS
 62
    8
 10
2271.106156831238
 20
1846.9884240157839
 40
15.596492097094712
 50
270.0000000000008
 51
310.43203285733284
  0
ARC
  8
_0-0_FRF74-1301
  6
CONTINUOUS
 62
    8
 10
2271.106156831238
 20
1846.9884240157839
 40
15.596492097094725
 50
49.567967142678704
 51
130.43203285732127
  0
ARC
  8
_0-0_FRF74-1301
  6
CONTINUOUS
 62
    8
 10
2271.106156831238
 20
1846.9884240157839
 40
15.596492097094741
 50
229.56796714266832
 51
270.0000000000008
  0
ARC
  8
_0-0_FRF74-1301
  6
CONTINUOUS
 62
    8
 10
2271.106156831238
 20
1846.9884240157839
 40
20.998575340374941
 50
270.00000000000091
 51
322.27852848953273
  0
ARC
  8
_0-0_FRF74-1301
  6
CONTINUOUS
 62
    8
 10
2271.106156831238
 20
1846.9884240157839
 40
20.998575340375119
 50
331.76470047535003
 51
28.235299524650699
  0
ARC
  8
_0-0_FRF74-1301
  6
CONTINUOUS
 62
    8
 10
2271.106156831238
 20
1846.9884240157839
 40
20.998575340375151
 50
37.721471510474373
 51
142.27852848952566
  0
LINE
  8
_0-0_FRF74-1301
  6
CONTINUOUS
 62
    8
 10
2252.606156831238
 20
1856.9227164578961
 11
2252.5536626018093
 21
1856.8243339478859
  0
LINE
  8
_0-0_FRF74-1301
  6
CONTINUOUS
 62
    8
 10
2252.5536626018093
 20
1856.8243339478859
 11
2251.6912098489411
 21
1854.9884240157846
  0
LINE
  8
_0-0_FRF74-1301
  6
CONTINUOUS
 62
    8
 10
2251.6912098489402
 20
1838.9884240157846
 11
2252.5536626018093
 21
1837.1525140836816
  0
LINE
  8
_0-0_FRF74-1301
  6
CONTINUOUS
 62
    8
 10
2252.5536626018093
 20
1837.1525140836816
 11
2252.606156831238
 21
1837.0541315736716
  0
ARC
  8
_0-0_FRF74-1301
  6
CONTINUOUS
 62
    8
 10
2271.106156831238
 20
1846.9884240157839
 40
20.998575340374916
 50
217.72147151046897
 51
270.00000000000091
  0
ARC
  8
_0-0_FRF74-1301
  6
CONTINUOUS
 62
    8
 10
2271.106156831238
 20
1846.9884240157839
 40
22.779881782596021
 50
270.0000000000008
 51
159.44006102009197
  0
ARC
  8
_0-0_FRF74-1301
  6
CONTINUOUS
 62
    8
 10
2271.106156831238
 20
1846.9884240157839
 40
22.779881782595975
 50
200.55993897990373
 51
270.0000000000008
  0
ARC
  8
_0-0_FRF74-1301
  6
CONTINUOUS
 62
    8
 10
2271.106156831238
 20
1846.9884240157839
 40
21.8504809471616
 50
270.00000000000091
 51
323.49745327872466
  0
ARC
  8
_0-0_FRF74-1301
  6
CONTINUOUS
 62
    8
 10
2271.106156831238
 20
1846.9884240157839
 40
21.850480947161785
 50
327.85058356948417
 51
32.149416430516972
  0
ARC
  8
_0-0_FRF74-1301
  6
CONTINUOUS
 62
    8
 10
2271.106156831238
 20
1846.9884240157839
 40
21.850480947161689
 50
36.50254672125083
 51
143.49745327873509
  0
ARC
  8
_0-0_FRF74-1301
  6
CONTINUOUS
 62
    8
 10
2271.106156831238
 20
1846.9884240157839
 40
21.850480947161714
 50
147.85058356948335
 51
158.52318714040868
  0
ARC
  8
_0-0_FRF74-1301
  6
CONTINUOUS
 62
    8
 10
2271.106156831238
 20
1846.9884240157839
 40
21.850480947161614
 50
201.47681285958689
 51
212.14941643051708
  0
ARC
  8
_0-0_FRF74-1301
  6
CONTINUOUS
 62
    8
 10
2271.106156831238
 20
1846.9884240157839
 40
21.850480947161589
 50
216.50254672127107
 51
270.00000000000091
  0
ARC
  8
_0-0_FRF74-1301
  6
CONTINUOUS
 62
    8
 10
2271.106156831238
 20
1846.9884240157839
 40
26.194773482303162
 50
270.00000000000068
 51
162.21750265686782
  0
ARC
  8
_0-0_FRF74-1301
  6
CONTINUOUS
 62
    8
 10
2271.106156831238
 20
1846.9884240157839
 40
26.194773482303127
 50
197.78249734312863
 51
270.00000000000074
  0
ARC
  8
_0-0_FRF74-1301
  6
CONTINUOUS
 62
    8
 10
2271.106156831238
 20
1846.9884240157839
 40
29.299155413931999
 50
270.00000000000091
 51
164.15443263669187
  0
ARC
  8
_0-0_FRF74-1301
  6
CONTINUOUS
 62
    8
 10
2271.106156831238
 20
1846.9884240157839
 40
29.299155413931956
 50
195.84556736330498
 51
270.00000000000091
  0
ARC
  8
_0-0_FRF74-1301
  6
CONTINUOUS
 62
    8
 10
2271.106156831238
 20
1846.9884240157839
 40
27.433974596215652
 50
270.00000000000068
 51
163.04567759244998
  0
ARC
  8
_0-0_FRF74-1301
  6
CONTINUOUS
 62
    8
 10
2271.106156831238
 20
1846.9884240157839
 40
27.43397459621557
 50
196.95432240754658
 51
270.00000000000074
  0
ARC
  8
_0-0_FRF74-1301
  6
CONTINUOUS
 62
    8
 10
2271.106156831238
 20
1846.9884240157835
 40
32.376484541849663
 50
270.0000000000008
 51
165.69444759098053
  0
ARC
  8
_0-0_FRF74-1301
  6
CONTINUOUS
 62
    8
 10
2271.106156831238
 20
1846.9884240157835
 40
32.37648454184955
 50
194.30555240901634
 51
270.0000000000008
  0
ARC
  8
_0-0_FRF74-1301
  6
CONTINUOUS
 62
    8
 10
1671.1061568312377
 20
1846.9884240157839
 40
14.67139938061996
 50
270.00000000000091
 51
307.22278710823133
  0
ARC
  8
_0-0_FRF74-1301
  6
CONTINUOUS
 62
    8
 10
1671.1061568312377
 20
1846.9884240157839
 40
14.671399380619912
 50
52.7772128917807
 51
126.54407888113286
  0
ARC
  8
_0-0_FRF74-1301
  6
CONTINUOUS
 62
    8
 10
1671.1061568312377
 20
1846.9884240157839
 40
14.671399380619887
 50
233.455921118856
 51
270.00000000000091
  0
ARC
  8
_0-0_FRF74-1301
  6
CONTINUOUS
 62
    8
 10
1671.1061568312377
 20
1846.9884240157839
 40
16.769848738597943
 50
270.00000000000068
 51
314.35181884005982
  0
ARC
  8
_0-0_FRF74-1301
  6
CONTINUOUS
 62
    8
 10
1671.1061568312377
 20
1846.9884240157839
 40
16.769848738597837
 50
45.648181159948372
 51
133.67311061296601
  0
ARC
  8
_0-0_FRF74-1301
  6
CONTINUOUS
 62
    8
 10
1671.1061568312377
 20
1846.9884240157839
 40
16.769848738597936
 50
226.3268893870279
 51
270.00000000000068
  0
ARC
  8
_0-0_FRF74-1301
  6
CONTINUOUS
 62
    8
 10
1671.1061568312377
 20
1846.9884240157839
 40
15.596492097094824
 50
270.0000000000008
 51
310.76250087614289
  0
ARC
  8
_0-0_FRF74-1301
  6
CONTINUOUS
 62
    8
 10
1671.1061568312377
 20
1846.9884240157839
 40
15.5964920970947
 50
49.23749912386716
 51
130.0837926490465
  0
ARC
  8
_0-0_FRF74-1301
  6
CONTINUOUS
 62
    8
 10
1671.1061568312377
 20
1846.9884240157839
 40
15.59649209709476
 50
229.91620735094534
 51
270.0000000000008
  0
ARC
  8
_0-0_FRF74-1301
  6
CONTINUOUS
 62
    8
 10
1671.1061568312377
 20
1846.9884240157839
 40
20.998575340375055
 50
270.00000000000091
 51
322.6125304707291
  0
LINE
  8
_0-0_FRF74-1301
  6
CONTINUOUS
 62
    8
 10
1690.2061568312376
 20
1838.2631637717907
 11
1690.5211038135353
 21
1838.9884240157846
  0
LINE
  8
_0-0_FRF74-1301
  6
CONTINUOUS
 62
    8
 10
1690.5211038135346
 20
1854.9884240157849
 11
1690.2061568312376
 21
1855.713684259777
  0
ARC
  8
_0-0_FRF74-1301
  6
CONTINUOUS
 62
    8
 10
1671.1061568312377
 20
1846.9884240157839
 40
20.998575340375126
 50
37.387469529277105
 51
141.93382224363668
  0
ARC
  8
_0-0_FRF74-1301
  6
CONTINUOUS
 62
    8
 10
1671.1061568312377
 20
1846.9884240157839
 40
20.99857534037508
 50
148.47792396380376
 51
211.52207603619735
  0
ARC
  8
_0-0_FRF74-1301
  6
CONTINUOUS
 62
    8
 10
1671.1061568312377
 20
1846.9884240157839
 40
20.998575340375069
 50
218.06617775635863
 51
270.00000000000091
  0
ARC
  8
_0-0_FRF74-1301
  6
CONTINUOUS
 62
    8
 10
1671.1061568312377
 20
1846.9884240157839
 40
22.779881782596021
 50
270.0000000000008
 51
339.44006102009814
  0
ARC
  8
_0-0_FRF74-1301
  6
CONTINUOUS
 62
    8
 10
1671.1061568312377
 20
1846.9884240157839
 40
22.779881782596053
 50
20.559938979907979
 51
270.00000000000085
  0
ARC
  8
_0-0_FRF74-1301
  6
CONTINUOUS
 62
    8
 10
1671.1061568312377
 20
1846.9884240157839
 40
21.850480947161714
 50
270.00000000000091
 51
323.73497080337995
  0
ARC
  8
_0-0_FRF74-1301
  6
CONTINUOUS
 62
    8
 10
1671.1061568312377
 20
1846.9884240157839
 40
21.850480947161756
 50
330.94130932998451
 51
338.52318714041451
  0
LINE
  8
_0-0_FRF74-1301
  6
CONTINUOUS
 62
    8
 10
1691.4394673738489
 20
1854.9884240157846
 11
1690.7565593970955
 21
1856.5437992895245
  0
LINE
  8
_0-0_FRF74-1301
  6
CONTINUOUS
 62
    8
 10
1690.7565593970955
 20
1856.5437992895245
 11
1690.2061568312376
 21
1857.6013179482734
  0
ARC
  8
_0-0_FRF74-1301
  6
CONTINUOUS
 62
    8
 10
1671.1061568312377
 20
1846.9884240157839
 40
21.850480947161749
 50
36.265029196625612
 51
270.00000000000085
  0
ARC
  8
_0-0_FRF74-1301
  6
CONTINUOUS
 62
    8
 10
1671.1061568312377
 20
1846.9884240157839
 40
26.194773482303162
 50
270.0000000000008
 51
342.21750265687297
  0
ARC
  8
_0-0_FRF74-1301
  6
CONTINUOUS
 62
    8
 10
1671.1061568312377
 20
1846.9884240157839
 40
26.194773482303184
 50
17.782497343132221
 51
270.00000000000085
  0
ARC
  8
_0-0_FRF74-1301
  6
CONTINUOUS
 62
    8
 10
1671.1061568312377
 20
1846.9884240157839
 40
29.299155413931999
 50
270.00000000000091
 51
344.15443263669653
  0
ARC
  8
_0-0_FRF74-1301
  6
CONTINUOUS
 62
    8
 10
1671.1061568312377
 20
1846.9884240157839
 40
29.299155413932006
 50
15.845567363308193
 51
270.00000000000097
  0
ARC
  8
_0-0_FRF74-1301
  6
CONTINUOUS
 62
    8
 10
1671.1061568312377
 20
1846.9884240157839
 40
27.433974596215652
 50
270.00000000000091
 51
343.04567759245509
  0
ARC
  8
_0-0_FRF74-1301
  6
CONTINUOUS
 62
    8
 10
1671.1061568312377
 20
1846.9884240157839
 40
27.433974596215709
 50
16.954322407549949
 51
270.00000000000097
  0
ARC
  8
_0-0_FRF74-1301
  6
CONTINUOUS
 62
    8
 10
1671.1061568312377
 20
1846.9884240157835
 40
32.37648454184955
 50
270.0000000000008
 51
345.69444759098531
  0
ARC
  8
_0-0_FRF74-1301
  6
CONTINUOUS
 62
    8
 10
1671.1061568312377
 20
1846.9884240157835
 40
32.376484541849578
 50
14.305552409019493
 51
270.00000000000074
  0
LINE
  8
_0-0_FRF74-1301
  6
CONTINUOUS
 62
    7
 10
1690.2061651282042
 20
1561.6140115146536
 11
2252.6061485342716
 21
1561.6140115146536
  0
LINE
  8
_0-0_FRF74-1301
  6
CONTINUOUS
 62
    7
 10
2252.6061485342716
 20
1577.6140122746124
 11
1690.2061651282042
 21
1577.6140122746124
  0
ARC
  8
_0-0_FRF74-1301
  6
CONTINUOUS
 62
    7
 10
1654.2061568312379
 20
1557.614011894633
 40
1
 50
180
 51
281.08748921096998
  0
ARC
  8
_0-0_FRF74-1301
  6
CONTINUOUS
 62
    7
 10
1654.2061568312379
 20
1581.614011894633
 40
1.0000000000000395
 50
78.912510789030591
 51
180
  0
LINE
  8
_0-0_FRF74-1301
  6
CONTINUOUS
 62
    7
 10
1653.2061646513671
 20
1581.6140119989409
 11
1653.2061646513671
 21
1557.6140117903251
  0
ARC
  8
_0-0_FRF74-1301
  6
CONTINUOUS
 62
    7
 10
1689.2061568312376
 20
1557.614011894633
 40
0.9999999999999732
 50
258.91251078903315
 51
0
  0
ARC
  8
_0-0_FRF74-1301
  6
CONTINUOUS
 62
    7
 10
1689.2061568312376
 20
1581.614011894633
 40
1
 50
0
 51
101.08748921096623
  0
LINE
  8
_0-0_FRF74-1301
  6
CONTINUOUS
 62
    7
 10
1690.2061651282042
 20
1557.6140117903251
 11
1690.2061651282042
 21
1581.6140119989409
  0
ARC
  8
_0-0_FRF74-1301
  6
CONTINUOUS
 62
    7
 10
1671.7061568312379
 20
1468.3125561394215
 40
90.000000000000014
 50
78.912510789029369
 51
101.08748921097059
  0
ARC
  8
_0-0_FRF74-1301
  6
CONTINUOUS
 62
    7
 10
1671.7061568312379
 20
1670.9154676498447
 40
90
 50
258.91251078903014
 51
266.20578777411282
  0
ARC
  8
_0-0_FRF74-1301
  6
CONTINUOUS
 62
    7
 10
1671.7061568312379
 20
1670.9154676498447
 40
90.000000000000057
 50
273.79399796485546
 51
281.0874892109714
  0
ARC
  8
_0-0_FRF74-1301
  6
CONTINUOUS
 62
    7
 10
1682.714214558516
 20
1569.6140118946328
 40
29.999999999999996
 50
169.60967019657281
 51
190.39032980342799
  0
ARC
  8
_0-0_FRF74-1301
  6
CONTINUOUS
 62
    7
 10
2477.1061568312366
 20
1584.1153412903782
 40
199.99999999999861
 50
168.52165904546644
 51
180
  0
ARC
  8
_0-0_FRF74-1301
  6
CONTINUOUS
 62
    7
 10
2065.1061568312393
 20
1584.1153412903782
 40
199.99999999999864
 50
0
 51
11.478340954533564
  0
LINE
  8
_0-0_FRF74-1301
  6
CONTINUOUS
 62
    7
 10
1681.7061553530425
 20
1623.9148379375233
 11
1681.7061553530425
 21
1623.9497923363938
  0
ARC
  8
_0-0_FRF74-1301
  6
CONTINUOUS
 62
    7
 10
1877.7061568312363
 20
1584.1153412903782
 40
199.99999999999858
 50
168.52165904546644
 51
180
  0
ARC
  8
_0-0_FRF74-1301
  6
CONTINUOUS
 62
    7
 10
1465.7061568312392
 20
1584.1153412903782
 40
199.99999999999858
 50
0
 51
11.478340954533564
  0
LINE
  8
_0-0_FRF74-1301
  6
CONTINUOUS
 62
    7
 10
1677.7061472468108
 20
1581.115690160264
 11
1677.7061472468108
 21
1584.1153414060368
  0
LINE
  8
_0-0_FRF74-1301
  6
CONTINUOUS
 62
    7
 10
1665.7061527304381
 20
1584.1153414060368
 11
1665.7061527304381
 21
1581.115690160264
  0
ARC
  8
_0-0_FRF74-1301
  6
CONTINUOUS
 62
    7
 10
2303.106156831238
 20
1634.4148387746429
 40
0.5000000000000032
 50
318.84822781469501
 51
90
  0
ARC
  8
_0-0_FRF74-1301
  6
CONTINUOUS
 62
    7
 10
2239.106156831238
 20
1634.4148387746429
 40
0.5
 50
90
 51
221.15177218530499
  0
ARC
  8
_0-0_FRF74-1301
  6
CONTINUOUS
 62
    7
 10
2312.8947549193194
 20
1625.8601121589052
 40
12.500000000000089
 50
138.84822781466804
 51
177.64500408483369
  0
ARC
  8
_0-0_FRF74-1301
  6
CONTINUOUS
 62
    7
 10
2229.3175587431565
 20
1625.8601121589052
 40
12.500000000000068
 50
2.3549959151663367
 51
41.151772185332305
  0
ARC
  8
_0-0_FRF74-1301
  6
CONTINUOUS
 62
    7
 10
2299.4061568312377
 20
1626.4148387746427
 40
1
 50
270
 51
357.64500408484037
  0
ARC
  8
_0-0_FRF74-1301
  6
CONTINUOUS
 62
    7
 10
2242.8061568312378
 20
1626.4148387746427
 40
0.9999999999999732
 50
182.35499591515961
 51
270
  0
LINE
  8
_0-0_FRF74-1301
  6
CONTINUOUS
 62
    7
 10
2242.8061614565586
 20
1625.4148372520699
 11
2299.4061658911442
 21
1625.4148372520699
  0
LINE
  8
_0-0_FRF74-1301
  6
CONTINUOUS
 62
    7
 10
2247.2179184488987
 20
1625.4148372520699
 11
2248.3262668184971
 21
1624.9690168608918
  0
LINE
  8
_0-0_FRF74-1301
  6
CONTINUOUS
 62
    7
 10
2293.8860307268833
 20
1624.9690168608918
 11
2294.9944088988041
 21
1625.4148372520699
  0
ARC
  8
_0-0_FRF74-1301
  6
CONTINUOUS
 62
    7
 10
2293.606156831238
 20
1625.6648387746429
 40
0.7500000000000001
 50
270
 51
291.91160538189308
  0
ARC
  8
_0-0_FRF74-1301
  6
CONTINUOUS
 62
    7
 10
2248.6061568312375
 20
1625.6648387746429
 40
0.7500000000000449
 50
248.0883946181182
 51
270
  0
LINE
  8
_0-0_FRF74-1301
  6
CONTINUOUS
 62
    7
 10
2248.6061702303623
 20
1624.9148399640812
 11
2293.6061571173404
 21
1624.9148399640812
  0
LINE
  8
_0-0_FRF74-1301
  6
CONTINUOUS
 62
    7
 10
2252.6845286421512
 20
1624.9148399640812
 11
2254.3363223604892
 21
1624.4519353915944
  0
LINE
  8
_0-0_FRF74-1301
  6
CONTINUOUS
 62
    7
 10
2287.8760049872135
 20
1624.4519353915944
 11
2289.5277987055515
 21
1624.9148399640812
  0
ARC
  8
_0-0_FRF74-1301
  6
CONTINUOUS
 62
    7
 10
2287.606156831238
 20
1625.4148387746429
 40
1
 50
270
 51
285.65526611793331
  0
ARC
  8
_0-0_FRF74-1301
  6
CONTINUOUS
 62
    7
 10
2254.606156831238
 20
1625.4148387746429
 40
0.9999999999999741
 50
254.34473388206669
 51
270
  0
LINE
  8
_0-0_FRF74-1301
  6
CONTINUOUS
 62
    7
 10
2254.6061525873874
 20
1624.4148389508023
 11
2287.6061449579929
 21
1624.4148389508023
  0
LINE
  8
_0-0_FRF74-1301
  6
CONTINUOUS
 62
    7
 10
2259.1756234698032
 20
1624.4148389508023
 11
2260.606164746735
 21
1623.9148379375233
  0
LINE
  8
_0-0_FRF74-1301
  6
CONTINUOUS
 62
    7
 10
2281.6061626009678
 20
1623.9148379375233
 11
2283.0366740755771
 21
1624.4148389508023
  0
ARC
  8
_0-0_FRF74-1301
  6
CONTINUOUS
 62
    7
 10
1703.106156831238
 20
1634.4148387746509
 40
0.5000000000000888
 50
318.84822781470353
 51
89.999999999999943
  0
ARC
  8
_0-0_FRF74-1301
  6
CONTINUOUS
 62
    7
 10
1639.1061568312377
 20
1634.4148387746509
 40
0.5000000000001135
 50
90
 51
221.15177218530627
  0
ARC
  8
_0-0_FRF74-1301
  6
CONTINUOUS
 62
    7
 10
1712.8947549193194
 20
1625.8601121589131
 40
12.500000000000002
 50
138.84822781466772
 51
177.64500408483366
  0
ARC
  8
_0-0_FRF74-1301
  6
CONTINUOUS
 62
    7
 10
1629.3175587431565
 20
1625.8601121589131
 40
12.500000000000009
 50
2.3549959151663469
 51
41.151772185332305
  0
ARC
  8
_0-0_FRF74-1301
  6
CONTINUOUS
 62
    7
 10
1699.4061568312381
 20
1626.4148387746509
 40
1
 50
270
 51
357.64500408484048
  0
ARC
  8
_0-0_FRF74-1301
  6
CONTINUOUS
 62
    7
 10
1642.8061568312378
 20
1626.4148387746509
 40
1.0000000000000295
 50
182.35499591515955
 51
270
  0
LINE
  8
_0-0_FRF74-1301
  6
CONTINUOUS
 62
    7
 10
1642.8061674170226
 20
1625.4148372520699
 11
1699.4061420492858
 21
1625.4148372520699
  0
LINE
  8
_0-0_FRF74-1301
  6
CONTINUOUS
 62
    7
 10
1647.2179244093627
 20
1625.4148372520699
 11
1648.3262727789611
 21
1624.9690168608918
  0
LINE
  8
_0-0_FRF74-1301
  6
CONTINUOUS
 62
    7
 10
1693.8860366873473
 20
1624.9690168608918
 11
1694.9944148592681
 21
1625.4148372520699
  0
ARC
  8
_0-0_FRF74-1301
  6
CONTINUOUS
 62
    7
 10
1693.6061568312377
 20
1625.6648387746509
 40
0.7500000000000001
 50
270
 51
291.91160538189308
  0
ARC
  8
_0-0_FRF74-1301
  6
CONTINUOUS
 62
    7
 10
1648.6061568312377
 20
1625.6648387746509
 40
0.749999999999982
 50
248.08839461810686
 51
270
  0
LINE
  8
_0-0_FRF74-1301
  6
CONTINUOUS
 62
    7
 10
1648.6061463885039
 20
1624.9148399640812
 11
1693.6061630778045
 21
1624.9148399640812
  0
LINE
  8
_0-0_FRF74-1301
  6
CONTINUOUS
 62
    7
 10
1652.6845346026153
 20
1624.9148399640812
 11
1654.3362985186309
 21
1624.4519353915944
  0
LINE
  8
_0-0_FRF74-1301
  6
CONTINUOUS
 62
    7
 10
1687.8760109476775
 20
1624.4519353915944
 11
1689.5277748636931
 21
1624.9148399640812
  0
ARC
  8
_0-0_FRF74-1301
  6
CONTINUOUS
 62
    7
 10
1687.6061568312377
 20
1625.4148387746509
 40
1
 50
270
 51
285.65526611793643
  0
ARC
  8
_0-0_FRF74-1301
  6
CONTINUOUS
 62
    7
 10
1654.606156831238
 20
1625.4148387746509
 40
0.9999999999999892
 50
254.34473388206357
 51
270
  0
LINE
  8
_0-0_FRF74-1301
  6
CONTINUOUS
 62
    7
 10
1654.6061585478515
 20
1624.4148389508023
 11
1687.6061509184569
 21
1624.4148389508023
  0
LINE
  8
_0-0_FRF74-1301
  6
CONTINUOUS
 62
    7
 10
1659.1756294302672
 20
1624.4148389508023
 11
1660.606170707199
 21
1623.9148379375233
  0
LINE
  8
_0-0_FRF74-1301
  6
CONTINUOUS
 62
    7
 10
1681.7061553530425
 20
1623.9497923363938
 11
1683.0366800360412
 21
1624.4148389508023
  0
LINE
  8
_0-0_FRF74-1301
  6
CONTINUOUS
 62
    7
 10
1674.4117091231078
 20
1579.6153415997519
 11
1669.0006206564635
 21
1579.6153415997519
  0
LINE
  8
_0-0_FRF74-1301
  6
CONTINUOUS
 62
    7
 10
1681.7061553530425
 20
1623.9148379375233
 11
1679.9478183321685
 21
1623.9148379375233
  0
LINE
  8
_0-0_FRF74-1301
  6
CONTINUOUS
 62
    7
 10
1675.7309387259215
 20
1580.1153416817083
 11
1667.5899873308867
 21
1580.1153416817083
  0
LINE
  8
_0-0_FRF74-1301
  6
CONTINUOUS
 62
    7
 10
1674.4650552801818
 20
1579.6153415997519
 11
1668.9878354601592
 21
1579.6153415997519
  0
LINE
  8
_0-0_FRF74-1301
  6
CONTINUOUS
 62
    7
 10
2303.1061540178989
 20
1634.914841603209
 11
2239.1061435274814
 21
1634.914841603209
  0
LINE
  8
_0-0_FRF74-1301
  6
CONTINUOUS
 62
    7
 10
2281.6061626009678
 20
1623.9148379375233
 11
2260.606164746735
 21
1623.9148379375233
  0
LINE
  8
_0-0_FRF74-1301
  6
CONTINUOUS
 62
    7
 10
1703.1061599783629
 20
1634.914841603209
 11
1639.1061494879455
 21
1634.914841603209
  0
LINE
  8
_0-0_FRF74-1301
  6
CONTINUOUS
 62
    7
 10
1679.9478183321685
 20
1623.9148379375233
 11
1660.606170707199
 21
1623.9148379375233
  0
LINE
  8
_0-0_FRF74-1301
  6
CONTINUOUS
 62
    8
 10
2293.8860307268833
 20
1624.9690168608918
 11
2248.3262668184971
 21
1624.9690168608918
  0
LINE
  8
_0-0_FRF74-1301
  6
CONTINUOUS
 62
    8
 10
2287.8760049872135
 20
1624.4519353915944
 11
2254.3363223604892
 21
1624.4519353915944
  0
LINE
  8
_0-0_FRF74-1301
  6
CONTINUOUS
 62
    8
 10
1693.8860366873473
 20
1624.9690168608918
 11
1648.3262727789611
 21
1624.9690168608918
  0
LINE
  8
_0-0_FRF74-1301
  6
CONTINUOUS
 62
    8
 10
1687.8760109476775
 20
1624.4519353915944
 11
1654.3362985186309
 21
1624.4519353915944
  0
CIRCLE
  8
_0-0_FRF74-1301
  6
CONTINUOUS
 62
    7
 10
2490.4695795388011
 20
1846.9884240157849
 40
13
  0
ARC
  8
_0-0_FRF74-1301
  6
CONTINUOUS
 62
    7
 10
2475.9682501430557
 20
2052.9884240157835
 40
199.99999999999864
 50
258.52165904546723
 51
270.0000000000008
  0
ARC
  8
_0-0_FRF74-1301
  6
CONTINUOUS
 62
    7
 10
2475.9682501430557
 20
1640.9884240157862
 40
199.99999999999872
 50
90
 51
101.47834095453361
  0
LINE
  8
_0-0_FRF74-1301
  6
CONTINUOUS
 62
    7
 10
2478.9370169441304
 20
1852.9884240157846
 11
2475.9682501430557
 21
1852.9884240157846
  0
LINE
  8
_0-0_FRF74-1301
  6
CONTINUOUS
 62
    7
 10
2475.9682501430557
 20
1840.9884240157849
 11
2478.9370169441304
 21
1840.9884240157849
  0
ARC
  8
_0-0_FRF74-1301
  6
CONTINUOUS
 62
    7
 10
2425.668752658783
 20
1878.9884240157837
 40
0.5000000000000032
 50
48.848227814695001
 51
180.00000000001302
  0
ARC
  8
_0-0_FRF74-1301
  6
CONTINUOUS
 62
    7
 10
2425.6687526587839
 20
1814.9884240157837
 40
0.5000000000001135
 50
180
 51
311.15177218529647
  0
ARC
  8
_0-0_FRF74-1301
  6
CONTINUOUS
 62
    7
 10
2434.2234792745203
 20
1888.777022103865
 40
12.500000000000027
 50
228.84822781466917
 51
267.64500408483519
  0
ARC
  8
_0-0_FRF74-1301
  6
CONTINUOUS
 62
    7
 10
2434.2234792745217
 20
1805.1998259277025
 40
12.500000000000071
 50
92.354995915166882
 51
101.35505060016828
  0
ARC
  8
_0-0_FRF74-1301
  6
CONTINUOUS
 62
    7
 10
2434.2234792745217
 20
1805.1998259277025
 40
12.5
 50
127.75566020935159
 51
131.15177218533299
  0
ARC
  8
_0-0_FRF74-1301
  6
CONTINUOUS
 62
    7
 10
2433.668752658783
 20
1875.2884240157837
 40
1
 50
0.0000000000065138
 51
87.64500408484038
  0
ARC
  8
_0-0_FRF74-1301
  6
CONTINUOUS
 62
    7
 10
2433.6687526587839
 20
1818.6884240157838
 40
0.9999999999999775
 50
272.35499591516611
 51
0.0000000000000127
  0
LINE
  8
_0-0_FRF74-1301
  6
CONTINUOUS
 62
    7
 10
2434.6687526587839
 20
1818.6884240157838
 11
2434.668752658783
 21
1875.2884240157837
  0
LINE
  8
_0-0_FRF74-1301
  6
CONTINUOUS
 62
    7
 10
2434.6687526587834
 20
1823.1001776358876
 11
2435.114573172832
 21
1824.2085422331877
  0
LINE
  8
_0-0_FRF74-1301
  6
CONTINUOUS
 62
    7
 10
2435.1145731728316
 20
1869.7683057983797
 11
2434.668752658783
 21
1870.8766703956801
  0
ARC
  8
_0-0_FRF74-1301
  6
CONTINUOUS
 62
    7
 10
2434.418752658783
 20
1869.4884240157835
 40
0.7499999999998864
 50
0
 51
21.911605381904394
  0
ARC
  8
_0-0_FRF74-1301
  6
CONTINUOUS
 62
    7
 10
2434.4187526587839
 20
1824.4884240157835
 40
0.7500000000000449
 50
338.08839461811829
 51
0.0000000000087274
  0
LINE
  8
_0-0_FRF74-1301
  6
CONTINUOUS
 62
    7
 10
2435.1687526587834
 20
1824.4884240157835
 11
2435.168752658783
 21
1869.4884240157835
  0
LINE
  8
_0-0_FRF74-1301
  6
CONTINUOUS
 62
    7
 10
2435.1687526587834
 20
1828.5667969588112
 11
2435.6316553840247
 21
1830.2185752771857
  0
LINE
  8
_0-0_FRF74-1301
  6
CONTINUOUS
 62
    7
 10
2435.6316553840243
 20
1863.7582727543816
 11
2435.168752658783
 21
1865.4100510727562
  0
ARC
  8
_0-0_FRF74-1301
  6
CONTINUOUS
 62
    7
 10
2434.668752658783
 20
1863.4884240157837
 40
1
 50
0
 51
15.655266117939561
  0
ARC
  8
_0-0_FRF74-1301
  6
CONTINUOUS
 62
    7
 10
2434.6687526587834
 20
1830.4884240157839
 40
0.9999999999999741
 50
344.34473388206675
 51
0.0000000000064915
  0
LINE
  8
_0-0_FRF74-1301
  6
CONTINUOUS
 62
    7
 10
2435.6687526587839
 20
1830.4884240157839
 11
2435.668752658783
 21
1863.4884240157837
  0
LINE
  8
_0-0_FRF74-1301
  6
CONTINUOUS
 62
    7
 10
2435.6687526587834
 20
1835.0579020396617
 11
2436.1687526587834
 21
1836.4884240157837
  0
LINE
  8
_0-0_FRF74-1301
  6
CONTINUOUS
 62
    7
 10
2436.168752658783
 20
1857.4884240157837
 11
2435.668752658783
 21
1858.9189459919057
  0
CIRCLE
  8
_0-0_FRF74-1301
  6
CONTINUOUS
 62
    7
 10
2490.4695795388011
 20
1846.9884240157849
 40
9.2200000000003683
  0
CIRCLE
  8
_0-0_FRF74-1301
  6
CONTINUOUS
 62
    7
 10
2490.4695795388011
 20
1846.9884240157849
 40
11.133974596215694
  0
CIRCLE
  8
_0-0_FRF74-1301
  6
CONTINUOUS
 62
    7
 10
2490.4695795388011
 20
1846.9884240157849
 40
10.267949192431274
  0
CIRCLE
  8
_0-0_FRF74-1301
  6
CONTINUOUS
 62
    7
 10
2490.4695795388011
 20
1846.9884240157849
 40
9.5
  0
LINE
  8
_0-0_FRF74-1301
  6
CONTINUOUS
 62
    7
 10
2425.168752658783
 20
1878.9884240048159
 11
2425.1687526587839
 21
1814.9884240157837
  0
LINE
  8
_0-0_FRF74-1301
  6
CONTINUOUS
 62
    7
 10
2431.7604539371409
 20
1817.455492330701
 11
2431.7443608880799
 21
1817.4536704696693
  0
ARC
  8
_0-0_FRF74-1301
  6
CONTINUOUS
 62
    7
 10
2432.6090078040074
 20
1809.8159829642034
 40
7.6864741410072401
 50
96.458838950061292
 51
98.701977615541892
  0
LINE
  8
_0-0_FRF74-1301
  6
CONTINUOUS
 62
    7
 10
2431.4460831683659
 20
1817.4139755288347
 11
2431.4056481076132
 21
1817.4077866667249
  0
ARC
  8
_0-0_FRF74-1301
  6
CONTINUOUS
 62
    7
 10
2432.4630389200302
 20
1810.499301555622
 40
6.9889371052051761
 50
98.701977615532215
 51
100.49846330157132
  0
LINE
  8
_0-0_FRF74-1301
  6
CONTINUOUS
 62
    7
 10
2431.1895906021009
 20
1817.3712424198959
 11
2431.1785241674074
 21
1817.3691916844598
  0
ARC
  8
_0-0_FRF74-1301
  6
CONTINUOUS
 62
    7
 10
2432.9854153766355
 20
1807.6186196642698
 40
9.9165775629952471
 50
100.4984633015968
 51
101.63458863649075
  0
ARC
  8
_0-0_FRF74-1301
  6
CONTINUOUS
 62
    7
 10
2432.5217665092196
 20
1809.8704384894158
 40
7.6175216059686113
 50
101.63458863649797
 51
103.11357604777098
  0
LINE
  8
_0-0_FRF74-1301
  6
CONTINUOUS
 62
    7
 10
2430.7934873514196
 20
1817.2893121620234
 11
2430.755340131192
 21
1817.2804254969374
  0
ARC
  8
_0-0_FRF74-1301
  6
CONTINUOUS
 62
    7
 10
2432.4210256815481
 20
1810.1302434093893
 40
7.3416355288012891
 50
103.11357604776454
 51
105.25933763040234
  0
LINE
  8
_0-0_FRF74-1301
  6
CONTINUOUS
 62
    7
 10
2430.4887920454262
 20
1817.2130454970659
 11
2430.4832018840862
 21
1817.2115204653569
  0
ARC
  8
_0-0_FRF74-1301
  6
CONTINUOUS
 62
    7
 10
2433.1799732192076
 20
1807.3262264277701
 40
10.246541555250662
 50
105.25933763040621
 51
106.86165052649737
  0
LINE
  8
_0-0_FRF74-1301
  6
CONTINUOUS
 62
    7
 10
2430.2078438573835
 20
1817.1322480930564
 11
2430.1986583961875
 21
1817.1294640507756
  0
ARC
  8
_0-0_FRF74-1301
  6
CONTINUOUS
 62
    7
 10
2432.3466003664457
 20
1810.042704716989
 40
7.4051206987196672
 50
106.86165052649969
 51
109.06683529108011
  0
LINE
  8
_0-0_FRF74-1301
  6
CONTINUOUS
 62
    7
 10
2429.9275630991824
 20
1817.0415668575231
 11
2429.9150511394332
 21
1817.0372423121448
  0
ARC
  8
_0-0_FRF74-1301
  6
CONTINUOUS
 62
    7
 10
2433.3234943761045
 20
1807.1757884808358
 40
10.433875452805077
 50
109.06683529105446
 51
110.48662677321971
  0
ARC
  8
_0-0_FRF74-1301
  6
CONTINUOUS
 62
    7
 10
2432.5342083261821
 20
1809.2883329482004
 40
8.178699939636763
 50
110.48662677324117
 51
112.2978500690534
  0
LINE
  8
_0-0_FRF74-1301
  6
CONTINUOUS
 62
    7
 10
2429.4310341991763
 20
1816.8554620630034
 11
2429.3827763089344
 21
1816.8356721751672
  0
ARC
  8
_0-0_FRF74-1301
  6
CONTINUOUS
 62
    7
 10
2432.3122466403211
 20
1809.6921219493868
 40
7.7208876595066673
 50
112.29785006903354
 51
114.67710416858635
  0
LINE
  8
_0-0_FRF74-1301
  6
CONTINUOUS
 62
    7
 10
2429.0887452080674
 20
1816.7079002217511
 11
2429.0378240777322
 21
1816.6845037673311
  0
ARC
  8
_0-0_FRF74-1301
  6
CONTINUOUS
 62
    7
 10
2432.4275048705595
 20
1809.3070450143657
 40
8.1189182486937188
 50
114.67710416857712
 51
116.14901878136382
  0
ARC
  8
_0-0_FRF74-1301
  6
CONTINUOUS
 62
    7
 10
2434.1894932060695
 20
1805.7181543268666
 40
12.117010201274711
 50
116.14901878136787
 51
117.13529480019734
  0
LINE
  8
_0-0_FRF74-1301
  6
CONTINUOUS
 62
    7
 10
2428.663007234682
 20
1816.5014696345931
 11
2428.6627544854468
 21
1816.5013400997459
  0
ARC
  8
_0-0_FRF74-1301
  6
CONTINUOUS
 62
    7
 10
2432.4642956049752
 20
1809.0837483860655
 40
8.3350094009737496
 50
117.13529480021337
 51
118.57295701076818
  0
LINE
  8
_0-0_FRF74-1301
  6
CONTINUOUS
 62
    7
 10
2428.4778489284222
 20
1816.4036271152058
 11
2428.4403138834209
 21
1816.3831853208899
  0
ARC
  8
_0-0_FRF74-1301
  6
CONTINUOUS
 62
    7
 10
2432.6822398811091
 20
1808.594197683431
 40
8.869174966497317
 50
118.57295701077105
 51
120.47614418506542
  0
LINE
  8
_0-0_FRF74-1301
  6
CONTINUOUS
 62
    7
 10
2428.183975545166
 20
1816.2380110347844
 11
2428.1682729081149
 21
1816.2287702790286
  0
ARC
  8
_0-0_FRF74-1301
  6
CONTINUOUS
 62
    7
 10
2433.6036519513173
 20
1806.9925360790671
 40
10.716873029938158
 50
120.47614418506183
 51
121.90495485127398
  0
ARC
  8
_0-0_FRF74-1301
  6
CONTINUOUS
 62
    7
 10
2433.4213687759375
 20
1807.2853298045131
 40
10.371974027783962
 50
121.90495485127821
 51
123.38127255149642
  0
LINE
  8
_0-0_FRF74-1301
  6
CONTINUOUS
 62
    7
 10
2427.7146273915332
 20
1815.9462159026298
 11
2427.6888462046168
 21
1815.9292284299108
  0
ARC
  8
_0-0_FRF74-1301
  6
CONTINUOUS
 62
    7
 10
2432.6038485880699
 20
1808.4699319684546
 40
8.9329923390341808
 50
123.38127255145093
 51
124.76583175787815
  0
LINE
  8
_0-0_FRF74-1301
  6
CONTINUOUS
 62
    7
 10
2427.5100439719899
 20
1815.8082905493939
 11
2427.4711790966835
 21
1815.7813131158086
  0
ARC
  8
_0-0_FRF74-1301
  6
CONTINUOUS
 62
    7
 10
2431.5990032026598
 20
1809.8345884705338
 40
7.2389547488984141
 50
124.76583175791316
 51
125.72554767562036
  0
ARC
  8
_0-0_FRF74-1301
  6
CONTINUOUS
 62
    7
 10
2440.7192419573148
 20
1797.1543682153542
 40
22.858389458956726
 50
125.7255476756265
 51
126.02948362261972
  0
LINE
  8
_0-0_FRF74-1301
  6
CONTINUOUS
 62
    7
 10
2427.2739033670123
 20
1815.6402774126177
 11
2427.250109735126
 21
1815.6229716131793
  0
LINE
  8
_0-0_FRF74-1301
  6
CONTINUOUS
 62
    7
 10
2427.250109735126
 20
1815.6229716131793
 11
2427.2495349826545
 21
1815.6225531100126
  0
LINE
  8
_0-0_FRF74-1301
  6
CONTINUOUS
 62
    7
 10
2436.168752658783
 20
1857.4884240157837
 11
2436.1687526587834
 21
1836.4884240157837
  0
LINE
  8
_0-0_FRF74-1301
  6
CONTINUOUS
 62
    8
 10
2435.1145731728316
 20
1869.7683057983797
 11
2435.114573172832
 21
1824.2085422331877
  0
LINE
  8
_0-0_FRF74-1301
  6
CONTINUOUS
 62
    8
 10
2435.6316553840243
 20
1863.7582727543816
 11
2435.6316553840247
 21
1830.2185752771857
  0
TEXT
  8
_0-1_
 62
    4
 10
2058.9047422342542
 20
1591.9216297830974
 40
12.5
 41
1
 50
90
  1
16
  0
TEXT
  8
_0-1_
 62
    4
 10
2058.6196772394728
 20
1579.9120092382634
 40
12.5
 41
1
 50
90
  1
φ
  0
LINE
  8
_0-1_
  6
CONTINUOUS
 62
    4
 10
2060.61513220294
 20
1561.6140115146536
 11
2060.61513220294
 21
1577.6140122746124
  0
POINT
  8
_0-1_
 62
    7
 10
2060.61513220294
 20
1561.6140115146536
  0
POINT
  8
_0-1_
 62
    7
 10
2060.61513220294
 20
1577.6140122746124
  0
LINE
  8
_0-1_
  6
CONTINUOUS
 62
    7
 10
2060.61513220294
 20
1577.6140122746124
 11
2060.61513220294
 21
1604.3122651412627
  0
LINE
  8
_0-1_
  6
CONTINUOUS
 62
    7
 10
1665.7505772522088
 20
1581.1127334382525
 11
1667.5899873308867
 21
1580.1153416817083
  0
LINE
  8
_0-1_
  6
CONTINUOUS
 62
    7
 10
1667.5899873308867
 20
1580.1153416817083
 11
1669.0006206564635
 21
1579.6153415997519
  0
LINE
  8
_0-1_
  6
CONTINUOUS
 62
    7
 10
1674.4117091231078
 20
1579.6153415997519
 11
1675.7309387259215
 21
1580.1153416817083
  0
LINE
  8
_0-1_
  6
CONTINUOUS
 62
    7
 10
1675.7309387259215
 20
1580.1153416817083
 11
1677.7061472468108
 21
1581.1156897268838
  0
TEXT
  8
_0-2_
 62
    7
 10
1614.6943364596746
 20
1066.3317848654224
 40
15
 41
1
 50
0
  1
タオルバー　-LANGBERGER,Runua-
  0
TEXT
  8
_0-1_
 62
    7
 10
1616.2219799368906
 20
1018.4310022412393
 40
15
 41
1
 50
0
  1
クローム
  0
LINE
  8
_0-1_
  6
CONTINUOUS
 62
    4
 10
1671.1061568312377
 20
1929.9406584090802
 11
2271.106156831238
 21
1929.9406584090802
  0
POINT
  8
_0-1_
 62
    7
 10
1671.1061568312377
 20
1929.9406584090802
  0
POINT
  8
_0-1_
 62
    7
 10
2271.106156831238
 20
1929.9406584090802
  0
TEXT
  8
_0-1_
 62
    4
 10
1961.7311568312377
 20
1932.4406584090802
 40
12.5
 41
1
 50
0
  1
600
  0
LINE
  8
_0-1_
  6
CONTINUOUS
 62
    4
 10
2271.106156831238
 20
1929.9406584090802
 11
2271.106156831238
 21
1887.2650932689821
  0
LINE
  8
_0-1_
  6
CONTINUOUS
 62
    4
 10
1671.1061568312377
 20
1929.9406584090802
 11
1671.1061568312377
 21
1887.2650932689821
  0
LINE
  8
_0-1_
  6
CONTINUOUS
 62
    4
 10
1638.6061568312377
 20
1969.9406584090802
 11
2303.6061568312375
 21
1969.9406584090802
  0
POINT
  8
_0-1_
 62
    7
 10
1638.6061568312377
 20
1969.9406584090802
  0
POINT
  8
_0-1_
 62
    7
 10
2303.6061568312375
 20
1969.9406584090802
  0
LINE
  8
_0-1_
  6
CONTINUOUS
 62
    4
 10
1638.6061568312377
 20
1969.9406584090802
 11
1638.6061568312377
 21
1861.9884240102999
  0
LINE
  8
_0-1_
  6
CONTINUOUS
 62
    4
 10
2303.6061568312375
 20
1969.9406584090802
 11
2303.6061568312375
 21
1861.9884240157835
  0
TEXT
  8
_0-1_
 62
    4
 10
1961.7311568312377
 20
1972.4406584090802
 40
12.5
 41
1
 50
0
  1
665
  0
ARC
  8
_0-0_FRF74-1301
  6
CONTINUOUS
 62
    7
 10
2288.606156831238
 20
1581.614011894633
 40
1
 50
0
 51
101.08748921096623
  0
ARC
  8
_0-0_FRF74-1301
  6
CONTINUOUS
 62
    7
 10
2288.606156831238
 20
1557.614011894633
 40
1.0000000000000289
 50
258.91251078903377
 51
0
  0
LINE
  8
_0-0_FRF74-1301
  6
CONTINUOUS
 62
    7
 10
2289.6061490111088
 20
1557.6140117903251
 11
2289.6061490111088
 21
1581.6140119989409
  0
ARC
  8
_0-0_FRF74-1301
  6
CONTINUOUS
 62
    7
 10
2253.6061568312375
 20
1581.614011894633
 40
1.0000000000000508
 50
78.912510789027394
 51
180
  0
ARC
  8
_0-0_FRF74-1301
  6
CONTINUOUS
 62
    7
 10
2253.6061568312375
 20
1557.614011894633
 40
1
 50
180
 51
281.08748921097322
  0
LINE
  8
_0-0_FRF74-1301
  6
CONTINUOUS
 62
    7
 10
2252.6061485342716
 20
1581.6140119989409
 11
2252.6061485342716
 21
1557.6140117903251
  0
ARC
  8
_0-0_FRF74-1301
  6
CONTINUOUS
 62
    7
 10
2271.106156831238
 20
1670.9154676498447
 40
90.000000000000114
 50
258.91251078903014
 51
266.20578777411282
  0
ARC
  8
_0-0_FRF74-1301
  6
CONTINUOUS
 62
    7
 10
2271.106156831238
 20
1670.9154676498447
 40
90.000000000000171
 50
273.79399796485546
 51
281.0874892109714
  0
ARC
  8
_0-0_FRF74-1301
  6
CONTINUOUS
 62
    7
 10
2271.106156831238
 20
1468.3125561394215
 40
90.000000000000028
 50
78.912510789029355
 51
101.08748921097062
  0
ARC
  8
_0-0_FRF74-1301
  6
CONTINUOUS
 62
    7
 10
2260.0980991039596
 20
1569.6140118946328
 40
30.000000000000107
 50
349.60967019657284
 51
10.390329803428019
  0
LINE
  8
_0-0_FRF74-1301
  6
CONTINUOUS
 62
    7
 10
2277.1061609320377
 20
1581.115690160264
 11
2277.1061609320377
 21
1584.1153414060368
  0
LINE
  8
_0-0_FRF74-1301
  6
CONTINUOUS
 62
    7
 10
2265.106166415665
 20
1584.1153414060368
 11
2265.106166415665
 21
1581.1009333540692
  0
LINE
  8
_0-0_FRF74-1301
  6
CONTINUOUS
 62
    7
 10
2273.8116930060123
 20
1579.6153415997519
 11
2268.400604539368
 21
1579.6153415997519
  0
LINE
  8
_0-0_FRF74-1301
  6
CONTINUOUS
 62
    7
 10
2275.1285086207126
 20
1580.1153416817083
 11
2267.0130382113193
 21
1580.1153416817083
  0
LINE
  8
_0-0_FRF74-1301
  6
CONTINUOUS
 62
    7
 10
2273.8669167093967
 20
1579.6153415997519
 11
2268.3573315672611
 21
1579.6153415997519
  0
LINE
  8
_0-0_FRF74-1301
  6
CONTINUOUS
 62
    7
 10
2265.106166415665
 20
1581.1156897268838
 11
2267.0130382113193
 21
1580.1153416817083
  0
LINE
  8
_0-0_FRF74-1301
  6
CONTINUOUS
 62
    7
 10
2267.0130382113193
 20
1580.1153416817083
 11
2268.3573315672611
 21
1579.6153415997519
  0
LINE
  8
_0-0_FRF74-1301
  6
CONTINUOUS
 62
    7
 10
2273.8669167093967
 20
1579.6153415997519
 11
2275.1285086207126
 21
1580.1153416817083
  0
LINE
  8
_0-0_FRF74-1301
  6
CONTINUOUS
 62
    7
 10
2275.1285086207126
 20
1580.1153416817083
 11
2277.1061609320377
 21
1581.1156906412662
  0
ENDSEC
  0
EOF
