  0
SECTION
  2
HEADER
  9
$ACADVER
  1
AC1009
  9
$INSBASE
 10
0
 20
0
 30
0
  9
$EXTMIN
 10
0
 20
0
  9
$EXTMAX
 10
841
 20
594
  9
$LIMMIN
 10
0
 20
0
  9
$LIMMAX
 10
841
 20
594
  9
$LTSCALE
 40
1
  0
ENDSEC
  0
SECTION
  2
TABLES
  0
TABLE
  2
LTYPE
 70
     9
  0
LTYPE
  2
CONTINUOUS
 70
    64
  3
実線
 72
    65
 73
     0
 40
0.0
  0
LTYPE
  2
DASHED1
 70
    64
  3
--  --  --  --  --  --  --  --  
 72
    65
 73
     2
 40
2.5
 49
1.25
 49
-1.25
  0
LTYPE
  2
DASHED2
 70
    64
  3
----    ----    ----    ----    
 72
    65
 73
     2
 40
5.0
 49
2.5
 49
-2.5
  0
LTYPE
  2
DASHED3
 70
    64
  3
------  ------  ------  ------  
 72
    65
 73
     2
 40
5.0
 49
3.75
 49
-1.25
  0
LTYPE
  2
CENTER1
 70
    64
  3
----- - ----- - ----- - ----- - 
 72
    65
 73
     4
 40
10.0
 49
6.25
 49
-1.25
 49
1.25
 49
-1.25
  0
LTYPE
  2
CENTER2
 70
    64
  3
----------  --  ----------  --  
 72
    65
 73
     4
 40
20.0
 49
12.5
 49
-2.5
 49
2.5
 49
-2.5
  0
LTYPE
  2
PHANTOM1
 70
    64
  3
--- - - --- - - --- - - --- - - 
 72
    65
 73
     6
 40
10.0
 49
3.25
 49
-1.25
 49
1.25
 49
-1.25
 49
1.25
 49
-1.25
  0
LTYPE
  2
PHANTOM2
 70
    64
  3
--------  -  -  --------  -  -  
 72
    65
 73
     6
 40
20.0
 49
10.0
 49
-2.5
 49
1.25
 49
-2.5
 49
1.25
 49
-2.5
  0
LTYPE
  2
DOT
 70
    64
  3
-   -   -   -   -   -   -   -   
 72
    65
 73
     2
 40
2.5
 49
0.625
 49
-1.875
  0
LTYPE
  2
DUMMY
 70
    64
  3
ダミー
 72
    65
 73
     0
 40
0.0
  0
LTYPE
  2
RAND1
 70
    64
  3
ランダム線1
 72
    65
 73
     4
 40
10.0
 49
1.0
 49
-2.0
 49
3.0
 49
-4.0
  0
LTYPE
  2
RAND2
 70
    64
  3
ランダム線2
 72
    65
 73
     4
 40
14.0
 49
2.0
 49
-3.0
 49
4.0
 49
-5.0
  0
LTYPE
  2
RAND3
 70
    64
  3
ランダム線3
 72
    65
 73
     4
 40
18.0
 49
3.0
 49
-4.0
 49
5.0
 49
-6.0
  0
LTYPE
  2
RAND4
 70
    64
  3
ランダム線4
 72
    65
 73
     4
 40
22.0
 49
4.0
 49
-5.0
 49
6.0
 49
-7.0
  0
LTYPE
  2
RAND5
 70
    64
  3
ランダム線5
 72
    65
 73
     4
 40
26.0
 49
5.0
 49
-6.0
 49
7.0
 49
-8.0
  0
LTYPE
  2
LONG1
 70
    64
  3
----------  --  ----------  --  
 72
    65
 73
     4
 40
40.0
 49
32.5
 49
-2.5
 49
2.5
 49
-2.5
  0
LTYPE
  2
LONG2
 70
    64
  3
--------  -  -  --------  -  -  
 72
    65
 73
     6
 40
40.0
 49
30.0
 49
-2.5
 49
1.25
 49
-2.5
 49
1.25
 49
-2.5
  0
LTYPE
  2
LONG3
 70
    64
  3
+++++++++++++++..+++++++++++++++
 72
    65
 73
     2
 40
40.0
 49
37.5
 49
-2.5
  0
LTYPE
  2
LONG4
 70
    64
  3
+++++++++++++++..+++++++++++++++
 72
    65
 73
     2
 40
80.0
 49
75.0
 49
-5.0
  0
LTYPE
  2
LONG5
 70
    64
  3
----------  --  ----------  --  
 72
    65
 73
     4
 40
60.0
 49
37.5
 49
-7.5
 49
7.5
 49
-7.5
  0
LTYPE
  2
dashed
 70
   64
  3
-------   -------------   ------
 72
   65
 73
    2
 40
7.5
 49
6
 49
-1.5
  0
LTYPE
  2
dashed_spaced
 70
   64
  3
----        --------        ----
 72
   65
 73
    2
 40
12
 49
6
 49
-6
  0
LTYPE
  2
long_dashed_dotted
 70
   64
  3
------------- --- --------------
 72
   65
 73
    4
 40
15.25
 49
12
 49
-1.5
 49
0.25
 49
-1.5
  0
LTYPE
  2
long_dashed_double-dotted
 70
   64
  3
----------- --- --- ------------
 72
   65
 73
    6
 40
17
 49
12
 49
-1.5
 49
0.25
 49
-1.5
 49
0.25
 49
-1.5
  0
LTYPE
  2
long_dashed_triplicate-dotted
 70
   64
  3
--------- --- --- --- ----------
 72
   65
 73
    8
 40
18.75
 49
12
 49
-1.5
 49
0.25
 49
-1.5
 49
0.25
 49
-1.5
 49
0.25
 49
-1.5
  0
LTYPE
  2
dotted
 70
   64
  3
   -       -       -       -    
 72
   65
 73
    2
 40
1.75
 49
0.25
 49
-1.5
  0
LTYPE
  2
chain
 70
   64
  3
-------------- -- --------------
 72
   65
 73
    4
 40
18.5
 49
12
 49
-1.5
 49
3.5
 49
-1.5
  0
LTYPE
  2
chain_double_dash
 70
   64
  3
------------ -- -- -------------
 72
   65
 73
    6
 40
23.5
 49
12
 49
-1.5
 49
3.5
 49
-1.5
 49
3.5
 49
-1.5
  0
LTYPE
  2
dashed_dotted
 70
   64
  3
-----------     -     ----------
 72
   65
 73
    4
 40
9.25
 49
6
 49
-1.5
 49
0.25
 49
-1.5
  0
LTYPE
  2
double-dashed_dotted
 70
   64
  3
------   -----------   -   -----
 72
   65
 73
    6
 40
16.75
 49
6
 49
-1.5
 49
6
 49
-1.5
 49
0.25
 49
-1.5
  0
LTYPE
  2
dashed_double-dotted
 70
   64
  3
---------    -    -    ---------
 72
   65
 73
    6
 40
11
 49
6
 49
-1.5
 49
0.25
 49
-1.5
 49
0.25
 49
-1.5
  0
LTYPE
  2
double-dashed_double-dotted
 70
   64
  3
-----   ---------   -   -   ----
 72
   65
 73
    8
 40
18.5
 49
6
 49
-1.5
 49
6
 49
-1.5
 49
0.25
 49
-1.5
 49
0.25
 49
-1.5
  0
LTYPE
  2
dashed_triplicate-dotted
 70
   64
  3
-------    -    -    -    ------
 72
   65
 73
    8
 40
12.75
 49
6
 49
-1.5
 49
0.25
 49
-1.5
 49
0.25
 49
-1.5
 49
0.25
 49
-1.5
  0
LTYPE
  2
double-dashed_triplicate-dotted
 70
   64
  3
-----  ---------  -  -  -  -----
 72
   65
 73
   10
 40
20.25
 49
6
 49
-1.5
 49
6
 49
-1.5
 49
0.25
 49
-1.5
 49
0.25
 49
-1.5
 49
0.25
 49
-1.5
  0
LTYPE
  2
undefined
 70
   64
  3
--------------------------------
 72
   65
 73
    0
 40
0
  0
ENDTAB
  0
TABLE
  2
STYLE
  5
3
100
AcDbSymbolTable
 70
     1
  0
STYLE
  5
10
100
AcDbSymbolTableRecord
100
AcDbTextStyleTableRecord
  2
STANDARD
 70
     0
 40
0.0
 41
1.0
 50
0.0
 71
     0
 42
0.2
  3
txt
  4
bigfont.shx
  0
STYLE
  5
26
100
AcDbSymbolTableRecord
100
AcDbTextStyleTableRecord
  2
TATEGAKI
 70
    68
 40
0.0
 41
1.0
 50
0.0
 71
     0
 42
1.0
  3
txt
  4
bigfont.shx
  0
ENDTAB
  0
TABLE
  2
LAYER
 70
    4
  0
LAYER
  2
_0-0_
 70
   64
 62
    7
  6
CONTINUOUS
  0
LAYER
  2
_0-1_
 70
   64
 62
    7
  6
CONTINUOUS
  0
LAYER
  2
_0-2_FRF74-1308
 70
   64
 62
    7
  6
CONTINUOUS
  0
LAYER
  2
ADD_LINE
 70
   64
 62
    7
  6
CONTINUOUS
  0
ENDTAB
  0
ENDSEC
  0
SECTION
  2
BLOCKS
  0
ENDSEC
  0
SECTION
  2
ENTITIES
  0
LINE
  8
_0-2_FRF74-1308
  6
CONTINUOUS
 62
    7
 10
85.432636807045981
 20
222.78431921145977
 11
-109.56736319295396
 21
222.78431921145977
  0
LINE
  8
_0-2_FRF74-1308
  6
CONTINUOUS
 62
    7
 10
85.432636807094241
 20
485.78431921145977
 11
-109.56736319290576
 21
485.78431921145977
  0
LINE
  8
_0-2_FRF74-1308
  6
CONTINUOUS
 62
    7
 10
-109.56736319290576
 20
485.78431921145977
 11
-109.56736319290576
 21
205.78431921145977
  0
LINE
  8
_0-2_FRF74-1308
  6
CONTINUOUS
 62
    7
 10
-109.56736319290576
 20
205.78431921145977
 11
85.432636807094241
 21
205.78431921145977
  0
LINE
  8
_0-2_FRF74-1308
  6
CONTINUOUS
 62
    7
 10
85.432636807094241
 20
205.78431921145977
 11
85.432636807094241
 21
485.78431921145977
  0
LINE
  8
_0-2_FRF74-1308
  6
CONTINUOUS
 62
    7
 10
85.432636807045981
 20
231.28431921145983
 11
-109.56736319295396
 21
231.28431921145983
  0
LINE
  8
_0-2_FRF74-1308
  6
CONTINUOUS
 62
    7
 10
85.432636807094241
 20
214.28431921145977
 11
10.132636807094229
 21
214.28431921145977
  0
LINE
  8
_0-2_FRF74-1308
  6
CONTINUOUS
 62
    7
 10
60.332636807120139
 20
214.28431921145977
 11
60.332636807120139
 21
222.78431921145977
  0
LINE
  8
_0-2_FRF74-1308
  6
CONTINUOUS
 62
    7
 10
35.232636807120116
 20
214.28431921145977
 11
35.232636807120116
 21
222.78431921145977
  0
LINE
  8
_0-2_FRF74-1308
  6
CONTINUOUS
 62
    7
 10
10.132636807120093
 20
205.78431921145977
 11
10.132636807120093
 21
231.28431921145983
  0
TEXT
  8
_0-2_FRF74-1308
 62
    7
 10
13.665785211464083
 20
208.11324446189548
 40
3
 41
1
 50
0
  1
大洋金物株式会社 ティーフォルム事業部
  0
TEXT
  8
_0-2_FRF74-1308
 62
    7
 10
-108.5013363963742
 20
219.62979474920604
 40
2.2000000000000002
 41
1
 50
0
  1
仕様
  0
TEXT
  8
_0-2_FRF74-1308
 62
    7
 10
-108.46175739836542
 20
228.01451400968296
 40
2.2000000000000002
 41
1
 50
0
  1
品名
  0
TEXT
  8
_0-2_FRF74-1308
 62
    7
 10
11.273271547607976
 20
228.16241768348573
 40
2.2000000000000002
 41
1
 50
0
  1
品番
  0
TEXT
  8
_0-2_FRF74-1308
 62
    7
 10
11.183435184562711
 20
219.57861246087958
 40
2.2000000000000002
 41
1
 50
0
  1
重量
  0
TEXT
  8
_0-2_FRF74-1308
 62
    7
 10
36.300295993281736
 20
219.79254132352884
 40
2.2000000000000002
 41
1
 50
0
  1
容量
  0
TEXT
  8
_0-2_FRF74-1308
 62
    7
 10
61.407009855576291
 20
219.74983416093033
 40
2.2000000000000002
 41
1
 50
0
  1
縮尺
  0
TEXT
  8
_0-2_FRF74-1308
 62
    7
 10
16.930906057853861
 20
224.733188728215
 40
3
 41
1
 50
0
  1
FRF74-1308
  0
TEXT
  8
_0-2_FRF74-1308
 62
    4
 10
-109.21746733112866
 20
201.60538484166796
 40
2.5
 41
1
 50
0
  1
120910S
  0
LINE
  8
_0-1_
  6
CONTINUOUS
 62
    4
 10
-66.507432828152957
 20
378.72808516121768
 11
-66.507432828152957
 21
362.72808516121762
  0
POINT
  8
_0-1_
 62
    7
 10
-66.507432828152957
 20
378.72808516121768
  0
POINT
  8
_0-1_
 62
    7
 10
-66.507432828152957
 20
362.72808516121762
  0
LINE
  8
_0-1_
  6
CONTINUOUS
 62
    4
 10
-66.507432828152957
 20
378.72808516121768
 11
-42.507432828152957
 21
378.72808516121768
  0
LINE
  8
_0-1_
  6
CONTINUOUS
 62
    4
 10
-66.507432828152957
 20
362.72808516121762
 11
-42.507432828152957
 21
362.72808516121762
  0
TEXT
  8
_0-1_
 62
    4
 10
-68.757432828152957
 20
369.47808516121762
 40
2.5
 41
1
 50
90
  1
16
  0
LINE
  8
_0-1_
  6
CONTINUOUS
 62
    4
 10
-36.507432828152957
 20
332.72808516121762
 11
-1.5078056370580271
 21
332.72808516121762
  0
LINE
  8
_0-1_
  6
CONTINUOUS
 62
    4
 10
-36.507432828152957
 20
332.72808516121762
 11
-1.5074328281529574
 21
332.72808516121762
  0
POINT
  8
_0-1_
 62
    7
 10
-36.507432828152957
 20
332.72808516121762
  0
POINT
  8
_0-1_
 62
    7
 10
-1.5074328281529574
 20
332.72808516121762
  0
LINE
  8
_0-1_
  6
CONTINUOUS
 62
    4
 10
-36.507432828152957
 20
332.72808516121762
 11
-36.507432828152957
 21
359.72808516121762
  0
LINE
  8
_0-1_
  6
CONTINUOUS
 62
    4
 10
-1.5074328281529574
 20
332.72808516121762
 11
-1.5074328281529574
 21
359.72808516121762
  0
TEXT
  8
_0-1_
 62
    4
 10
-20.257432828152957
 20
333.22808516121762
 40
2.5
 41
1
 50
0
  1
35
  0
ARC
  8
_0-0_
  6
CONTINUOUS
 62
    7
 10
-3.2574328281530143
 20
362.58373197442944
 40
0.5000000000000205
 50
239.95065805020329
 51
0
  0
ARC
  8
_0-0_
  6
CONTINUOUS
 62
    7
 10
-3.2574328281530143
 20
378.87243834800586
 40
0.5000000000000284
 50
0
 51
120.04934194979813
  0
LINE
  8
_0-0_
  6
CONTINUOUS
 62
    7
 10
-2.7574328281529574
 20
362.58373197442944
 11
-2.7574328281529574
 21
378.87243834800586
  0
ARC
  8
_0-0_
  6
CONTINUOUS
 62
    7
 10
-18.530174171359363
 20
336.18309993912555
 40
29.999999999999989
 50
59.950658050204439
 51
117.76904235898222
  0
ARC
  8
_0-0_
  6
CONTINUOUS
 62
    7
 10
-18.530174171359363
 20
405.27307038330969
 40
29.999999999999979
 50
242.23095764101856
 51
300.04934194979637
  0
LINE
  8
_0-0_
  6
CONTINUOUS
 62
    7
 10
-36.507432828152957
 20
362.72808516121762
 11
-32.507432828152957
 21
362.72808516121762
  0
LINE
  8
_0-0_
  6
CONTINUOUS
 62
    7
 10
-32.507432828152957
 20
378.72808516121768
 11
-36.507432828152957
 21
378.72808516121768
  0
ARC
  8
_0-0_
  6
CONTINUOUS
 62
    7
 10
-21.507432828153014
 20
370.72808516121762
 40
19.999999999999993
 50
339.63586519368323
 51
20.364134806317498
  0
LINE
  8
_0-0_
  6
CONTINUOUS
 62
    7
 10
-32.507432828152957
 20
370.72808516121762
 11
-32.507432828152957
 21
378.72808516121768
  0
LINE
  8
_0-0_
  6
CONTINUOUS
 62
    7
 10
-32.507432828152957
 20
362.72808516121762
 11
-32.507432828152957
 21
370.72808516121762
  0
LINE
  8
_0-0_
  6
CONTINUOUS
 62
    7
 10
-36.507432828152957
 20
370.72808516121762
 11
-36.507432828152957
 21
378.72808516121768
  0
LINE
  8
_0-0_
  6
CONTINUOUS
 62
    7
 10
-36.507432828152957
 20
362.72808516121762
 11
-36.507432828152957
 21
370.72808516121762
  0
CIRCLE
  8
_0-0_
  6
CONTINUOUS
 62
    7
 10
24.75056717184691
 20
370.72808516121762
 40
8.6443531867882228
  0
CIRCLE
  8
_0-0_
  6
CONTINUOUS
 62
    7
 10
24.75056717184691
 20
370.72808516121762
 40
5
  0
CIRCLE
  8
_0-0_
  6
CONTINUOUS
 62
    7
 10
24.75056717184691
 20
370.72808516121762
 40
2.2000000000000028
  0
CIRCLE
  8
_0-0_
  6
CONTINUOUS
 62
    7
 10
24.75056717184691
 20
370.72808516121762
 40
5.2500000000000142
  0
CIRCLE
  8
_0-0_
  6
CONTINUOUS
 62
    7
 10
24.75056717184691
 20
370.72808516121762
 40
8.0000000000000142
  0
CIRCLE
  8
_0-0_
  6
CONTINUOUS
 62
    7
 10
24.75056717184691
 20
370.72808516121762
 40
8.5771504332685993
  0
TEXT
  8
_0-2_FRF74-1308
 62
    7
 10
-102.25356961893203
 20
224.64639311296872
 40
3
 41
1
 50
0
  1
フック　-LANGBERGER,Runua-
  0
TEXT
  8
_0-0_
 62
    7
 10
-102.28927870219695
 20
215.52484283852453
 40
3
 41
1
 50
0
  1
クローム
  0
ENDSEC
  0
EOF
