  0
SECTION
  2
HEADER
  9
$ACADVER
  1
AC1009
  9
$INSBASE
 10
0
 20
0
 30
0
  9
$EXTMIN
 10
0
 20
0
  9
$EXTMAX
 10
1682
 20
1188
  9
$LIMMIN
 10
0
 20
0
  9
$LIMMAX
 10
1682
 20
1188
  9
$LTSCALE
 40
2
  0
ENDSEC
  0
SECTION
  2
TABLES
  0
TABLE
  2
LTYPE
 70
     9
  0
LTYPE
  2
CONTINUOUS
 70
    64
  3
実線
 72
    65
 73
     0
 40
0.0
  0
LTYPE
  2
DASHED1
 70
    64
  3
--  --  --  --  --  --  --  --  
 72
    65
 73
     2
 40
2.5
 49
1.25
 49
-1.25
  0
LTYPE
  2
DASHED2
 70
    64
  3
----    ----    ----    ----    
 72
    65
 73
     2
 40
5.0
 49
2.5
 49
-2.5
  0
LTYPE
  2
DASHED3
 70
    64
  3
------  ------  ------  ------  
 72
    65
 73
     2
 40
5.0
 49
3.75
 49
-1.25
  0
LTYPE
  2
CENTER1
 70
    64
  3
----- - ----- - ----- - ----- - 
 72
    65
 73
     4
 40
10.0
 49
6.25
 49
-1.25
 49
1.25
 49
-1.25
  0
LTYPE
  2
CENTER2
 70
    64
  3
----------  --  ----------  --  
 72
    65
 73
     4
 40
20.0
 49
12.5
 49
-2.5
 49
2.5
 49
-2.5
  0
LTYPE
  2
PHANTOM1
 70
    64
  3
--- - - --- - - --- - - --- - - 
 72
    65
 73
     6
 40
10.0
 49
3.25
 49
-1.25
 49
1.25
 49
-1.25
 49
1.25
 49
-1.25
  0
LTYPE
  2
PHANTOM2
 70
    64
  3
--------  -  -  --------  -  -  
 72
    65
 73
     6
 40
20.0
 49
10.0
 49
-2.5
 49
1.25
 49
-2.5
 49
1.25
 49
-2.5
  0
LTYPE
  2
DOT
 70
    64
  3
-   -   -   -   -   -   -   -   
 72
    65
 73
     2
 40
2.5
 49
0.625
 49
-1.875
  0
LTYPE
  2
DUMMY
 70
    64
  3
ダミー
 72
    65
 73
     0
 40
0.0
  0
LTYPE
  2
RAND1
 70
    64
  3
ランダム線1
 72
    65
 73
     4
 40
10.0
 49
1.0
 49
-2.0
 49
3.0
 49
-4.0
  0
LTYPE
  2
RAND2
 70
    64
  3
ランダム線2
 72
    65
 73
     4
 40
14.0
 49
2.0
 49
-3.0
 49
4.0
 49
-5.0
  0
LTYPE
  2
RAND3
 70
    64
  3
ランダム線3
 72
    65
 73
     4
 40
18.0
 49
3.0
 49
-4.0
 49
5.0
 49
-6.0
  0
LTYPE
  2
RAND4
 70
    64
  3
ランダム線4
 72
    65
 73
     4
 40
22.0
 49
4.0
 49
-5.0
 49
6.0
 49
-7.0
  0
LTYPE
  2
RAND5
 70
    64
  3
ランダム線5
 72
    65
 73
     4
 40
26.0
 49
5.0
 49
-6.0
 49
7.0
 49
-8.0
  0
LTYPE
  2
LONG1
 70
    64
  3
----------  --  ----------  --  
 72
    65
 73
     4
 40
40.0
 49
32.5
 49
-2.5
 49
2.5
 49
-2.5
  0
LTYPE
  2
LONG2
 70
    64
  3
--------  -  -  --------  -  -  
 72
    65
 73
     6
 40
40.0
 49
30.0
 49
-2.5
 49
1.25
 49
-2.5
 49
1.25
 49
-2.5
  0
LTYPE
  2
LONG3
 70
    64
  3
+++++++++++++++..+++++++++++++++
 72
    65
 73
     2
 40
40.0
 49
37.5
 49
-2.5
  0
LTYPE
  2
LONG4
 70
    64
  3
+++++++++++++++..+++++++++++++++
 72
    65
 73
     2
 40
80.0
 49
75.0
 49
-5.0
  0
LTYPE
  2
LONG5
 70
    64
  3
----------  --  ----------  --  
 72
    65
 73
     4
 40
60.0
 49
37.5
 49
-7.5
 49
7.5
 49
-7.5
  0
LTYPE
  2
dashed
 70
   64
  3
-------   -------------   ------
 72
   65
 73
    2
 40
7.5
 49
6
 49
-1.5
  0
LTYPE
  2
dashed_spaced
 70
   64
  3
----        --------        ----
 72
   65
 73
    2
 40
12
 49
6
 49
-6
  0
LTYPE
  2
long_dashed_dotted
 70
   64
  3
------------- --- --------------
 72
   65
 73
    4
 40
15.25
 49
12
 49
-1.5
 49
0.25
 49
-1.5
  0
LTYPE
  2
long_dashed_double-dotted
 70
   64
  3
----------- --- --- ------------
 72
   65
 73
    6
 40
17
 49
12
 49
-1.5
 49
0.25
 49
-1.5
 49
0.25
 49
-1.5
  0
LTYPE
  2
long_dashed_triplicate-dotted
 70
   64
  3
--------- --- --- --- ----------
 72
   65
 73
    8
 40
18.75
 49
12
 49
-1.5
 49
0.25
 49
-1.5
 49
0.25
 49
-1.5
 49
0.25
 49
-1.5
  0
LTYPE
  2
dotted
 70
   64
  3
   -       -       -       -    
 72
   65
 73
    2
 40
1.75
 49
0.25
 49
-1.5
  0
LTYPE
  2
chain
 70
   64
  3
-------------- -- --------------
 72
   65
 73
    4
 40
18.5
 49
12
 49
-1.5
 49
3.5
 49
-1.5
  0
LTYPE
  2
chain_double_dash
 70
   64
  3
------------ -- -- -------------
 72
   65
 73
    6
 40
23.5
 49
12
 49
-1.5
 49
3.5
 49
-1.5
 49
3.5
 49
-1.5
  0
LTYPE
  2
dashed_dotted
 70
   64
  3
-----------     -     ----------
 72
   65
 73
    4
 40
9.25
 49
6
 49
-1.5
 49
0.25
 49
-1.5
  0
LTYPE
  2
double-dashed_dotted
 70
   64
  3
------   -----------   -   -----
 72
   65
 73
    6
 40
16.75
 49
6
 49
-1.5
 49
6
 49
-1.5
 49
0.25
 49
-1.5
  0
LTYPE
  2
dashed_double-dotted
 70
   64
  3
---------    -    -    ---------
 72
   65
 73
    6
 40
11
 49
6
 49
-1.5
 49
0.25
 49
-1.5
 49
0.25
 49
-1.5
  0
LTYPE
  2
double-dashed_double-dotted
 70
   64
  3
-----   ---------   -   -   ----
 72
   65
 73
    8
 40
18.5
 49
6
 49
-1.5
 49
6
 49
-1.5
 49
0.25
 49
-1.5
 49
0.25
 49
-1.5
  0
LTYPE
  2
dashed_triplicate-dotted
 70
   64
  3
-------    -    -    -    ------
 72
   65
 73
    8
 40
12.75
 49
6
 49
-1.5
 49
0.25
 49
-1.5
 49
0.25
 49
-1.5
 49
0.25
 49
-1.5
  0
LTYPE
  2
double-dashed_triplicate-dotted
 70
   64
  3
-----  ---------  -  -  -  -----
 72
   65
 73
   10
 40
20.25
 49
6
 49
-1.5
 49
6
 49
-1.5
 49
0.25
 49
-1.5
 49
0.25
 49
-1.5
 49
0.25
 49
-1.5
  0
LTYPE
  2
undefined
 70
   64
  3
--------------------------------
 72
   65
 73
    0
 40
0
  0
ENDTAB
  0
TABLE
  2
STYLE
  5
3
100
AcDbSymbolTable
 70
     1
  0
STYLE
  5
10
100
AcDbSymbolTableRecord
100
AcDbTextStyleTableRecord
  2
STANDARD
 70
     0
 40
0.0
 41
1.0
 50
0.0
 71
     0
 42
0.2
  3
txt
  4
bigfont.shx
  0
STYLE
  5
26
100
AcDbSymbolTableRecord
100
AcDbTextStyleTableRecord
  2
TATEGAKI
 70
    68
 40
0.0
 41
1.0
 50
0.0
 71
     0
 42
1.0
  3
txt
  4
bigfont.shx
  0
ENDTAB
  0
TABLE
  2
LAYER
 70
    4
  0
LAYER
  2
_0-0_FRF74-1310
 70
   64
 62
    7
  6
CONTINUOUS
  0
LAYER
  2
_0-1_
 70
   64
 62
    7
  6
CONTINUOUS
  0
LAYER
  2
_0-2_
 70
   64
 62
    7
  6
CONTINUOUS
  0
LAYER
  2
ADD_LINE
 70
   64
 62
    7
  6
CONTINUOUS
  0
ENDTAB
  0
ENDSEC
  0
SECTION
  2
BLOCKS
  0
ENDSEC
  0
SECTION
  2
ENTITIES
  0
LINE
  8
_0-0_FRF74-1310
  6
CONTINUOUS
 62
    7
 10
790.32646856614633
 20
893.02454056307454
 11
790.32646856614633
 21
877.02454056307454
  0
LINE
  8
_0-2_
  6
CONTINUOUS
 62
    7
 10
1079.8988725370491
 20
503.2673488237719
 11
689.8988725370491
 21
503.2673488237719
  0
LINE
  8
_0-2_
  6
CONTINUOUS
 62
    7
 10
1079.8988725371457
 20
1029.267348823772
 11
689.89887253714551
 21
1029.267348823772
  0
LINE
  8
_0-2_
  6
CONTINUOUS
 62
    7
 10
689.89887253714551
 20
1029.267348823772
 11
689.89887253714551
 21
469.2673488237719
  0
LINE
  8
_0-2_
  6
CONTINUOUS
 62
    7
 10
689.89887253714551
 20
469.2673488237719
 11
1079.8988725371457
 21
469.2673488237719
  0
LINE
  8
_0-2_
  6
CONTINUOUS
 62
    7
 10
1079.8988725371457
 20
469.2673488237719
 11
1079.8988725371457
 21
1029.267348823772
  0
LINE
  8
_0-2_
  6
CONTINUOUS
 62
    7
 10
1079.8988725370491
 20
520.26734882377195
 11
689.8988725370491
 21
520.26734882377195
  0
LINE
  8
_0-2_
  6
CONTINUOUS
 62
    7
 10
1079.8988725371457
 20
486.2673488237719
 11
929.29887253714571
 21
486.2673488237719
  0
LINE
  8
_0-2_
  6
CONTINUOUS
 62
    7
 10
1029.6988725371975
 20
486.2673488237719
 11
1029.6988725371975
 21
503.2673488237719
  0
LINE
  8
_0-2_
  6
CONTINUOUS
 62
    7
 10
979.49887253719749
 20
486.2673488237719
 11
979.49887253719749
 21
503.2673488237719
  0
LINE
  8
_0-2_
  6
CONTINUOUS
 62
    7
 10
929.29887253719744
 20
469.2673488237719
 11
929.29887253719744
 21
520.26734882377195
  0
TEXT
  8
_0-2_
 62
    7
 10
936.36516934588531
 20
473.92519932464324
 40
6
 41
1
 50
0
  1
大洋金物株式会社 ティーフォルム事業部
  0
TEXT
  8
_0-2_
 62
    7
 10
692.03092613020874
 20
496.95829989926438
 40
4.4000000000000004
 41
1
 50
0
  1
仕様
  0
TEXT
  8
_0-2_
 62
    7
 10
692.11008412622641
 20
513.7277384202182
 40
4.4000000000000004
 41
1
 50
0
  1
品名
  0
TEXT
  8
_0-2_
 62
    7
 10
931.58014201817321
 20
514.02354576782386
 40
4.4000000000000004
 41
1
 50
0
  1
品番
  0
TEXT
  8
_0-2_
 62
    7
 10
931.40046929208268
 20
496.85593532261146
 40
4.4000000000000004
 41
1
 50
0
  1
重量
  0
TEXT
  8
_0-2_
 62
    7
 10
981.63419090952073
 20
497.28379304790997
 40
4.4000000000000004
 41
1
 50
0
  1
容量
  0
TEXT
  8
_0-2_
 62
    7
 10
1031.8476186341097
 20
497.19837872271296
 40
4.4000000000000004
 41
1
 50
0
  1
縮尺
  0
TEXT
  8
_0-2_
 62
    4
 10
690.59866426069993
 20
460.90948008418826
 40
5
 41
1
 50
0
  1
120907S
  0
TEXT
  8
_0-2_
 62
    7
 10
942.89541103866486
 20
507.16508785728229
 40
6
 41
1
 50
0
  1
FRF74-1310
  0
LINE
  8
_0-1_
  6
CONTINUOUS
 62
    4
 10
927.14615315179776
 20
917.52454056307442
 11
927.14615315179776
 21
722.52454056307442
  0
LINE
  8
_0-1_
  6
CONTINUOUS
 62
    4
 10
927.14615315179776
 20
917.52454056307442
 11
823.54882899730319
 21
917.52454056307442
  0
LINE
  8
_0-1_
  6
CONTINUOUS
 62
    4
 10
927.14615315179776
 20
722.52454056307442
 11
823.54882899730319
 21
722.52454056307442
  0
LINE
  8
_0-1_
  6
CONTINUOUS
 62
    4
 10
982.09973409828194
 20
917.52454056307442
 11
1006.0997340982819
 21
917.52454056307442
  0
LINE
  8
_0-1_
  6
CONTINUOUS
 62
    4
 10
982.09973409828194
 20
917.52454056307442
 11
982.09973409828194
 21
852.52454056307442
  0
POINT
  8
_0-1_
 62
    7
 10
982.09973409828194
 20
917.52454056307442
  0
POINT
  8
_0-1_
 62
    7
 10
982.09973409828194
 20
852.52454056307442
  0
LINE
  8
_0-1_
  6
CONTINUOUS
 62
    4
 10
982.09973409828194
 20
852.52454056307442
 11
1006.0997340982821
 21
852.52454056307442
  0
TEXT
  8
_0-1_
 62
    4
 10
981.09973409828194
 20
882.52454056307442
 40
5
 41
1
 50
90
  1
65
  0
LINE
  8
_0-1_
  6
CONTINUOUS
 62
    4
 10
1047.1024454407757
 20
692.25687038838851
 11
1012.0997340982829
 21
692.25687038838851
  0
POINT
  8
_0-1_
 62
    7
 10
1047.1024454407757
 20
692.25687038838851
  0
POINT
  8
_0-1_
 62
    7
 10
1012.0997340982829
 20
692.25687038838851
  0
LINE
  8
_0-1_
  6
CONTINUOUS
 62
    4
 10
1047.1024454407757
 20
692.25687038838851
 11
1047.1024454407757
 21
716.25687038838851
  0
LINE
  8
_0-1_
  6
CONTINUOUS
 62
    4
 10
1012.0997340982829
 20
692.25687038838851
 11
1012.0997340982829
 21
847.02454056307442
  0
TEXT
  8
_0-1_
 62
    4
 10
1027.1010897695294
 20
693.25687038838851
 40
5
 41
1
 50
0
  1
35
  0
LINE
  8
_0-1_
  6
CONTINUOUS
 62
    4
 10
1042.1024454407755
 20
710.30864512736218
 11
1052.1024454407755
 21
710.30864512736218
  0
POINT
  8
_0-1_
 62
    7
 10
1042.1024454407755
 20
710.30864512736218
  0
POINT
  8
_0-1_
 62
    7
 10
1052.1024454407755
 20
710.30864512736218
  0
LINE
  8
_0-1_
  6
CONTINUOUS
 62
    4
 10
1042.1024454407755
 20
710.30864512736218
 11
1042.1024454407755
 21
721.25687038838851
  0
LINE
  8
_0-1_
  6
CONTINUOUS
 62
    4
 10
1052.1024454407755
 20
710.30864512736218
 11
1052.1024454407755
 21
721.25687038838851
  0
TEXT
  8
_0-1_
 62
    4
 10
1035.3126378223083
 20
711.21877189177781
 40
5
 41
1
 50
0
  1
10
  0
TEXT
  8
_0-1_
 62
    4
 10
1030.1675730012171
 20
711.21877189177781
 40
5
 41
1
 50
0
  1
φ
  0
LINE
  8
_0-1_
  6
CONTINUOUS
 62
    7
 10
1042.1024454407755
 20
710.30864512736218
 11
1030.1675730012171
 21
710.30864512736218
  0
POINT
  8
_0-1_
 62
    7
 10
927.14615315179776
 20
917.52454056307442
  0
POINT
  8
_0-1_
 62
    7
 10
927.14615315179776
 20
722.52454056307442
  0
TEXT
  8
_0-1_
 62
    4
 10
926.14615315179776
 20
816.27454056307442
 40
5
 41
1
 50
90
  1
195
  0
LINE
  8
_0-1_
  6
CONTINUOUS
 62
    4
 10
726.75930405524264
 20
600.70302205237851
 11
896.75930405524275
 21
600.70302205237851
  0
POINT
  8
_0-1_
 62
    7
 10
726.75930405524264
 20
600.70302205237851
  0
POINT
  8
_0-1_
 62
    7
 10
896.75930405524275
 20
600.70302205237851
  0
LINE
  8
_0-1_
  6
CONTINUOUS
 62
    4
 10
726.75930405524264
 20
600.70302205237851
 11
726.75930405524264
 21
631.18220694734168
  0
LINE
  8
_0-1_
  6
CONTINUOUS
 62
    4
 10
896.75930405524275
 20
600.70302205237851
 11
896.75930405524275
 21
631.18220694734168
  0
TEXT
  8
_0-1_
 62
    4
 10
808.00930405524264
 20
601.70302205237851
 40
5
 41
1
 50
0
  1
170
  0
TEXT
  8
_0-1_
 62
    4
 10
981.08393732940749
 20
877.26936921059985
 40
5
 41
1
 50
90
  1
φ
  0
ARC
  8
_0-0_FRF74-1310
  6
CONTINUOUS
 62
    7
 10
811.75930405524264
 20
807.25687038838851
 40
75.000000000000028
 50
106.60494882747749
 51
73.287935747057702
  0
ARC
  8
_0-0_FRF74-1310
  6
CONTINUOUS
 62
    7
 10
811.75930405524264
 20
807.25687038838851
 40
85.000000000000014
 50
104.60483420984389
 51
75.301575482211319
  0
ARC
  8
_0-0_FRF74-1310
  6
CONTINUOUS
 62
    7
 10
791.32646856614633
 20
877.02454056307454
 40
1.0000000000000142
 50
180
 51
281.71070790668853
  0
ARC
  8
_0-0_FRF74-1310
  6
CONTINUOUS
 62
    7
 10
791.32646856614633
 20
893.02454056307454
 40
1.0000000000000178
 50
78.28929209331146
 51
180
  0
ARC
  8
_0-0_FRF74-1310
  6
CONTINUOUS
 62
    7
 10
832.32646856614633
 20
877.02454056307454
 40
1.0000000000000442
 50
258.28929209332421
 51
0
  0
ARC
  8
_0-0_FRF74-1310
  6
CONTINUOUS
 62
    7
 10
832.32646856614633
 20
893.02454056307454
 40
1.0000000000000497
 50
0
 51
101.71070790667579
  0
LINE
  8
_0-0_FRF74-1310
  6
CONTINUOUS
 62
    7
 10
833.32646856614633
 20
877.02454056307454
 11
833.32646856614633
 21
893.02454056307454
  0
ARC
  8
_0-0_FRF74-1310
  6
CONTINUOUS
 62
    7
 10
811.82646856614633
 20
778.12686617181294
 40
100.00000000000001
 50
78.289292093308916
 51
101.71070790669101
  0
ARC
  8
_0-0_FRF74-1310
  6
CONTINUOUS
 62
    7
 10
811.82646856614633
 20
991.92221495433614
 40
100
 50
258.28929209330988
 51
281.71070790669194
  0
ARC
  8
_0-0_FRF74-1310
  6
CONTINUOUS
 62
    7
 10
811.75930405524264
 20
885.02454056307442
 40
32.500000000000057
 50
1.3709439842778806
 51
178.62905601572217
  0
ARC
  8
_0-0_FRF74-1310
  6
CONTINUOUS
 62
    7
 10
811.75930405524264
 20
885.02454056307442
 40
32.500000000000028
 50
197.01364539327849
 51
342.98635460672313
  0
ARC
  8
_0-0_FRF74-1310
  6
CONTINUOUS
 62
    7
 10
811.75930405524264
 20
885.02454056307454
 40
10.000000000000039
 50
45.548974148333336
 51
134.37902723198917
  0
ARC
  8
_0-0_FRF74-1310
  6
CONTINUOUS
 62
    7
 10
811.75930405524264
 20
885.02454056307454
 40
10.000000000000057
 50
225.62097276801137
 51
314.4510258516674
  0
ARC
  8
_0-0_FRF74-1310
  6
CONTINUOUS
 62
    7
 10
811.75930405524264
 20
885.02454056307454
 40
10.499999999999972
 50
270.00000000000068
 51
316.81286439499797
  0
ARC
  8
_0-0_FRF74-1310
  6
CONTINUOUS
 62
    7
 10
811.75930405524264
 20
885.02454056307454
 40
10.500000000000005
 50
43.187135605002752
 51
136.74086577531995
  0
ARC
  8
_0-0_FRF74-1310
  6
CONTINUOUS
 62
    7
 10
811.75930405524264
 20
885.02454056307454
 40
10.499999999999989
 50
223.25913422468113
 51
270.00000000000068
  0
ARC
  8
_0-0_FRF74-1310
  6
CONTINUOUS
 62
    7
 10
811.75930405524264
 20
885.02454056307454
 40
10.049999999999955
 50
270.0000000000008
 51
314.70319709484136
  0
ARC
  8
_0-0_FRF74-1310
  6
CONTINUOUS
 62
    7
 10
811.75930405524264
 20
885.02454056307454
 40
10.050000000000022
 50
45.29680290515951
 51
134.63119847516313
  0
ARC
  8
_0-0_FRF74-1310
  6
CONTINUOUS
 62
    7
 10
811.75930405524264
 20
885.02454056307454
 40
10.04999999999994
 50
225.36880152483747
 51
270.0000000000008
  0
ARC
  8
_0-0_FRF74-1310
  6
CONTINUOUS
 62
    8
 10
811.75930405524264
 20
885.02454056307454
 40
14.671399380619974
 50
270.0000000000008
 51
328.46189373669836
  0
ARC
  8
_0-0_FRF74-1310
  6
CONTINUOUS
 62
    8
 10
811.75930405524264
 20
885.02454056307454
 40
14.671399380619954
 50
31.538106263302318
 51
148.38989511702027
  0
ARC
  8
_0-0_FRF74-1310
  6
CONTINUOUS
 62
    8
 10
811.75930405524264
 20
885.02454056307454
 40
14.671399380619947
 50
211.61010488298035
 51
270.0000000000008
  0
ARC
  8
_0-0_FRF74-1310
  6
CONTINUOUS
 62
    8
 10
811.75930405524264
 20
885.02454056307454
 40
16.769848738597801
 50
270.0000000000008
 51
331.57999588397877
  0
ARC
  8
_0-0_FRF74-1310
  6
CONTINUOUS
 62
    8
 10
811.75930405524264
 20
885.02454056307454
 40
16.769848738597823
 50
28.420004116022209
 51
151.50799726430051
  0
ARC
  8
_0-0_FRF74-1310
  6
CONTINUOUS
 62
    8
 10
811.75930405524264
 20
885.02454056307454
 40
16.769848738597805
 50
208.49200273570034
 51
270.00000000000085
  0
ARC
  8
_0-0_FRF74-1310
  6
CONTINUOUS
 62
    8
 10
811.75930405524264
 20
885.02454056307454
 40
15.596492097094767
 50
270.00000000000068
 51
329.97370227586913
  0
ARC
  8
_0-0_FRF74-1310
  6
CONTINUOUS
 62
    8
 10
811.75930405524264
 20
885.02454056307454
 40
15.596492097094778
 50
30.026297724131702
 51
149.90170365619102
  0
ARC
  8
_0-0_FRF74-1310
  6
CONTINUOUS
 62
    8
 10
811.75930405524264
 20
885.02454056307454
 40
15.596492097094741
 50
210.09829634380995
 51
270.0000000000008
  0
ARC
  8
_0-0_FRF74-1310
  6
CONTINUOUS
 62
    8
 10
811.75930405524264
 20
885.02454056307454
 40
20.998575340375112
 50
270.00000000000068
 51
335.44712901298567
  0
ARC
  8
_0-0_FRF74-1310
  6
CONTINUOUS
 62
    8
 10
811.75930405524264
 20
885.02454056307454
 40
20.998575340375069
 50
24.552870987015027
 51
155.37513039330753
  0
ARC
  8
_0-0_FRF74-1310
  6
CONTINUOUS
 62
    8
 10
811.75930405524264
 20
885.02454056307454
 40
20.998575340375083
 50
204.62486960669332
 51
270.0000000000008
  0
ARC
  8
_0-0_FRF74-1310
  6
CONTINUOUS
 62
    8
 10
811.75930405524264
 20
885.02454056307454
 40
22.779881782595979
 50
270.0000000000008
 51
336.95005416444349
  0
LINE
  8
_0-0_FRF74-1310
  6
CONTINUOUS
 62
    8
 10
833.32646856614633
 20
877.69102646759006
 11
833.33026046151963
 21
877.70218754320774
  0
LINE
  8
_0-0_FRF74-1310
  6
CONTINUOUS
 62
    8
 10
833.33026046151963
 20
877.70218754320774
 11
833.71978115096351
 21
878.96975239523806
  0
ARC
  8
_0-0_FRF74-1310
  6
CONTINUOUS
 62
    8
 10
811.75930405524264
 20
885.02454056307454
 40
22.77988178259605
 50
10.707165757609754
 51
18.779648139504257
  0
ARC
  8
_0-0_FRF74-1310
  6
CONTINUOUS
 62
    8
 10
811.75930405524264
 20
885.02454056307454
 40
22.779881782596032
 50
23.049945835557814
 51
157.215024722778
  0
ARC
  8
_0-0_FRF74-1310
  6
CONTINUOUS
 62
    8
 10
811.75930405524264
 20
885.02454056307454
 40
22.779881782596018
 50
160.19764487132656
 51
169.29283424239026
  0
LINE
  8
_0-0_FRF74-1310
  6
CONTINUOUS
 62
    8
 10
789.79882695952188
 20
878.96975239523806
 11
790.18834764896599
 21
877.7021875432074
  0
LINE
  8
_0-0_FRF74-1310
  6
CONTINUOUS
 62
    8
 10
790.18834764896599
 20
877.7021875432074
 11
790.32646856614633
 21
877.30724978674778
  0
ARC
  8
_0-0_FRF74-1310
  6
CONTINUOUS
 62
    8
 10
811.75930405524264
 20
885.02454056307454
 40
22.779881782596014
 50
202.78497527722237
 51
270.0000000000008
  0
ARC
  8
_0-0_FRF74-1310
  6
CONTINUOUS
 62
    8
 10
811.75930405524264
 20
885.02454056307454
 40
21.850480947161728
 50
270.0000000000008
 51
335.97587183729809
  0
ARC
  8
_0-0_FRF74-1310
  6
CONTINUOUS
 62
    8
 10
811.75930405524264
 20
885.02454056307454
 40
21.850480947161671
 50
24.024128162702802
 51
155.90387321761975
  0
ARC
  8
_0-0_FRF74-1310
  6
CONTINUOUS
 62
    8
 10
811.75930405524264
 20
885.02454056307454
 40
21.850480947161714
 50
204.09612678238102
 51
270.0000000000008
  0
ARC
  8
_0-0_FRF74-1310
  6
CONTINUOUS
 62
    8
 10
811.75930405524264
 20
885.02454056307454
 40
26.194773482303191
 50
270.00000000000068
 51
344.20513049750144
  0
ARC
  8
_0-0_FRF74-1310
  6
CONTINUOUS
 62
    8
 10
811.75930405524264
 20
885.02454056307454
 40
26.194773482303184
 50
6.922102381406976
 51
173.07789761859306
  0
ARC
  8
_0-0_FRF74-1310
  6
CONTINUOUS
 62
    8
 10
811.75930405524264
 20
885.02454056307454
 40
26.194773482303205
 50
195.79486950250018
 51
270.0000000000008
  0
ARC
  8
_0-0_FRF74-1310
  6
CONTINUOUS
 62
    8
 10
811.75930405524264
 20
885.02454056307454
 40
29.299155413931928
 50
270.0000000000008
 51
343.67068562872748
  0
ARC
  8
_0-0_FRF74-1310
  6
CONTINUOUS
 62
    8
 10
811.75930405524264
 20
885.02454056307454
 40
29.29915541393196
 50
4.0109015359210796
 51
175.98909846407892
  0
ARC
  8
_0-0_FRF74-1310
  6
CONTINUOUS
 62
    8
 10
811.75930405524264
 20
885.02454056307454
 40
29.299155413931956
 50
196.32931437127422
 51
270.0000000000008
  0
ARC
  8
_0-0_FRF74-1310
  6
CONTINUOUS
 62
    8
 10
811.75930405524264
 20
885.02454056307454
 40
27.43397459621562
 50
270.0000000000008
 51
344.0097506193805
  0
ARC
  8
_0-0_FRF74-1310
  6
CONTINUOUS
 62
    8
 10
811.75930405524264
 20
885.02454056307454
 40
27.43397459621562
 50
5.7104428497871762
 51
174.28955715021286
  0
ARC
  8
_0-0_FRF74-1310
  6
CONTINUOUS
 62
    8
 10
811.75930405524264
 20
885.02454056307454
 40
27.433974596215602
 50
195.99024938062098
 51
270.0000000000008
  0
ARC
  8
_0-0_FRF74-1310
  6
CONTINUOUS
 62
    8
 10
811.75930405524264
 20
885.02454056307442
 40
32.376484541849564
 50
270.0000000000008
 51
343.01481548420776
  0
ARC
  8
_0-0_FRF74-1310
  6
CONTINUOUS
 62
    8
 10
811.75930405524264
 20
885.02454056307442
 40
32.376484541849493
 50
1.4673775013098003
 51
178.53262249869022
  0
ARC
  8
_0-0_FRF74-1310
  6
CONTINUOUS
 62
    8
 10
811.75930405524264
 20
885.02454056307442
 40
32.3764845418495
 50
196.98518451579383
 51
270.0000000000008
  0
ARC
  8
_0-0_FRF74-1310
  6
CONTINUOUS
 62
    7
 10
891.75930405524275
 20
639.68220694734146
 40
5.0000000000000355
 50
270.0000000000008
 51
90
  0
ARC
  8
_0-0_FRF74-1310
  6
CONTINUOUS
 62
    7
 10
731.75930405524264
 20
639.68220694734146
 40
5.0000000000000355
 50
90
 51
270.0000000000008
  0
LINE
  8
_0-0_FRF74-1310
  6
CONTINUOUS
 62
    7
 10
790.32646856614633
 20
644.68220694734146
 11
731.75930405524264
 21
644.68220694734146
  0
LINE
  8
_0-0_FRF74-1310
  6
CONTINUOUS
 62
    7
 10
891.75930405524275
 20
644.68220694734146
 11
833.32646856614633
 21
644.68220694734146
  0
LINE
  8
_0-0_FRF74-1310
  6
CONTINUOUS
 62
    7
 10
833.32646856614633
 20
634.68220694734146
 11
891.75930405524275
 21
634.68220694734146
  0
LINE
  8
_0-0_FRF74-1310
  6
CONTINUOUS
 62
    7
 10
731.75930405524264
 20
634.68220694734146
 11
790.32646856614633
 21
634.68220694734146
  0
ARC
  8
_0-0_FRF74-1310
  6
CONTINUOUS
 62
    7
 10
791.32646856614633
 20
631.68220694734146
 40
1.0000000000000142
 50
180
 51
281.71070790668853
  0
ARC
  8
_0-0_FRF74-1310
  6
CONTINUOUS
 62
    7
 10
791.32646856614633
 20
647.68220694734146
 40
1.0000000000000178
 50
78.28929209331146
 51
180
  0
LINE
  8
_0-0_FRF74-1310
  6
CONTINUOUS
 62
    7
 10
790.32646856614633
 20
647.68220694734146
 11
790.32646856614633
 21
631.68220694734146
  0
ARC
  8
_0-0_FRF74-1310
  6
CONTINUOUS
 62
    7
 10
832.32646856614633
 20
631.68220694734146
 40
1.0000000000000093
 50
258.28929209332387
 51
0.0000000000000508
  0
ARC
  8
_0-0_FRF74-1310
  6
CONTINUOUS
 62
    7
 10
832.32646856614633
 20
647.68220694734146
 40
1.0000000000000142
 50
0
 51
101.71070790667618
  0
LINE
  8
_0-0_FRF74-1310
  6
CONTINUOUS
 62
    7
 10
833.32646856614633
 20
631.68220694734146
 11
833.32646856614633
 21
647.68220694734146
  0
ARC
  8
_0-0_FRF74-1310
  6
CONTINUOUS
 62
    7
 10
811.82646856614633
 20
532.78453255607985
 40
100.00000000000001
 50
78.289292093308916
 51
101.71070790669101
  0
ARC
  8
_0-0_FRF74-1310
  6
CONTINUOUS
 62
    7
 10
811.82646856614633
 20
746.57988133860306
 40
100
 50
258.28929209330988
 51
267.67647843366217
  0
ARC
  8
_0-0_FRF74-1310
  6
CONTINUOUS
 62
    7
 10
811.82646856614633
 20
746.57988133860306
 40
99.999999999999972
 50
272.2506118101727
 51
281.71070790669182
  0
ARC
  8
_0-0_FRF74-1310
  6
CONTINUOUS
 62
    7
 10
801.22330590639649
 20
657.70890741430594
 40
6.0000000000000391
 50
6.1215574631630654
 51
84.874762331413862
  0
ARC
  8
_0-0_FRF74-1310
  6
CONTINUOUS
 62
    7
 10
822.2953022040889
 20
657.70890741430594
 40
6.0000000000000426
 50
95.125237668585768
 51
173.87844253683693
  0
ARC
  8
_0-0_FRF74-1310
  6
CONTINUOUS
 62
    7
 10
707.75930405524275
 20
647.6849182898344
 40
100.00000000000003
 50
0.0000000000007958
 51
6.121557463163299
  0
ARC
  8
_0-0_FRF74-1310
  6
CONTINUOUS
 62
    7
 10
915.75930405524264
 20
647.6849182898344
 40
99.999999999999986
 50
173.87844253683667
 51
180.00000000000085
  0
LINE
  8
_0-0_FRF74-1310
  6
CONTINUOUS
 62
    7
 10
807.75930405524275
 20
647.6849182898344
 11
807.75930405524275
 21
646.66262470672154
  0
LINE
  8
_0-0_FRF74-1310
  6
CONTINUOUS
 62
    7
 10
815.75930405524264
 20
646.65724724093877
 11
815.75930405524264
 21
647.6849182898344
  0
ARC
  8
_0-0_FRF74-1310
  6
CONTINUOUS
 62
    7
 10
843.75930405524275
 20
674.1849182898344
 40
0.5000000000000139
 50
318.84822781470473
 51
90
  0
ARC
  8
_0-0_FRF74-1310
  6
CONTINUOUS
 62
    7
 10
779.75930405524275
 20
674.1849182898344
 40
0.5000000000000427
 50
90
 51
221.15177218529257
  0
ARC
  8
_0-0_FRF74-1310
  6
CONTINUOUS
 62
    7
 10
853.54790214332411
 20
665.63019167409675
 40
12.5
 50
138.84822781466724
 51
177.64500408483391
  0
ARC
  8
_0-0_FRF74-1310
  6
CONTINUOUS
 62
    7
 10
769.97070596716139
 20
665.63019167409675
 40
12.499999999999972
 50
2.3549959151660937
 51
41.151772185332895
  0
ARC
  8
_0-0_FRF74-1310
  6
CONTINUOUS
 62
    7
 10
840.05930405524271
 20
666.1849182898344
 40
1.0000000000000497
 50
270
 51
357.64500408483451
  0
ARC
  8
_0-0_FRF74-1310
  6
CONTINUOUS
 62
    7
 10
783.45930405524268
 20
666.1849182898344
 40
1.0000000000000628
 50
182.35499591516555
 51
270
  0
LINE
  8
_0-0_FRF74-1310
  6
CONTINUOUS
 62
    7
 10
783.45930405524268
 20
665.18491828983429
 11
840.05930405524271
 21
665.18491828983429
  0
LINE
  8
_0-0_FRF74-1310
  6
CONTINUOUS
 62
    7
 10
787.87105767534706
 20
665.18491828983417
 11
788.97942227264673
 21
664.73909777578581
  0
LINE
  8
_0-0_FRF74-1310
  6
CONTINUOUS
 62
    7
 10
834.53918583783877
 20
664.73909777578581
 11
835.64755043513833
 21
665.18491828983417
  0
ARC
  8
_0-0_FRF74-1310
  6
CONTINUOUS
 62
    7
 10
834.25930405524264
 20
665.4349182898344
 40
0.749999999999993
 50
270
 51
291.91160538190059
  0
ARC
  8
_0-0_FRF74-1310
  6
CONTINUOUS
 62
    7
 10
789.25930405524275
 20
665.4349182898344
 40
0.7499999999999924
 50
248.08839461810197
 51
270
  0
LINE
  8
_0-0_FRF74-1310
  6
CONTINUOUS
 62
    7
 10
789.25930405524275
 20
664.6849182898344
 11
834.25930405524264
 21
664.6849182898344
  0
LINE
  8
_0-0_FRF74-1310
  6
CONTINUOUS
 62
    7
 10
793.33767699827092
 20
664.68491828983429
 11
794.98945531664492
 21
664.22201556459311
  0
LINE
  8
_0-0_FRF74-1310
  6
CONTINUOUS
 62
    7
 10
828.52915279384058
 20
664.22201556459311
 11
830.18093111221447
 21
664.68491828983429
  0
ARC
  8
_0-0_FRF74-1310
  6
CONTINUOUS
 62
    7
 10
828.25930405524264
 20
665.1849182898344
 40
0.9999999999999786
 50
270
 51
285.65526611793894
  0
ARC
  8
_0-0_FRF74-1310
  6
CONTINUOUS
 62
    7
 10
795.25930405524275
 20
665.1849182898344
 40
0.9999999999999892
 50
254.34473388206357
 51
270
  0
LINE
  8
_0-0_FRF74-1310
  6
CONTINUOUS
 62
    7
 10
795.25930405524275
 20
664.1849182898344
 11
828.25930405524264
 21
664.1849182898344
  0
LINE
  8
_0-0_FRF74-1310
  6
CONTINUOUS
 62
    7
 10
799.8287820791212
 20
664.18491828983429
 11
801.25930405524275
 21
663.6849182898344
  0
LINE
  8
_0-0_FRF74-1310
  6
CONTINUOUS
 62
    7
 10
822.25930405524275
 20
663.6849182898344
 11
823.6898260313643
 21
664.18491828983429
  0
LINE
  8
_0-0_FRF74-1310
  6
CONTINUOUS
 62
    7
 10
843.75930405524275
 20
674.68491828983429
 11
779.75930405524275
 21
674.68491828983429
  0
LINE
  8
_0-0_FRF74-1310
  6
CONTINUOUS
 62
    7
 10
822.25930405524275
 20
663.6849182898344
 11
801.25930405524275
 21
663.6849182898344
  0
LINE
  8
_0-0_FRF74-1310
  6
CONTINUOUS
 62
    8
 10
834.53918583783866
 20
664.73909777578581
 11
788.97942227264673
 21
664.73909777578581
  0
LINE
  8
_0-0_FRF74-1310
  6
CONTINUOUS
 62
    8
 10
828.52915279384058
 20
664.22201556459311
 11
794.98945531664492
 21
664.22201556459311
  0
ARC
  8
_0-0_FRF74-1310
  6
CONTINUOUS
 62
    7
 10
1021.1544607140195
 20
926.8131386511559
 40
12.499999999999998
 50
228.84822781466869
 51
267.64500408483519
  0
ARC
  8
_0-0_FRF74-1310
  6
CONTINUOUS
 62
    7
 10
1047.1024454407755
 20
727.25687038838851
 40
5
 50
180
 51
0
  0
LINE
  8
_0-0_FRF74-1310
  6
CONTINUOUS
 62
    7
 10
1042.1024454407755
 20
885.43978524240219
 11
1042.1024454407755
 21
727.25687038838851
  0
LINE
  8
_0-0_FRF74-1310
  6
CONTINUOUS
 62
    7
 10
1052.1024454407755
 20
727.25687038838851
 11
1052.1024454407755
 21
885.43978524240219
  0
ARC
  8
_0-0_FRF74-1310
  6
CONTINUOUS
 62
    7
 10
1047.1024454407755
 20
885.02454056307454
 40
8.9999999999999858
 50
0.0000000000004547
 51
236.25101140411209
  0
ARC
  8
_0-0_FRF74-1310
  6
CONTINUOUS
 62
    7
 10
1047.1024454407755
 20
885.02454056307454
 40
9.0000000000000249
 50
303.74898859588956
 51
0.0000000000004452
  0
ARC
  8
_0-0_FRF74-1310
  6
CONTINUOUS
 62
    7
 10
1029.0757449738107
 20
874.48854241422828
 40
6.0000000000000355
 50
96.121557463162731
 51
174.87476233141385
  0
ARC
  8
_0-0_FRF74-1310
  6
CONTINUOUS
 62
    7
 10
1029.0757449738107
 20
895.5605387119208
 40
6.0000000000000107
 50
185.12523766858615
 51
263.87844253683795
  0
ARC
  8
_0-0_FRF74-1310
  6
CONTINUOUS
 62
    7
 10
1039.0997340982824
 20
781.02454056307454
 40
100.00000000000007
 50
90.03411254114009
 51
96.121557463163327
  0
ARC
  8
_0-0_FRF74-1310
  6
CONTINUOUS
 62
    7
 10
1039.0997340982824
 20
989.02454056307454
 40
100.00000000000003
 50
263.8784425368375
 51
269.96588745886072
  0
ARC
  8
_0-0_FRF74-1310
  6
CONTINUOUS
 62
    7
 10
1012.5997340982829
 20
853.02454056307442
 40
0.5000000000000427
 50
180
 51
311.15177218529254
  0
ARC
  8
_0-0_FRF74-1310
  6
CONTINUOUS
 62
    7
 10
1020.5997340982821
 20
913.32454056307461
 40
0.9999999999999432
 50
0.0000000000040927
 51
87.645004084840252
  0
ARC
  8
_0-0_FRF74-1310
  6
CONTINUOUS
 62
    7
 10
1020.5997340982827
 20
856.72454056307447
 40
1.0000000000000644
 50
272.35499591516754
 51
0.0000000000000127
  0
LINE
  8
_0-0_FRF74-1310
  6
CONTINUOUS
 62
    7
 10
1021.5997340982829
 20
856.72454056307447
 11
1021.5997340982821
 21
913.32454056307461
  0
LINE
  8
_0-0_FRF74-1310
  6
CONTINUOUS
 62
    7
 10
1021.5997340982827
 20
861.13629418317839
 11
1022.0455546123313
 21
862.24465878047863
  0
LINE
  8
_0-0_FRF74-1310
  6
CONTINUOUS
 62
    7
 10
1022.0455546123306
 20
907.80442234567056
 11
1021.5997340982821
 21
908.91278694297068
  0
ARC
  8
_0-0_FRF74-1310
  6
CONTINUOUS
 62
    7
 10
1021.3497340982821
 20
907.52454056307454
 40
0.7499999999999574
 50
0.000000000005457
 51
21.91160538189553
  0
ARC
  8
_0-0_FRF74-1310
  6
CONTINUOUS
 62
    7
 10
1021.3497340982827
 20
862.52454056307454
 40
0.7499999999999793
 50
338.08839461810447
 51
0
  0
LINE
  8
_0-0_FRF74-1310
  6
CONTINUOUS
 62
    7
 10
1022.0997340982827
 20
862.52454056307454
 11
1022.0997340982821
 21
907.52454056307465
  0
LINE
  8
_0-0_FRF74-1310
  6
CONTINUOUS
 62
    7
 10
1022.0997340982826
 20
866.60291350610214
 11
1022.5626368235239
 21
868.25469182447671
  0
LINE
  8
_0-0_FRF74-1310
  6
CONTINUOUS
 62
    7
 10
1022.5626368235235
 20
901.79438930167248
 11
1022.0997340982821
 21
903.44616762004694
  0
ARC
  8
_0-0_FRF74-1310
  6
CONTINUOUS
 62
    7
 10
1021.5997340982822
 20
901.52454056307454
 40
0.9999999999999432
 50
0
 51
15.655266117941496
  0
ARC
  8
_0-0_FRF74-1310
  6
CONTINUOUS
 62
    7
 10
1021.5997340982826
 20
868.52454056307442
 40
0.9999999999999892
 50
344.34473388206357
 51
0.0000000000040838
  0
LINE
  8
_0-0_FRF74-1310
  6
CONTINUOUS
 62
    7
 10
1022.5997340982826
 20
868.52454056307454
 11
1022.5997340982822
 21
901.52454056307454
  0
LINE
  8
_0-0_FRF74-1310
  6
CONTINUOUS
 62
    7
 10
1022.5997340982825
 20
873.09401858695253
 11
1023.0997340982826
 21
874.52454056307454
  0
LINE
  8
_0-0_FRF74-1310
  6
CONTINUOUS
 62
    7
 10
1023.0997340982823
 20
895.52454056307454
 11
1022.5997340982822
 21
896.95506253919666
  0
ARC
  8
_0-0_FRF74-1310
  6
CONTINUOUS
 62
    7
 10
1047.1024454407755
 20
885.02454056307454
 40
5.5000000000000426
 50
0
 51
204.61997732865856
  0
ARC
  8
_0-0_FRF74-1310
  6
CONTINUOUS
 62
    7
 10
1047.1024454407755
 20
885.02454056307454
 40
5.5000000000000053
 50
335.38002267134272
 51
0.0000000000000063
  0
LINE
  8
_0-0_FRF74-1310
  6
CONTINUOUS
 62
    7
 10
1012.0997340982819
 20
917.02454056174963
 11
1012.0997340982829
 21
853.02454056307442
  0
LINE
  8
_0-0_FRF74-1310
  6
CONTINUOUS
 62
    7
 10
1023.0997340982823
 20
895.52454056307454
 11
1023.0997340982826
 21
874.52454056307454
  0
ARC
  8
_0-0_FRF74-1310
  6
CONTINUOUS
 62
    8
 10
1047.1024454407755
 20
885.02454056307454
 40
7.1759062493225656
 50
0
 51
225.83108073575116
  0
ARC
  8
_0-0_FRF74-1310
  6
CONTINUOUS
 62
    8
 10
1047.1024454407755
 20
885.02454056307454
 40
7.1759062493225425
 50
314.16891926425041
 51
0
  0
ARC
  8
_0-0_FRF74-1310
  6
CONTINUOUS
 62
    8
 10
1047.1024454407755
 20
885.02454056307454
 40
6.6685937489981484
 50
0
 51
221.42839279878851
  0
ARC
  8
_0-0_FRF74-1310
  6
CONTINUOUS
 62
    8
 10
1047.1024454407755
 20
885.02454056307454
 40
6.6685937489981315
 50
318.57160720121323
 51
0.0000000000000127
  0
ARC
  8
_0-0_FRF74-1310
  6
CONTINUOUS
 62
    8
 10
1047.1024454407755
 20
885.02454056307454
 40
5.7913669064748063
 50
0
 51
210.30471405650226
  0
ARC
  8
_0-0_FRF74-1310
  6
CONTINUOUS
 62
    8
 10
1047.1024454407755
 20
885.02454056307454
 40
5.7913669064748294
 50
329.69528594349964
 51
0.0000000000000063
  0
LINE
  8
_0-0_FRF74-1310
  6
CONTINUOUS
 62
    8
 10
1028.4359158807595
 20
885.02454056307454
 11
1028.4359158807595
 21
889.59475135971934
  0
LINE
  8
_0-0_FRF74-1310
  6
CONTINUOUS
 62
    8
 10
1028.4359158807595
 20
880.45432976642974
 11
1028.4359158807595
 21
885.02454056307454
  0
LINE
  8
_0-0_FRF74-1310
  6
CONTINUOUS
 62
    8
 10
1022.0455546123306
 20
907.80442234567056
 11
1022.0455546123313
 21
862.24465878047863
  0
LINE
  8
_0-0_FRF74-1310
  6
CONTINUOUS
 62
    8
 10
1022.5626368235235
 20
901.79438930167248
 11
1022.5626368235239
 21
868.25469182447671
  0
ARC
  8
_0-0_FRF74-1310
  6
CONTINUOUS
 62
    7
 10
1012.5997340982819
 20
917.02454056307442
 40
0.5000000000000874
 50
48.848227814701282
 51
180.00000000000006
  0
ARC
  8
_0-0_FRF74-1310
  6
CONTINUOUS
 62
    7
 10
1021.1544607140203
 20
843.23594247499318
 40
12.499999999999998
 50
92.354995915164807
 51
131.15177218533131
  0
LINE
  8
_0-1_
  6
CONTINUOUS
 62
    7
 10
807.75930427357741
 20
646.66209605903612
 11
807.75930427357741
 21
646.66209605903612
  0
LINE
  8
_0-1_
  6
CONTINUOUS
 62
    7
 10
807.75930427357741
 20
646.66209605903612
 11
807.82030275497959
 21
646.38426702128061
  0
LINE
  8
_0-1_
  6
CONTINUOUS
 62
    7
 10
807.82030275497959
 20
646.38426702128061
 11
808.0009857976595
 21
646.11489574094139
  0
LINE
  8
_0-1_
  6
CONTINUOUS
 62
    7
 10
808.0009857976595
 20
646.11489574094139
 11
808.29586343879521
 21
645.86216692806329
  0
LINE
  8
_0-1_
  6
CONTINUOUS
 62
    7
 10
808.29586343879521
 20
645.86216692806329
 11
808.69597597047607
 21
645.63375961973838
  0
LINE
  8
_0-1_
  6
CONTINUOUS
 62
    7
 10
808.69597597047607
 20
645.63375961973838
 11
809.18916617589389
 21
645.43661385645078
  0
LINE
  8
_0-1_
  6
CONTINUOUS
 62
    7
 10
809.18916617589389
 20
645.43661385645078
 11
809.76044872022317
 21
645.27671981245703
  0
LINE
  8
_0-1_
  6
CONTINUOUS
 62
    7
 10
809.76044872022317
 20
645.27671981245703
 11
810.39246547243738
 21
645.15893578737393
  0
LINE
  8
_0-1_
  6
CONTINUOUS
 62
    7
 10
810.39246547243738
 20
645.15893578737393
 11
811.06601292333653
 21
645.08684058920187
  0
LINE
  8
_0-1_
  6
CONTINUOUS
 62
    7
 10
811.06601292333653
 20
645.08684058920187
 11
811.76062567445638
 21
645.06262479405541
  0
LINE
  8
_0-1_
  6
CONTINUOUS
 62
    7
 10
811.76062567445638
 20
645.06262479405541
 11
812.45519826884515
 21
645.0870241866163
  0
LINE
  8
_0-1_
  6
CONTINUOUS
 62
    7
 10
812.45519826884515
 20
645.0870241866163
 11
813.12862646969302
 21
645.15929740368824
  0
LINE
  8
_0-1_
  6
CONTINUOUS
 62
    7
 10
813.12862646969302
 20
645.15929740368824
 11
813.7604485018885
 21
645.27724846014246
  0
LINE
  8
_0-1_
  6
CONTINUOUS
 62
    7
 10
813.7604485018885
 20
645.27724846014246
 11
814.33146677270054
 21
645.43729347281487
  0
LINE
  8
_0-1_
  6
CONTINUOUS
 62
    7
 10
814.33146677270054
 20
645.43729347281487
 11
814.82433118091978
 21
645.63456955498202
  0
LINE
  8
_0-1_
  6
CONTINUOUS
 62
    7
 10
814.82433118091978
 20
645.63456955498202
 11
815.22406629090392
 21
645.86308257271367
  0
LINE
  8
_0-1_
  6
CONTINUOUS
 62
    7
 10
815.22406629090392
 20
645.86308257271367
 11
815.51852635361172
 21
646.11588927359946
  0
LINE
  8
_0-1_
  6
CONTINUOUS
 62
    7
 10
815.51852635361172
 20
646.11588927359946
 11
815.69876434904188
 21
646.38530825395901
  0
LINE
  8
_0-1_
  6
CONTINUOUS
 62
    7
 10
815.69876434904188
 20
646.38530825395901
 11
815.75927943996339
 21
646.65701155602881
  0
TEXT
  8
_0-2_
 62
    7
 10
704.52645968509307
 20
506.99149662678974
 40
6
 41
1
 50
0
  1
タオルリング　-LANGBERGER,Runua-
  0
TEXT
  8
_0-1_
 62
    7
 10
703.97394593676165
 20
489.05171424286794
 40
6
 41
1
 50
0
  1
クローム
  0
ENDSEC
  0
EOF
