  0
SECTION
  2
HEADER
  9
$ACADVER
  1
AC1009
  9
$INSBASE
 10
0
 20
0
 30
0
  9
$EXTMIN
 10
0
 20
0
  9
$EXTMAX
 10
1682
 20
1188
  9
$LIMMIN
 10
0
 20
0
  9
$LIMMAX
 10
1682
 20
1188
  9
$LTSCALE
 40
2
  0
ENDSEC
  0
SECTION
  2
TABLES
  0
TABLE
  2
LTYPE
 70
     9
  0
LTYPE
  2
CONTINUOUS
 70
    64
  3
実線
 72
    65
 73
     0
 40
0.0
  0
LTYPE
  2
DASHED1
 70
    64
  3
--  --  --  --  --  --  --  --  
 72
    65
 73
     2
 40
2.5
 49
1.25
 49
-1.25
  0
LTYPE
  2
DASHED2
 70
    64
  3
----    ----    ----    ----    
 72
    65
 73
     2
 40
5.0
 49
2.5
 49
-2.5
  0
LTYPE
  2
DASHED3
 70
    64
  3
------  ------  ------  ------  
 72
    65
 73
     2
 40
5.0
 49
3.75
 49
-1.25
  0
LTYPE
  2
CENTER1
 70
    64
  3
----- - ----- - ----- - ----- - 
 72
    65
 73
     4
 40
10.0
 49
6.25
 49
-1.25
 49
1.25
 49
-1.25
  0
LTYPE
  2
CENTER2
 70
    64
  3
----------  --  ----------  --  
 72
    65
 73
     4
 40
20.0
 49
12.5
 49
-2.5
 49
2.5
 49
-2.5
  0
LTYPE
  2
PHANTOM1
 70
    64
  3
--- - - --- - - --- - - --- - - 
 72
    65
 73
     6
 40
10.0
 49
3.25
 49
-1.25
 49
1.25
 49
-1.25
 49
1.25
 49
-1.25
  0
LTYPE
  2
PHANTOM2
 70
    64
  3
--------  -  -  --------  -  -  
 72
    65
 73
     6
 40
20.0
 49
10.0
 49
-2.5
 49
1.25
 49
-2.5
 49
1.25
 49
-2.5
  0
LTYPE
  2
DOT
 70
    64
  3
-   -   -   -   -   -   -   -   
 72
    65
 73
     2
 40
2.5
 49
0.625
 49
-1.875
  0
LTYPE
  2
DUMMY
 70
    64
  3
ダミー
 72
    65
 73
     0
 40
0.0
  0
LTYPE
  2
RAND1
 70
    64
  3
ランダム線1
 72
    65
 73
     4
 40
10.0
 49
1.0
 49
-2.0
 49
3.0
 49
-4.0
  0
LTYPE
  2
RAND2
 70
    64
  3
ランダム線2
 72
    65
 73
     4
 40
14.0
 49
2.0
 49
-3.0
 49
4.0
 49
-5.0
  0
LTYPE
  2
RAND3
 70
    64
  3
ランダム線3
 72
    65
 73
     4
 40
18.0
 49
3.0
 49
-4.0
 49
5.0
 49
-6.0
  0
LTYPE
  2
RAND4
 70
    64
  3
ランダム線4
 72
    65
 73
     4
 40
22.0
 49
4.0
 49
-5.0
 49
6.0
 49
-7.0
  0
LTYPE
  2
RAND5
 70
    64
  3
ランダム線5
 72
    65
 73
     4
 40
26.0
 49
5.0
 49
-6.0
 49
7.0
 49
-8.0
  0
LTYPE
  2
LONG1
 70
    64
  3
----------  --  ----------  --  
 72
    65
 73
     4
 40
40.0
 49
32.5
 49
-2.5
 49
2.5
 49
-2.5
  0
LTYPE
  2
LONG2
 70
    64
  3
--------  -  -  --------  -  -  
 72
    65
 73
     6
 40
40.0
 49
30.0
 49
-2.5
 49
1.25
 49
-2.5
 49
1.25
 49
-2.5
  0
LTYPE
  2
LONG3
 70
    64
  3
+++++++++++++++..+++++++++++++++
 72
    65
 73
     2
 40
40.0
 49
37.5
 49
-2.5
  0
LTYPE
  2
LONG4
 70
    64
  3
+++++++++++++++..+++++++++++++++
 72
    65
 73
     2
 40
80.0
 49
75.0
 49
-5.0
  0
LTYPE
  2
LONG5
 70
    64
  3
----------  --  ----------  --  
 72
    65
 73
     4
 40
60.0
 49
37.5
 49
-7.5
 49
7.5
 49
-7.5
  0
LTYPE
  2
dashed
 70
   64
  3
-------   -------------   ------
 72
   65
 73
    2
 40
7.5
 49
6
 49
-1.5
  0
LTYPE
  2
dashed_spaced
 70
   64
  3
----        --------        ----
 72
   65
 73
    2
 40
12
 49
6
 49
-6
  0
LTYPE
  2
long_dashed_dotted
 70
   64
  3
------------- --- --------------
 72
   65
 73
    4
 40
15.25
 49
12
 49
-1.5
 49
0.25
 49
-1.5
  0
LTYPE
  2
long_dashed_double-dotted
 70
   64
  3
----------- --- --- ------------
 72
   65
 73
    6
 40
17
 49
12
 49
-1.5
 49
0.25
 49
-1.5
 49
0.25
 49
-1.5
  0
LTYPE
  2
long_dashed_triplicate-dotted
 70
   64
  3
--------- --- --- --- ----------
 72
   65
 73
    8
 40
18.75
 49
12
 49
-1.5
 49
0.25
 49
-1.5
 49
0.25
 49
-1.5
 49
0.25
 49
-1.5
  0
LTYPE
  2
dotted
 70
   64
  3
   -       -       -       -    
 72
   65
 73
    2
 40
1.75
 49
0.25
 49
-1.5
  0
LTYPE
  2
chain
 70
   64
  3
-------------- -- --------------
 72
   65
 73
    4
 40
18.5
 49
12
 49
-1.5
 49
3.5
 49
-1.5
  0
LTYPE
  2
chain_double_dash
 70
   64
  3
------------ -- -- -------------
 72
   65
 73
    6
 40
23.5
 49
12
 49
-1.5
 49
3.5
 49
-1.5
 49
3.5
 49
-1.5
  0
LTYPE
  2
dashed_dotted
 70
   64
  3
-----------     -     ----------
 72
   65
 73
    4
 40
9.25
 49
6
 49
-1.5
 49
0.25
 49
-1.5
  0
LTYPE
  2
double-dashed_dotted
 70
   64
  3
------   -----------   -   -----
 72
   65
 73
    6
 40
16.75
 49
6
 49
-1.5
 49
6
 49
-1.5
 49
0.25
 49
-1.5
  0
LTYPE
  2
dashed_double-dotted
 70
   64
  3
---------    -    -    ---------
 72
   65
 73
    6
 40
11
 49
6
 49
-1.5
 49
0.25
 49
-1.5
 49
0.25
 49
-1.5
  0
LTYPE
  2
double-dashed_double-dotted
 70
   64
  3
-----   ---------   -   -   ----
 72
   65
 73
    8
 40
18.5
 49
6
 49
-1.5
 49
6
 49
-1.5
 49
0.25
 49
-1.5
 49
0.25
 49
-1.5
  0
LTYPE
  2
dashed_triplicate-dotted
 70
   64
  3
-------    -    -    -    ------
 72
   65
 73
    8
 40
12.75
 49
6
 49
-1.5
 49
0.25
 49
-1.5
 49
0.25
 49
-1.5
 49
0.25
 49
-1.5
  0
LTYPE
  2
double-dashed_triplicate-dotted
 70
   64
  3
-----  ---------  -  -  -  -----
 72
   65
 73
   10
 40
20.25
 49
6
 49
-1.5
 49
6
 49
-1.5
 49
0.25
 49
-1.5
 49
0.25
 49
-1.5
 49
0.25
 49
-1.5
  0
LTYPE
  2
undefined
 70
   64
  3
--------------------------------
 72
   65
 73
    0
 40
0
  0
ENDTAB
  0
TABLE
  2
STYLE
  5
3
100
AcDbSymbolTable
 70
     1
  0
STYLE
  5
10
100
AcDbSymbolTableRecord
100
AcDbTextStyleTableRecord
  2
STANDARD
 70
     0
 40
0.0
 41
1.0
 50
0.0
 71
     0
 42
0.2
  3
txt
  4
bigfont.shx
  0
STYLE
  5
26
100
AcDbSymbolTableRecord
100
AcDbTextStyleTableRecord
  2
TATEGAKI
 70
    68
 40
0.0
 41
1.0
 50
0.0
 71
     0
 42
1.0
  3
txt
  4
bigfont.shx
  0
ENDTAB
  0
TABLE
  2
LAYER
 70
    4
  0
LAYER
  2
_0-0_
 70
   64
 62
    7
  6
CONTINUOUS
  0
LAYER
  2
_0-1_
 70
   64
 62
    7
  6
CONTINUOUS
  0
LAYER
  2
_0-2_FRF74-1311
 70
   64
 62
    7
  6
CONTINUOUS
  0
LAYER
  2
ADD_LINE
 70
   64
 62
    7
  6
CONTINUOUS
  0
ENDTAB
  0
ENDSEC
  0
SECTION
  2
BLOCKS
  0
ENDSEC
  0
SECTION
  2
ENTITIES
  0
LINE
  8
_0-2_FRF74-1311
  6
CONTINUOUS
 62
    7
 10
1079.8988725370491
 20
503.2673488237719
 11
689.8988725370491
 21
503.2673488237719
  0
LINE
  8
_0-2_FRF74-1311
  6
CONTINUOUS
 62
    7
 10
1079.8988725371457
 20
1029.267348823772
 11
689.89887253714551
 21
1029.267348823772
  0
LINE
  8
_0-2_FRF74-1311
  6
CONTINUOUS
 62
    7
 10
689.89887253714551
 20
1029.267348823772
 11
689.89887253714551
 21
469.2673488237719
  0
LINE
  8
_0-2_FRF74-1311
  6
CONTINUOUS
 62
    7
 10
689.89887253714551
 20
469.2673488237719
 11
1079.8988725371457
 21
469.2673488237719
  0
LINE
  8
_0-2_FRF74-1311
  6
CONTINUOUS
 62
    7
 10
1079.8988725371457
 20
469.2673488237719
 11
1079.8988725371457
 21
1029.267348823772
  0
LINE
  8
_0-2_FRF74-1311
  6
CONTINUOUS
 62
    7
 10
1079.8988725370491
 20
520.26734882377195
 11
689.8988725370491
 21
520.26734882377195
  0
LINE
  8
_0-2_FRF74-1311
  6
CONTINUOUS
 62
    7
 10
1079.8988725371457
 20
486.2673488237719
 11
929.29887253714571
 21
486.2673488237719
  0
LINE
  8
_0-2_FRF74-1311
  6
CONTINUOUS
 62
    7
 10
1029.6988725371975
 20
486.2673488237719
 11
1029.6988725371975
 21
503.2673488237719
  0
LINE
  8
_0-2_FRF74-1311
  6
CONTINUOUS
 62
    7
 10
979.49887253719749
 20
486.2673488237719
 11
979.49887253719749
 21
503.2673488237719
  0
LINE
  8
_0-2_FRF74-1311
  6
CONTINUOUS
 62
    7
 10
929.29887253719744
 20
469.2673488237719
 11
929.29887253719744
 21
520.26734882377195
  0
TEXT
  8
_0-2_FRF74-1311
 62
    7
 10
936.36516934588531
 20
473.92519932464324
 40
6
 41
1
 50
0
  1
大洋金物株式会社 ティーフォルム事業部
  0
TEXT
  8
_0-2_FRF74-1311
 62
    7
 10
692.03092613020874
 20
496.95829989926438
 40
4.4000000000000004
 41
1
 50
0
  1
仕様
  0
TEXT
  8
_0-2_FRF74-1311
 62
    7
 10
692.11008412622641
 20
513.7277384202182
 40
4.4000000000000004
 41
1
 50
0
  1
品名
  0
TEXT
  8
_0-2_FRF74-1311
 62
    7
 10
931.58014201817321
 20
514.02354576782386
 40
4.4000000000000004
 41
1
 50
0
  1
品番
  0
TEXT
  8
_0-2_FRF74-1311
 62
    7
 10
931.40046929208268
 20
496.85593532261146
 40
4.4000000000000004
 41
1
 50
0
  1
重量
  0
TEXT
  8
_0-2_FRF74-1311
 62
    7
 10
981.63419090952073
 20
497.28379304790997
 40
4.4000000000000004
 41
1
 50
0
  1
容量
  0
TEXT
  8
_0-2_FRF74-1311
 62
    7
 10
1031.8476186341097
 20
497.19837872271296
 40
4.4000000000000004
 41
1
 50
0
  1
縮尺
  0
TEXT
  8
_0-2_FRF74-1311
 62
    7
 10
942.89541103866486
 20
507.16508785728229
 40
6
 41
1
 50
0
  1
FRF74-1311
  0
TEXT
  8
_0-2_FRF74-1311
 62
    4
 10
690.59866426069993
 20
460.90948008418826
 40
5
 41
1
 50
0
  1
120910S
  0
LINE
  8
_0-1_
  6
CONTINUOUS
 62
    7
 10
867.53796467632742
 20
746.7862956701224
 11
867.53796467632742
 21
776.7862956701224
  0
LINE
  8
_0-1_
  6
CONTINUOUS
 62
    4
 10
731.53796467632742
 20
746.7862956701224
 11
867.53796467632742
 21
746.7862956701224
  0
POINT
  8
_0-1_
 62
    7
 10
731.53796467632742
 20
746.7862956701224
  0
POINT
  8
_0-1_
 62
    7
 10
867.53796467632742
 20
746.7862956701224
  0
LINE
  8
_0-1_
  6
CONTINUOUS
 62
    4
 10
731.53796467632742
 20
746.7862956701224
 11
731.53796467632742
 21
803.58231072296439
  0
LINE
  8
_0-1_
  6
CONTINUOUS
 62
    4
 10
867.53796467632742
 20
746.7862956701224
 11
867.53796467632742
 21
803.58231072296451
  0
TEXT
  8
_0-1_
 62
    4
 10
795.78796467632742
 20
747.7862956701224
 40
5
 41
1
 50
0
  1
136
  0
LINE
  8
_0-1_
  6
CONTINUOUS
 62
    4
 10
897.53796467632742
 20
912.08231072296439
 11
897.53796467632742
 21
777.08629567012235
  0
POINT
  8
_0-1_
 62
    7
 10
897.53796467632742
 20
912.08231072296439
  0
POINT
  8
_0-1_
 62
    7
 10
897.53796467632742
 20
777.08629567012235
  0
LINE
  8
_0-1_
  6
CONTINUOUS
 62
    4
 10
897.53796467632742
 20
912.08231072296439
 11
807.53796467632742
 21
912.08231072296439
  0
LINE
  8
_0-1_
  6
CONTINUOUS
 62
    4
 10
897.53796467632742
 20
777.08629567012235
 11
863.03796467632742
 21
777.08629567012235
  0
TEXT
  8
_0-1_
 62
    4
 10
896.53796467632742
 20
840.83430319654337
 40
5
 41
1
 50
90
  1
135
  0
LINE
  8
_0-1_
  6
CONTINUOUS
 62
    4
 10
952.76687205697829
 20
912.08231072296428
 11
952.76687205697829
 21
847.08231072296428
  0
POINT
  8
_0-1_
 62
    7
 10
952.76687205697829
 20
912.08231072296428
  0
POINT
  8
_0-1_
 62
    7
 10
952.76687205697829
 20
847.08231072296428
  0
LINE
  8
_0-1_
  6
CONTINUOUS
 62
    4
 10
952.76687205697829
 20
912.08231072296428
 11
975.26687205697749
 21
912.08231072296428
  0
LINE
  8
_0-1_
  6
CONTINUOUS
 62
    4
 10
952.76687205697829
 20
847.08231072296428
 11
975.26687205697829
 21
847.08231072296428
  0
TEXT
  8
_0-1_
 62
    4
 10
951.76687205697829
 20
877.08231072296428
 40
5
 41
1
 50
90
  1
65
  0
TEXT
  8
_0-1_
 62
    4
 10
951.38057443053378
 20
872.16547212437433
 40
5
 41
1
 50
90
  1
φ
  0
LINE
  8
_0-1_
  6
CONTINUOUS
 62
    4
 10
1017.7668720569778
 20
765.58231072296451
 11
982.76687205697749
 21
765.58231072296451
  0
POINT
  8
_0-1_
 62
    7
 10
1017.7668720569778
 20
765.58231072296451
  0
POINT
  8
_0-1_
 62
    7
 10
982.76687205697749
 20
765.58231072296451
  0
LINE
  8
_0-1_
  6
CONTINUOUS
 62
    4
 10
1017.7668720569778
 20
765.58231072296451
 11
1017.7668720569778
 21
789.58231072296451
  0
LINE
  8
_0-1_
  6
CONTINUOUS
 62
    4
 10
982.76687205697749
 20
765.58231072296451
 11
982.76687205697749
 21
841.58231072296428
  0
TEXT
  8
_0-1_
 62
    4
 10
997.76687205697772
 20
766.58231072296451
 40
5
 41
1
 50
0
  1
35
  0
LINE
  8
_0-1_
  6
CONTINUOUS
 62
    4
 10
1021.7668757290228
 20
783.36187234720364
 11
1013.7668757290228
 21
783.36187234720364
  0
TEXT
  8
_0-1_
 62
    4
 10
1003.7668757290228
 20
784.36187234720364
 40
5
 41
1
 50
0
  1
φ8
  0
LINE
  8
_0-1_
  6
CONTINUOUS
 62
    4
 10
1013.7668757290228
 20
783.36187234720364
 11
1003.7668757290228
 21
783.36187234720364
  0
POINT
  8
_0-1_
 62
    7
 10
1021.7668757290228
 20
783.36187234720364
  0
POINT
  8
_0-1_
 62
    7
 10
1013.7668757290228
 20
783.36187234720364
  0
LINE
  8
_0-1_
  6
CONTINUOUS
 62
    4
 10
1021.7668757290228
 20
793.58231072296451
 11
1021.7668757290228
 21
783.36187234720364
  0
LINE
  8
_0-1_
  6
CONTINUOUS
 62
    4
 10
1013.7668757290228
 20
793.58231072296451
 11
1013.7668757290228
 21
783.36187234720364
  0
LINE
  8
_0-0_
  6
CONTINUOUS
 62
    7
 10
731.53796467632742
 20
867.58231072296451
 11
731.53796467632742
 21
811.58231072296439
  0
ARC
  8
_0-0_
  6
CONTINUOUS
 62
    7
 10
747.53796467632742
 20
811.58231072296439
 40
16
 50
180
 51
228.98550033427
  0
ARC
  8
_0-0_
  6
CONTINUOUS
 62
    7
 10
851.53796467632742
 20
811.58231072296439
 40
15.999999999999972
 50
311.01449966573142
 51
0.0000000000002162
  0
ARC
  8
_0-0_
  6
CONTINUOUS
 62
    7
 10
747.53796467632742
 20
867.58231072296451
 40
15.999999999999988
 50
131.01449966573054
 51
180
  0
LINE
  8
_0-0_
  6
CONTINUOUS
 62
    7
 10
867.53796467632742
 20
811.58231072296451
 11
867.53796467632742
 21
821.58231072296451
  0
LINE
  8
_0-0_
  6
CONTINUOUS
 62
    7
 10
778.03796467632742
 20
885.58231072296451
 11
777.03796467632742
 21
885.58231072296451
  0
LINE
  8
_0-0_
  6
CONTINUOUS
 62
    7
 10
822.03796467632742
 20
885.58231072296451
 11
821.03796467632742
 21
885.58231072296451
  0
ARC
  8
_0-0_
  6
CONTINUOUS
 62
    7
 10
820.03796467632742
 20
887.58231072296451
 40
1
 50
0
 51
101.71070790669108
  0
LINE
  8
_0-0_
  6
CONTINUOUS
 62
    7
 10
821.03796467632742
 20
874.33769305485464
 11
821.03796467632742
 21
887.58231072296451
  0
ARC
  8
_0-0_
  6
CONTINUOUS
 62
    7
 10
779.03796467632731
 20
887.58231072296439
 40
1.0000000000000184
 50
78.289292093307296
 51
180
  0
LINE
  8
_0-0_
  6
CONTINUOUS
 62
    7
 10
778.03796467632731
 20
887.58231072296439
 11
778.03796467632731
 21
874.31969534046766
  0
ARC
  8
_0-0_
  6
CONTINUOUS
 62
    7
 10
799.53796467632731
 20
986.47998511422634
 40
100.00000000000017
 50
258.28929209330994
 51
281.71070790669182
  0
ARC
  8
_0-0_
  6
CONTINUOUS
 62
    7
 10
799.53796467632742
 20
879.58231072296428
 40
32.50000000000005
 50
10.997679066323803
 51
169.00232093367623
  0
LINE
  8
_0-0_
  6
CONTINUOUS
 62
    7
 10
777.03796467632742
 20
884.09260039177491
 11
777.03796467632742
 21
875.12479095780122
  0
LINE
  8
_0-0_
  6
CONTINUOUS
 62
    7
 10
777.03796467632742
 20
875.12479095780122
 11
777.05297809374224
 21
875.07702290937254
  0
ARC
  8
_0-0_
  6
CONTINUOUS
 62
    7
 10
779.98677279901187
 20
875.99910965917366
 40
3.0752878478000878
 50
197.44784579554872
 51
198.14242034090518
  0
ARC
  8
_0-0_
  6
CONTINUOUS
 62
    7
 10
779.35272973494239
 20
875.79135273677002
 40
2.4080745791210658
 50
198.14242034095662
 51
199.02973262516403
  0
ARC
  8
_0-0_
  6
CONTINUOUS
 62
    7
 10
778.76440920813616
 20
875.58842640567889
 40
1.7857401529508909
 50
199.02943622159674
 51
200.22635901092514
  0
LINE
  8
_0-0_
  6
CONTINUOUS
 62
    7
 10
777.08878838515852
 20
874.97104260975857
 11
777.08879665583743
 21
874.97102016258407
  0
ARC
  8
_0-0_
  6
CONTINUOUS
 62
    7
 10
778.42430982473729
 20
875.46309102874227
 40
1.423281125296908
 50
200.2263590108885
 51
201.7299897754973
  0
LINE
  8
_0-0_
  6
CONTINUOUS
 62
    7
 10
777.10216860573212
 20
874.9361453402372
 11
777.10218403621741
 21
874.93610662413971
  0
ARC
  8
_0-0_
  6
CONTINUOUS
 62
    7
 10
778.20657318279518
 20
875.37626618565537
 40
1.1888716611444445
 50
201.72998977543787
 51
203.53406240186351
  0
LINE
  8
_0-0_
  6
CONTINUOUS
 62
    7
 10
777.11658847148931
 20
874.90155663678172
 11
777.11661534699215
 21
874.90149492770672
  0
ARC
  8
_0-0_
  6
CONTINUOUS
 62
    7
 10
778.05821010001171
 20
875.31157776262285
 40
1.0270192843403456
 50
203.53406240185325
 51
205.62989537133194
  0
LINE
  8
_0-0_
  6
CONTINUOUS
 62
    7
 10
777.13224237225802
 20
874.86733416101936
 11
777.1322865398356
 21
874.86724209947647
  0
ARC
  8
_0-0_
  6
CONTINUOUS
 62
    7
 10
777.95634381881325
 20
875.26259299840001
 40
0.9139872714189564
 50
205.62989537139904
 51
207.99764566558429
  0
LINE
  8
_0-0_
  6
CONTINUOUS
 62
    7
 10
777.14932332656031
 20
874.83353512654639
 11
777.14989256674869
 21
874.83246443532448
  0
ARC
  8
_0-0_
  6
CONTINUOUS
 62
    7
 10
777.83814656995082
 20
875.19837930457618
 40
0.7794788415750285
 50
207.99764566538798
 51
210.6012738643322
  0
LINE
  8
_0-0_
  6
CONTINUOUS
 62
    7
 10
777.16722519382859
 20
874.8015773747353
 11
777.16776801757544
 21
874.80065955647922
  0
ARC
  8
_0-0_
  6
CONTINUOUS
 62
    7
 10
777.8725176967813
 20
875.21746850416787
 40
0.8187806844411664
 50
210.60127386429849
 51
212.93079610639873
  0
ARC
  8
_0-0_
  6
CONTINUOUS
 62
    7
 10
777.87710161321081
 20
875.22043746888971
 40
0.8242420983014289
 50
212.93079610628044
 51
215.24488718452255
  0
LINE
  8
_0-0_
  6
CONTINUOUS
 62
    7
 10
777.20394881693699
 20
874.74479017363717
 11
777.20404668223421
 21
874.74465167122344
  0
ARC
  8
_0-0_
  6
CONTINUOUS
 62
    7
 10
777.88579928419938
 20
875.22637555761469
 40
0.8347721323848083
 50
215.24488718452304
 51
217.55306615941245
  0
LINE
  8
_0-0_
  6
CONTINUOUS
 62
    7
 10
777.22400097161199
 20
874.71758531943919
 11
777.22410554917712
 21
874.71744929234796
  0
ARC
  8
_0-0_
  6
CONTINUOUS
 62
    7
 10
777.8935402258785
 20
875.23211036373959
 40
0.844404408311766
 50
217.55306615937874
 51
219.85819764351538
  0
LINE
  8
_0-0_
  6
CONTINUOUS
 62
    7
 10
777.24534758566176
 20
874.69094023712023
 11
777.24545926209726
 21
874.69080647540648
  0
ARC
  8
_0-0_
  6
CONTINUOUS
 62
    7
 10
777.90043462623191
 20
875.23763943639437
 40
0.8532403031068993
 50
219.85819764343006
 51
222.1628572146837
  0
LINE
  8
_0-0_
  6
CONTINUOUS
 62
    7
 10
777.26797887542159
 20
874.66491023501476
 11
777.26809815682702
 21
874.66477851445518
  0
ARC
  8
_0-0_
  6
CONTINUOUS
 62
    7
 10
777.90664862463859
 20
875.24302687254522
 40
0.8614626304002712
 50
222.16285721470948
 51
224.46915408631978
  0
LINE
  8
_0-0_
  6
CONTINUOUS
 62
    7
 10
777.29188503836019
 20
874.6395506123971
 11
777.2920125636374
 21
874.63942070190694
  0
ARC
  8
_0-0_
  6
CONTINUOUS
 62
    7
 10
777.9122542802603
 20
875.24827451154795
 40
0.8691390847002453
 50
224.46915408622363
 51
226.77907830417936
  0
LINE
  8
_0-0_
  6
CONTINUOUS
 62
    7
 10
777.31705632332307
 20
874.61491668171448
 11
777.31719283761197
 21
874.61478839242511
  0
ARC
  8
_0-0_
  6
CONTINUOUS
 62
    7
 10
777.91771863950635
 20
875.25381565085911
 40
0.87691908165036
 50
226.77907830419812
 51
229.09298455043464
  0
LINE
  8
_0-0_
  6
CONTINUOUS
 62
    7
 10
777.34348277297511
 20
874.59106362683235
 11
777.34376954581455
 21
874.59081515493938
  0
ARC
  8
_0-0_
  6
CONTINUOUS
 62
    7
 10
777.91607437920209
 20
875.25133848480175
 40
0.8739701892005281
 50
229.09298455041025
 51
231.41575915810972
  0
LINE
  8
_0-0_
  6
CONTINUOUS
 62
    7
 10
777.371010096291
 20
874.56816294432485
 11
777.37121905078254
 21
874.56799623222332
  0
ARC
  8
_0-0_
  6
CONTINUOUS
 62
    7
 10
777.93424059499466
 20
875.27367913940816
 40
0.9027633270906745
 50
231.41575915811293
 51
233.63055150161182
  0
ARC
  8
_0-0_
  6
CONTINUOUS
 62
    7
 10
777.94578915727595
 20
875.28936072788281
 40
0.9222384781260802
 50
233.63055150167844
 51
235.7985847768725
  0
LINE
  8
_0-0_
  6
CONTINUOUS
 62
    7
 10
777.42739539792387
 20
874.52660800202659
 11
777.42747605764168
 21
874.52655318282643
  0
ARC
  8
_0-0_
  6
CONTINUOUS
 62
    7
 10
777.95336018452326
 20
875.30032706421616
 40
0.9355640728602814
 50
235.79858477678124
 51
237.94768621457155
  0
LINE
  8
_0-0_
  6
CONTINUOUS
 62
    7
 10
777.45686255097735
 20
874.50737672887965
 11
777.4569934616535
 21
874.50729476051674
  0
ARC
  8
_0-0_
  6
CONTINUOUS
 62
    7
 10
777.96030473042561
 20
875.3111270698497
 40
0.948403192107936
 50
237.94768621456814
 51
240.08635635461809
  0
LINE
  8
_0-0_
  6
CONTINUOUS
 62
    7
 10
777.48734160029085
 20
874.48907202769396
 11
777.48746397089826
 21
874.48900162269365
  0
ARC
  8
_0-0_
  6
CONTINUOUS
 62
    7
 10
777.96477940736293
 20
875.3186213884718
 40
0.9571305980153249
 50
240.08635635459007
 51
242.22242658312376
  0
LINE
  8
_0-0_
  6
CONTINUOUS
 62
    7
 10
777.51871791510928
 20
874.47178720943452
 11
777.51883103614989
 21
874.47172762405
  0
ARC
  8
_0-0_
  6
CONTINUOUS
 62
    7
 10
777.96703908912264
 20
875.32263698334009
 40
0.9617365525324441
 50
242.22242658315261
 51
244.36349776074223
  0
LINE
  8
_0-0_
  6
CONTINUOUS
 62
    7
 10
777.55093395574079
 20
874.45557659648671
 11
777.55103777705938
 21
874.45552677229421
  0
ARC
  8
_0-0_
  6
CONTINUOUS
 62
    7
 10
777.96741103415695
 20
875.3231458627871
 40
0.9623562622094641
 50
244.36349776073075
 51
246.51689799679326
  0
LINE
  8
_0-0_
  6
CONTINUOUS
 62
    7
 10
777.58393267058159
 20
874.44049422137732
 11
777.58402763749541
 21
874.44045296188722
  0
ARC
  8
_0-0_
  6
CONTINUOUS
 62
    7
 10
777.96635969931629
 20
875.32046616206912
 40
0.9594795662183885
 50
246.51689799684061
 51
248.68911476361745
  0
LINE
  8
_0-0_
  6
CONTINUOUS
 62
    7
 10
777.61765773921763
 20
874.42659369856324
 11
777.62072094999962
 21
874.42539873211388
  0
ARC
  8
_0-0_
  6
CONTINUOUS
 62
    7
 10
777.90624232778214
 20
875.15731230458505
 40
0.7856334608061941
 50
248.68911476372298
 51
250.88951352251257
  0
LINE
  8
_0-0_
  6
CONTINUOUS
 62
    7
 10
777.64903312800845
 20
874.4149758833513
 11
777.65295170634829
 21
874.41361815069774
  0
ARC
  8
_0-0_
  6
CONTINUOUS
 62
    7
 10
777.94004181789285
 20
875.24219444641801
 40
0.8769033070848368
 50
250.88951352236012
 51
252.31912172653762
  0
LINE
  8
_0-0_
  6
CONTINUOUS
 62
    7
 10
777.67371303743994
 20
874.40671351265667
 11
777.67456620317773
 21
874.4064415464378
  0
ARC
  8
_0-0_
  6
CONTINUOUS
 62
    7
 10
777.9795530427233
 20
875.36319390739914
 40
1.0041872596787
 50
252.31912172664963
 51
253.46536420593139
  0
ARC
  8
_0-0_
  6
CONTINUOUS
 62
    7
 10
777.99466691629937
 20
875.41410445540248
 40
1.0572938795341669
 50
253.46536420561466
 51
254.55403583806043
  0
LINE
  8
_0-0_
  6
CONTINUOUS
 62
    7
 10
777.71307841431008
 20
874.39499785487044
 11
777.71798045456853
 21
874.39364337618065
  0
ARC
  8
_0-0_
  6
CONTINUOUS
 62
    7
 10
777.95585801152026
 20
875.25455419710715
 40
0.8931702937792676
 50
254.55403583824733
 51
256.49509451474165
  0
LINE
  8
_0-0_
  6
CONTINUOUS
 62
    7
 10
777.74727719050827
 20
874.38608012449731
 11
777.7522669861977
 21
874.38488172869654
  0
ARC
  8
_0-0_
  6
CONTINUOUS
 62
    7
 10
778.07889857146108
 20
875.74488722546084
 40
1.3986790710240187
 50
256.49509451470954
 51
258.15505172354165
  0
LINE
  8
_0-0_
  6
CONTINUOUS
 62
    7
 10
777.79180024235836
 20
874.37599070156023
 11
777.79191600584295
 21
874.37596642251322
  0
ARC
  8
_0-0_
  6
CONTINUOUS
 62
    7
 10
778.13692801458762
 20
876.02099772921224
 40
1.6808216104625258
 50
258.15505172354847
 51
259.54446121618128
  0
LINE
  8
_0-0_
  6
CONTINUOUS
 62
    7
 10
777.8319051649878
 20
874.36808443825601
 11
777.83201673275778
 21
874.36806384992906
  0
ARC
  8
_0-0_
  6
CONTINUOUS
 62
    7
 10
778.21044792553698
 20
876.41877562145373
 40
2.0853366484906579
 50
259.54446121619958
 51
260.670605013211
  0
LINE
  8
_0-0_
  6
CONTINUOUS
 62
    7
 10
777.87239380212895
 20
874.36102239349248
 11
777.872494322119
 21
874.36100587975477
  0
ARC
  8
_0-0_
  6
CONTINUOUS
 62
    7
 10
778.31276272245248
 20
877.04094278694436
 40
2.715860469694483
 50
260.67060501314398
 51
261.53960858153374
  0
LINE
  8
_0-0_
  6
CONTINUOUS
 62
    7
 10
777.91318993382686
 20
874.35463683314106
 11
777.91327389737978
 21
874.35462434403837
  0
ARC
  8
_0-0_
  6
CONTINUOUS
 62
    7
 10
778.4752349526633
 20
878.13265771262581
 40
3.8195989791881959
 50
261.53960858149514
 51
262.16005117437533
  0
LINE
  8
_0-0_
  6
CONTINUOUS
 62
    7
 10
777.95421748542503
 20
874.34876062620185
 11
777.95428065288843
 21
874.34875192846209
  0
ARC
  8
_0-0_
  6
CONTINUOUS
 62
    7
 10
778.74107219145674
 20
880.06283715144195
 40
5.7679988610122708
 50
262.16005117450402
 51
262.57218051343796
  0
LINE
  8
_0-0_
  6
CONTINUOUS
 62
    7
 10
777.99540214693695
 20
874.34324039595776
 11
778.03667506028103
 21
874.33785960139357
  0
LINE
  8
_0-0_
  6
CONTINUOUS
 62
    7
 10
778.03667506028103
 20
874.33785960139357
 11
778.03796467632742
 21
874.33769305485464
  0
LINE
  8
_0-0_
  6
CONTINUOUS
 62
    7
 10
778.03796467632742
 20
874.33769305485464
 11
821.03796467632742
 21
874.33769305485464
  0
LINE
  8
_0-0_
  6
CONTINUOUS
 62
    7
 10
822.03796467632742
 20
875.12479095780122
 11
822.03796467632742
 21
884.09260039177491
  0
LINE
  8
_0-0_
  6
CONTINUOUS
 62
    7
 10
777.03796467632742
 20
885.78231074770508
 11
777.03796467632742
 21
884.09260043235952
  0
LINE
  8
_0-0_
  6
CONTINUOUS
 62
    7
 10
822.03796467632742
 20
884.09260043235952
 11
822.03796467632742
 21
885.78231074770508
  0
LINE
  8
_0-0_
  6
CONTINUOUS
 62
    7
 10
867.53796467632742
 20
821.58231072296451
 11
862.03796467632742
 21
821.58231072296451
  0
ARC
  8
_0-0_
  6
CONTINUOUS
 62
    7
 10
799.53796467632742
 20
879.58231072296439
 40
10.000000000000034
 50
45.584812258728419
 51
134.41518774127206
  0
ARC
  8
_0-0_
  6
CONTINUOUS
 62
    7
 10
799.53796467632742
 20
879.58231072296451
 40
10.499999999999998
 50
43.222987538807928
 51
136.77701246119213
  0
ARC
  8
_0-0_
  6
CONTINUOUS
 62
    7
 10
799.53796467632742
 20
879.58231072296451
 40
10.049999999999949
 50
45.332642540787809
 51
134.66735745921227
  0
ARC
  8
_0-0_
  6
CONTINUOUS
 62
    8
 10
799.53796467632742
 20
879.58231072296439
 40
14.671399380619947
 50
31.574015804740498
 51
148.4259841952595
  0
ARC
  8
_0-0_
  6
CONTINUOUS
 62
    8
 10
799.53796467632742
 20
879.58231072296451
 40
16.76984873859783
 50
28.455927558556787
 51
151.54407244144318
  0
ARC
  8
_0-0_
  6
CONTINUOUS
 62
    8
 10
799.53796467632742
 20
879.58231072296439
 40
15.596492097094806
 50
30.062214018723623
 51
149.93778598127659
  0
ARC
  8
_0-0_
  6
CONTINUOUS
 62
    8
 10
799.53796467632742
 20
879.58231072296439
 40
20.998575340375069
 50
24.588812158127141
 51
155.41118784187304
  0
LINE
  8
_0-0_
  6
CONTINUOUS
 62
    8
 10
821.51347409087907
 20
885.58231072296451
 11
821.36085251584097
 21
886.11565445898952
  0
LINE
  8
_0-0_
  6
CONTINUOUS
 62
    8
 10
821.36085251584097
 20
886.11565445898952
 11
821.03796467632742
 21
887.11045883714553
  0
ARC
  8
_0-0_
  6
CONTINUOUS
 62
    8
 10
799.53796467632742
 20
879.58231072296439
 40
22.779881782596057
 50
22.937694486463752
 51
157.06230551353576
  0
LINE
  8
_0-0_
  6
CONTINUOUS
 62
    8
 10
778.03796467632731
 20
887.11045883714553
 11
777.71507683681375
 21
886.1156544589893
  0
LINE
  8
_0-0_
  6
CONTINUOUS
 62
    8
 10
777.71507683681375
 20
886.1156544589893
 11
777.56245526177565
 21
885.58231072296451
  0
ARC
  8
_0-0_
  6
CONTINUOUS
 62
    8
 10
799.53796467632742
 20
879.58231072296439
 40
21.850480947161689
 50
24.06007192988946
 51
155.93992807011071
  0
ARC
  8
_0-0_
  6
CONTINUOUS
 62
    8
 10
799.53796467632742
 20
879.58231072296439
 40
26.194773482303155
 50
13.691171349798461
 51
166.30882865020149
  0
ARC
  8
_0-0_
  6
CONTINUOUS
 62
    8
 10
799.53796467632742
 20
879.58231072296439
 40
29.29915541393196
 50
12.216730560263542
 51
167.78326943973642
  0
ARC
  8
_0-0_
  6
CONTINUOUS
 62
    8
 10
799.53796467632742
 20
879.58231072296439
 40
27.433974596215627
 50
13.061520987870335
 51
166.93847901212973
  0
ARC
  8
_0-0_
  6
CONTINUOUS
 62
    8
 10
799.53796467632742
 20
879.58231072296428
 40
32.3764845418495
 50
11.040160965085239
 51
168.95983903491478
  0
ARC
  8
_0-0_
  6
CONTINUOUS
 62
    7
 10
742.03796467632742
 20
782.08629567012235
 40
5
 50
180
 51
270
  0
LINE
  8
_0-0_
  6
CONTINUOUS
 62
    7
 10
857.03796467632742
 20
777.08629567012235
 11
742.03796467632742
 21
777.08629567012235
  0
ARC
  8
_0-0_
  6
CONTINUOUS
 62
    7
 10
857.03796467632742
 20
782.08629567012235
 40
5
 50
270
 51
0.0000000000000381
  0
LINE
  8
_0-0_
  6
CONTINUOUS
 62
    7
 10
737.03796467632742
 20
782.08629567012235
 11
737.03796467632742
 21
884.09260039177479
  0
LINE
  8
_0-0_
  6
CONTINUOUS
 62
    7
 10
862.03796467632742
 20
782.08629567012235
 11
862.03796467632742
 21
884.09260039177479
  0
LINE
  8
_0-0_
  6
CONTINUOUS
 62
    7
 10
737.03796188775971
 20
629.95816759479465
 11
862.03796561305012
 21
629.95816759479465
  0
LINE
  8
_0-0_
  6
CONTINUOUS
 62
    7
 10
777.03796471898033
 20
668.65933306229533
 11
757.03796516601517
 21
668.65933306229533
  0
LINE
  8
_0-0_
  6
CONTINUOUS
 62
    7
 10
842.03796606008484
 20
668.65933306229533
 11
822.03796464447453
 21
668.65933306229533
  0
LINE
  8
_0-0_
  6
CONTINUOUS
 62
    7
 10
757.03796516601517
 20
666.45933307421626
 11
747.5379645401664
 21
666.45933307421626
  0
LINE
  8
_0-0_
  6
CONTINUOUS
 62
    7
 10
747.5379645401664
 20
666.45933307421626
 11
735.53796629850342
 21
666.45933307421626
  0
LINE
  8
_0-0_
  6
CONTINUOUS
 62
    7
 10
735.53796629850342
 20
658.45933176291408
 11
737.03796188775971
 21
658.45933176291408
  0
LINE
  8
_0-0_
  6
CONTINUOUS
 62
    7
 10
863.5379649275967
 20
666.45933307421626
 11
851.53796296064331
 21
666.45933307421626
  0
LINE
  8
_0-0_
  6
CONTINUOUS
 62
    7
 10
862.03796561305012
 20
658.45933176291408
 11
863.5379649275967
 21
658.45933176291408
  0
LINE
  8
_0-0_
  6
CONTINUOUS
 62
    7
 10
851.53796296064331
 20
666.45933307421626
 11
842.03796606008484
 21
666.45933307421626
  0
LINE
  8
_0-0_
  6
CONTINUOUS
 62
    7
 10
778.03796488289311
 20
668.45933340204181
 11
777.03796471898033
 21
668.45933340204181
  0
LINE
  8
_0-0_
  6
CONTINUOUS
 62
    7
 10
777.03796471898033
 20
656.45933516037883
 11
778.03796488289311
 21
656.45933516037883
  0
LINE
  8
_0-0_
  6
CONTINUOUS
 62
    7
 10
821.03796448056175
 20
656.45933516037883
 11
822.03796464447453
 21
656.45933516037883
  0
LINE
  8
_0-0_
  6
CONTINUOUS
 62
    7
 10
822.03796464447453
 20
668.45933340204181
 11
821.03796448056175
 21
668.45933340204181
  0
ARC
  8
_0-0_
  6
CONTINUOUS
 62
    7
 10
789.00196652748116
 20
680.48332243811751
 40
6.0000000000000115
 50
6.1215574631631631
 51
84.874762331413862
  0
ARC
  8
_0-0_
  6
CONTINUOUS
 62
    7
 10
810.07396282517357
 20
680.48332243811751
 40
6.0000000000000249
 50
95.125237668586138
 51
173.87844253683684
  0
ARC
  8
_0-0_
  6
CONTINUOUS
 62
    7
 10
695.53796467632742
 20
670.45933331364586
 40
100
 50
0
 51
6.1215574631633558
  0
ARC
  8
_0-0_
  6
CONTINUOUS
 62
    7
 10
903.53796467632731
 20
670.45933331364586
 40
99.999999999999986
 50
173.87844253683667
 51
180.00000000000003
  0
LINE
  8
_0-0_
  6
CONTINUOUS
 62
    7
 10
795.53796449173763
 20
670.45933372986735
 11
795.53796449173763
 21
669.43703956616343
  0
LINE
  8
_0-0_
  6
CONTINUOUS
 62
    7
 10
803.53796466799042
 20
669.43703956616343
 11
803.53796466799042
 21
670.45933372986735
  0
ARC
  8
_0-0_
  6
CONTINUOUS
 62
    7
 10
820.03796467632742
 20
654.45933331364586
 40
1.0000000000000346
 50
258.28929209331091
 51
0.0000000000000254
  0
ARC
  8
_0-0_
  6
CONTINUOUS
 62
    7
 10
820.03796467632742
 20
670.45933331364586
 40
1
 50
0
 51
101.71070790669108
  0
LINE
  8
_0-0_
  6
CONTINUOUS
 62
    7
 10
821.03796448056175
 20
654.45933483255328
 11
821.03796448056175
 21
670.45933372986735
  0
ARC
  8
_0-0_
  6
CONTINUOUS
 62
    7
 10
779.03796467632731
 20
654.45933331364597
 40
1.0000000000000284
 50
180
 51
281.71070790669268
  0
ARC
  8
_0-0_
  6
CONTINUOUS
 62
    7
 10
779.03796467632731
 20
670.45933331364586
 40
0.9999999999999905
 50
78.289292093306969
 51
179.99999999999835
  0
LINE
  8
_0-0_
  6
CONTINUOUS
 62
    7
 10
778.03796488289311
 20
670.45933372986735
 11
778.03796488289311
 21
654.45933483255328
  0
ARC
  8
_0-0_
  6
CONTINUOUS
 62
    7
 10
799.53796467632719
 20
555.56165892238403
 40
100.00000000000017
 50
78.289292093308973
 51
101.71070790669091
  0
ARC
  8
_0-0_
  6
CONTINUOUS
 62
    7
 10
799.53796467632742
 20
769.3570077049078
 40
100.00000000000013
 50
258.28929209330977
 51
267.71184130746082
  0
ARC
  8
_0-0_
  6
CONTINUOUS
 62
    7
 10
799.53796467632742
 20
769.3570077049078
 40
100.00000000000011
 50
272.28823768618849
 51
281.71070790669177
  0
ARC
  8
_0-0_
  6
CONTINUOUS
 62
    7
 10
831.53796467632742
 20
696.95933331364586
 40
0.5000000000000085
 50
318.84822781470422
 51
90.000000000000028
  0
ARC
  8
_0-0_
  6
CONTINUOUS
 62
    7
 10
767.53796467632742
 20
696.95933331364586
 40
0.5
 50
90
 51
221.15177218529334
  0
ARC
  8
_0-0_
  6
CONTINUOUS
 62
    7
 10
841.32656276440878
 20
688.40460669790821
 40
12.499999999999998
 50
138.84822781466733
 51
177.64500408483394
  0
ARC
  8
_0-0_
  6
CONTINUOUS
 62
    7
 10
757.74936658824606
 20
688.40460669790821
 40
12.500000000000005
 50
2.3549959151660871
 51
41.151772185332675
  0
ARC
  8
_0-0_
  6
CONTINUOUS
 62
    7
 10
827.83796467632749
 20
688.95933331364586
 40
1
 50
270
 51
357.64500408483553
  0
ARC
  8
_0-0_
  6
CONTINUOUS
 62
    7
 10
771.23796467632735
 20
688.95933331364586
 40
1.0000000000000344
 50
182.354995915166
 51
270
  0
LINE
  8
_0-0_
  6
CONTINUOUS
 62
    7
 10
771.23796339575722
 20
687.95933333871187
 11
827.83796410505249
 21
687.95933333871187
  0
LINE
  8
_0-0_
  6
CONTINUOUS
 62
    7
 10
775.64971852545216
 20
687.95933333871187
 11
776.75808365885689
 21
687.51351294753374
  0
LINE
  8
_0-0_
  6
CONTINUOUS
 62
    7
 10
822.31784570459797
 20
687.51351294753374
 11
823.4262108380027
 21
687.95933333871187
  0
ARC
  8
_0-0_
  6
CONTINUOUS
 62
    7
 10
822.03796467632742
 20
688.20933331364586
 40
0.75
 50
270
 51
291.91160538189911
  0
ARC
  8
_0-0_
  6
CONTINUOUS
 62
    7
 10
777.03796467632742
 20
688.20933331364586
 40
0.7500000000000032
 50
248.08839461810294
 51
270
  0
LINE
  8
_0-0_
  6
CONTINUOUS
 62
    7
 10
777.03796471898033
 20
687.45933325675549
 11
822.03796464447453
 21
687.45933325675549
  0
LINE
  8
_0-0_
  6
CONTINUOUS
 62
    7
 10
781.11633803193047
 20
687.45933325675549
 11
782.76811684910729
 21
686.99643054691376
  0
LINE
  8
_0-0_
  6
CONTINUOUS
 62
    7
 10
816.30781344567015
 20
686.99643054691376
 11
817.95959133152439
 21
687.45933325675549
  0
ARC
  8
_0-0_
  6
CONTINUOUS
 62
    7
 10
816.03796467632742
 20
687.95933331364586
 40
1
 50
270
 51
285.65526611793803
  0
ARC
  8
_0-0_
  6
CONTINUOUS
 62
    7
 10
783.03796467632742
 20
687.95933331364586
 40
0.9999999999999892
 50
254.34473388206357
 51
270
  0
LINE
  8
_0-0_
  6
CONTINUOUS
 62
    7
 10
783.03796383981182
 20
686.9593331747991
 11
816.03796459232046
 21
686.9593331747991
  0
LINE
  8
_0-0_
  6
CONTINUOUS
 62
    7
 10
787.60744310413077
 20
686.9593331747991
 11
789.03796482328846
 21
686.45933309284271
  0
LINE
  8
_0-0_
  6
CONTINUOUS
 62
    7
 10
810.0379645401664
 20
686.45933309284271
 11
811.4684862593241
 21
686.9593331747991
  0
LINE
  8
_0-0_
  6
CONTINUOUS
 62
    7
 10
737.03796188775971
 20
629.95816759479465
 11
737.03796188775971
 21
658.20524088752688
  0
LINE
  8
_0-0_
  6
CONTINUOUS
 62
    7
 10
777.03796471898033
 20
658.20524088752688
 11
777.03796471898033
 21
649.90617327106418
  0
LINE
  8
_0-0_
  6
CONTINUOUS
 62
    7
 10
777.03796471898033
 20
649.90617327106418
 11
777.0470956083293
 21
649.88268369944444
  0
ARC
  8
_0-0_
  6
CONTINUOUS
 62
    7
 10
780.17198498010873
 20
651.09739376496009
 40
3.3526786498448455
 50
201.24214848163206
 51
201.75354072367321
  0
ARC
  8
_0-0_
  6
CONTINUOUS
 62
    7
 10
778.99005261086097
 20
650.62576589552907
 40
2.0801233572545197
 50
201.75354072349324
 51
202.57777821870008
  0
LINE
  8
_0-0_
  6
CONTINUOUS
 62
    7
 10
777.06935158424403
 20
649.82712908962276
 11
777.06936345507324
 21
649.82710054058305
  0
ARC
  8
_0-0_
  6
CONTINUOUS
 62
    7
 10
778.4240822055358
 20
650.3903991699807
 40
1.4671633306268854
 50
202.57777821879745
 51
203.74876471606819
  0
LINE
  8
_0-0_
  6
CONTINUOUS
 62
    7
 10
777.08115802801694
 20
649.79953294809002
 11
777.08117793177735
 21
649.79948771070781
  0
ARC
  8
_0-0_
  6
CONTINUOUS
 62
    7
 10
778.12641885761082
 20
650.25937782747724
 40
1.1419402403538741
 50
203.74876471603568
 51
205.25817115993473
  0
LINE
  8
_0-0_
  6
CONTINUOUS
 62
    7
 10
777.09365461131381
 20
649.77211452687891
 11
777.09368595438957
 21
649.77204809460716
  0
ARC
  8
_0-0_
  6
CONTINUOUS
 62
    7
 10
777.94685639116562
 20
650.17457814392674
 40
0.9433611369957112
 50
205.25817115999067
 51
207.09418144172042
  0
LINE
  8
_0-0_
  6
CONTINUOUS
 62
    7
 10
777.10702059024254
 20
649.74492006791547
 11
777.10706818366396
 21
649.74482703891999
  0
ARC
  8
_0-0_
  6
CONTINUOUS
 62
    7
 10
777.83069685371299
 20
650.11503381241107
 40
0.8128293223399318
 50
207.09418144188842
 51
209.23969899846094
  0
LINE
  8
_0-0_
  6
CONTINUOUS
 62
    7
 10
777.12143512201794
 20
649.71799564899527
 11
777.12150538992239
 21
649.71787012369282
  0
ARC
  8
_0-0_
  6
CONTINUOUS
 62
    7
 10
777.75336660835023
 20
650.07158019500878
 40
0.7241266559818739
 50
209.23969899858412
 51
211.67071542100823
  0
LINE
  8
_0-0_
  6
CONTINUOUS
 62
    7
 10
777.13707720294917
 20
649.69138710894072
 11
777.13725396068287
 21
649.69110058632214
  0
ARC
  8
_0-0_
  6
CONTINUOUS
 62
    7
 10
777.69652862639487
 20
650.03612089537353
 40
0.6571355760915099
 50
211.67071542099583
 51
214.35795034287281
  0
LINE
  8
_0-0_
  6
CONTINUOUS
 62
    7
 10
777.15404486891225
 20
649.66525900971703
 11
777.15453777826133
 21
649.66453799921112
  0
ARC
  8
_0-0_
  6
CONTINUOUS
 62
    7
 10
777.65334858895278
 20
650.00554344921557
 40
0.6042325229539872
 50
214.35795034309831
 51
217.11483022007184
  0
LINE
  8
_0-0_
  6
CONTINUOUS
 62
    7
 10
777.17151679557298
 20
649.6409408372067
 11
777.17181405286226
 21
649.64054800400118
  0
ARC
  8
_0-0_
  6
CONTINUOUS
 62
    7
 10
777.69188677431066
 20
650.03408756548231
 40
0.6521878732739089
 50
217.11483022002034
 51
219.58255226556301
  0
ARC
  8
_0-0_
  6
CONTINUOUS
 62
    7
 10
777.70335191679555
 20
650.0435664769077
 40
0.6670640036178038
 50
219.5825522655561
 51
221.9952583266784
  0
LINE
  8
_0-0_
  6
CONTINUOUS
 62
    7
 10
777.20758981674976
 20
649.59725456234469
 11
777.20776166223106
 21
649.59706367683646
  0
ARC
  8
_0-0_
  6
CONTINUOUS
 62
    7
 10
777.72295823133641
 20
650.06087155386808
 40
0.6932137128004626
 50
221.99525832684563
 51
224.35941621156741
  0
LINE
  8
_0-0_
  6
CONTINUOUS
 62
    7
 10
777.2273325496235
 20
649.57620627221365
 11
777.22751734776818
 21
649.57601729497537
  0
ARC
  8
_0-0_
  6
CONTINUOUS
 62
    7
 10
777.74222481943764
 20
650.07934238673613
 40
0.7199027221703884
 50
224.35941621165554
 51
226.67800690275212
  0
LINE
  8
_0-0_
  6
CONTINUOUS
 62
    7
 10
777.24830124676464
 20
649.55560635231973
 11
777.24849889191592
 21
649.55541995766123
  0
ARC
  8
_0-0_
  6
CONTINUOUS
 62
    7
 10
777.7610909723021
 20
650.09895130199754
 40
0.7471124166754638
 50
226.67800690271665
 51
228.95382972917679
  0
LINE
  8
_0-0_
  6
CONTINUOUS
 62
    7
 10
777.27048691908919
 20
649.53549356079441
 11
777.27069732663995
 21
649.53531035841797
  0
ARC
  8
_0-0_
  6
CONTINUOUS
 62
    7
 10
777.77952141104481
 20
650.11969376779166
 40
0.7748586438969069
 50
228.95382972922556
 51
231.18942325806043
  0
LINE
  8
_0-0_
  6
CONTINUOUS
 62
    7
 10
777.29388056475534
 20
649.5159066476599
 11
777.29410368285664
 21
649.51572718827776
  0
ARC
  8
_0-0_
  6
CONTINUOUS
 62
    7
 10
777.79742986512838
 20
650.14150211722335
 40
0.8030762774836954
 50
231.18942325797687
 51
233.38732630158253
  0
LINE
  8
_0-0_
  6
CONTINUOUS
 62
    7
 10
777.31847321227758
 20
649.4968843761186
 11
777.31870900506851
 21
649.49670918000049
  0
ARC
  8
_0-0_
  6
CONTINUOUS
 62
    7
 10
777.81499301313863
 20
650.16464744607731
 40
0.8321294033717983
 50
233.38732630180169
 51
235.54894769199581
  0
LINE
  8
_0-0_
  6
CONTINUOUS
 62
    7
 10
777.34425576149556
 20
649.47846541201386
 11
777.34453901081679
 21
649.47827109621949
  0
ARC
  8
_0-0_
  6
CONTINUOUS
 62
    7
 10
777.83011049199752
 20
650.18607661931151
 40
0.8583520966686993
 50
235.54894769186447
 51
237.67914774361535
  0
LINE
  8
_0-0_
  6
CONTINUOUS
 62
    7
 10
777.37118401232237
 20
649.4607113264359
 11
777.37128730363781
 21
649.46064597574946
  0
ARC
  8
_0-0_
  6
CONTINUOUS
 62
    7
 10
777.85711681799444
 20
650.22853339034714
 40
0.9086701263480272
 50
237.67914774356512
 51
239.67600252944951
  0
ARC
  8
_0-0_
  6
CONTINUOUS
 62
    7
 10
777.87435728476964
 20
650.25800856601086
 40
0.9428171566001059
 50
239.67600252955472
 51
241.60054891704715
  0
LINE
  8
_0-0_
  6
CONTINUOUS
 62
    7
 10
777.42593856587587
 20
649.42865650366025
 11
777.42611566184348
 21
649.42856075042039
  0
ARC
  8
_0-0_
  6
CONTINUOUS
 62
    7
 10
777.89119876195798
 20
650.28873364685251
 40
0.9778546424538717
 50
241.60054891710183
 51
243.47973552910511
  0
LINE
  8
_0-0_
  6
CONTINUOUS
 62
    7
 10
777.45457267380277
 20
649.41377229861428
 11
777.45479683631004
 21
649.41366043630308
  0
ARC
  8
_0-0_
  6
CONTINUOUS
 62
    7
 10
777.90699055525783
 20
650.31981798559286
 40
1.0127194397219388
 50
243.47973552929568
 51
245.32257865994853
  0
LINE
  8
_0-0_
  6
CONTINUOUS
 62
    7
 10
777.48417105062742
 20
649.39958740030738
 11
777.48438528804274
 21
649.39948896437272
  0
ARC
  8
_0-0_
  6
CONTINUOUS
 62
    7
 10
777.91994848314982
 20
650.3474551049386
 40
1.043242589521415
 50
245.32257865985164
 51
247.13740378704591
  0
LINE
  8
_0-0_
  6
CONTINUOUS
 62
    7
 10
777.51462526446232
 20
649.38617044939474
 11
777.51482876870182
 21
649.3860846423521
  0
ARC
  8
_0-0_
  6
CONTINUOUS
 62
    7
 10
777.9302307212597
 20
650.37127252320352
 40
1.0691837740843877
 50
247.13740378713334
 51
248.93186837421069
  0
LINE
  8
_0-0_
  6
CONTINUOUS
 62
    7
 10
777.54588285166437
 20
649.37355981009273
 11
777.54607502356214
 21
649.37348577990497
  0
ARC
  8
_0-0_
  6
CONTINUOUS
 62
    7
 10
777.93800950463799
 20
650.39089226347858
 40
1.0902883060337125
 50
248.93186837411417
 51
250.71324267445021
  0
LINE
  8
_0-0_
  6
CONTINUOUS
 62
    7
 10
777.57789137140026
 20
649.36179386177582
 11
777.57807179678696
 21
649.36173072451572
  0
ARC
  8
_0-0_
  6
CONTINUOUS
 62
    7
 10
777.9436811599187
 20
650.40652124329768
 40
1.1069134720231324
 50
250.71324267454116
 51
252.48765021249591
  0
LINE
  8
_0-0_
  6
CONTINUOUS
 62
    7
 10
777.61059832063518
 20
649.35091087165426
 11
777.61150021116327
 21
649.35062629292531
  0
ARC
  8
_0-0_
  6
CONTINUOUS
 62
    7
 10
777.93280030936273
 20
650.36889465162767
 40
1.0677566218185903
 50
252.48765021248698
 51
254.26356203223747
  0
LINE
  8
_0-0_
  6
CONTINUOUS
 62
    7
 10
777.64321123088553
 20
649.34115812456253
 11
777.64464366253753
 21
649.34075450305909
  0
ARC
  8
_0-0_
  6
CONTINUOUS
 62
    7
 10
777.93848093565373
 20
650.38356765120159
 40
1.0834203270250518
 50
254.2635620322194
 51
255.85643034006182
  0
LINE
  8
_0-0_
  6
CONTINUOUS
 62
    7
 10
777.67374450816396
 20
649.33298960604213
 11
777.67666497578057
 21
649.33225367388843
  0
ARC
  8
_0-0_
  6
CONTINUOUS
 62
    7
 10
777.92707315846746
 20
650.32597162027298
 40
1.0247827159565783
 50
255.8564303400222
 51
257.20371166550871
  0
ARC
  8
_0-0_
  6
CONTINUOUS
 62
    7
 10
778.06591661585276
 20
650.93727667845542
 40
1.6516570094303193
 50
257.20371166552809
 51
258.0396659442427
  0
LINE
  8
_0-0_
  6
CONTINUOUS
 62
    7
 10
777.72363635391275
 20
649.32147498917345
 11
777.72610450433172
 21
649.32095215324784
  0
ARC
  8
_0-0_
  6
CONTINUOUS
 62
    7
 10
777.95887057565778
 20
650.41977044070984
 40
1.1232015281424566
 50
258.03966594426987
 51
259.52626102190357
  0
LINE
  8
_0-0_
  6
CONTINUOUS
 62
    7
 10
777.75468956553573
 20
649.31528332538119
 11
777.75958743208912
 21
649.31437788128278
  0
ARC
  8
_0-0_
  6
CONTINUOUS
 62
    7
 10
778.08154330615628
 20
651.05595078466354
 40
1.771082088057043
 50
259.52626102196075
 51
260.79131393946932
  0
LINE
  8
_0-0_
  6
CONTINUOUS
 62
    7
 10
777.7981155588692
 20
649.30769437477852
 11
777.79826820707626
 21
649.30766962741461
  0
ARC
  8
_0-0_
  6
CONTINUOUS
 62
    7
 10
778.14071332687649
 20
651.4199606132189
 40
2.1398695915370545
 50
260.79131393941884
 51
261.84664008107228
  0
LINE
  8
_0-0_
  6
CONTINUOUS
 62
    7
 10
777.83723020390005
 20
649.30172081025671
 11
777.83736721544938
 21
649.30170118042406
  0
ARC
  8
_0-0_
  6
CONTINUOUS
 62
    7
 10
778.21530346807947
 20
651.93960606768405
 40
2.6648410844330357
 50
261.8466400810434
 51
262.7000278582741
  0
LINE
  8
_0-0_
  6
CONTINUOUS
 62
    7
 10
777.87669776389419
 20
649.29636484101263
 11
777.87681517456076
 21
649.29634980041737
  0
ARC
  8
_0-0_
  6
CONTINUOUS
 62
    7
 10
778.31891570763014
 20
652.74749767210528
 40
3.4793497256809567
 50
262.7000278582604
 51
263.35754266478722
  0
LINE
  8
_0-0_
  6
CONTINUOUS
 62
    7
 10
777.91644809266802
 20
649.29150370039429
 11
777.91654276057534
 21
649.29149267584762
  0
ARC
  8
_0-0_
  6
CONTINUOUS
 62
    7
 10
778.48349893691102
 20
654.15995178858293
 40
4.9013603660883289
 50
263.35754266479671
 51
263.82652627714606
  0
LINE
  8
_0-0_
  6
CONTINUOUS
 62
    7
 10
777.95641114647799
 20
649.2870151073364
 11
777.95648067830496
 21
649.28700758633227
  0
ARC
  8
_0-0_
  6
CONTINUOUS
 62
    7
 10
778.7532226289627
 20
656.65290212474918
 40
7.4088595672355488
 50
263.82652627709683
 51
264.1378669177858
  0
LINE
  8
_0-0_
  6
CONTINUOUS
 62
    7
 10
777.99651792050258
 20
649.2827869240748
 11
778.03670921026742
 21
649.27866040266008
  0
LINE
  8
_0-0_
  6
CONTINUOUS
 62
    7
 10
778.03670921026742
 20
649.27866040266008
 11
778.03796488289311
 21
649.27853263628901
  0
LINE
  8
_0-0_
  6
CONTINUOUS
 62
    7
 10
862.03796561305012
 20
658.20524088752688
 11
862.03796561305012
 21
629.95816759479465
  0
LINE
  8
_0-0_
  6
CONTINUOUS
 62
    7
 10
777.03796471898033
 20
668.65933306229533
 11
777.03796471898033
 21
658.20524088752688
  0
LINE
  8
_0-0_
  6
CONTINUOUS
 62
    7
 10
737.03796188775971
 20
658.20524088752688
 11
737.03796188775971
 21
659.6918440581602
  0
LINE
  8
_0-0_
  6
CONTINUOUS
 62
    7
 10
737.03796188775971
 20
659.6918440581602
 11
737.03957615239142
 21
659.70854917284453
  0
ARC
  8
_0-0_
  6
CONTINUOUS
 62
    7
 10
781.05667605239989
 20
655.45504664386976
 40
44.222136621508085
 50
174.29058645741696
 51
174.48047712306266
  0
LINE
  8
_0-0_
  6
CONTINUOUS
 62
    7
 10
737.05391490089301
 20
659.85440778098496
 11
737.05519586871742
 21
659.86722012338328
  0
ARC
  8
_0-0_
  6
CONTINUOUS
 62
    7
 10
758.39034047763334
 20
657.73414929803698
 40
21.441510828980665
 50
173.96776151907423
 51
174.29058645743137
  0
ARC
  8
_0-0_
  6
CONTINUOUS
 62
    7
 10
751.62174933893721
 20
658.44940766057925
 40
14.635232805859452
 50
173.49480468191572
 51
173.96776151908131
  0
LINE
  8
_0-0_
  6
CONTINUOUS
 62
    7
 10
737.0807442085071
 20
660.1074815668062
 11
737.08078724363668
 21
660.10785897702738
  0
ARC
  8
_0-0_
  6
CONTINUOUS
 62
    7
 10
748.22115524658886
 20
658.83755109076071
 40
11.212559090908378
 50
172.87359656052826
 51
173.49480468192644
  0
LINE
  8
_0-0_
  6
CONTINUOUS
 62
    7
 10
737.09521459159885
 20
660.22856723328186
 11
737.09864767230522
 21
660.25602647766766
  0
ARC
  8
_0-0_
  6
CONTINUOUS
 62
    7
 10
743.96715560260611
 20
659.39729410596635
 40
6.9219811091055998
 50
171.40928398375138
 51
172.87359656054008
  0
LINE
  8
_0-0_
  6
CONTINUOUS
 62
    7
 10
737.12283498089755
 20
660.43126591509372
 11
737.12741242352979
 21
660.46156604970656
  0
ARC
  8
_0-0_
  6
CONTINUOUS
 62
    7
 10
745.65707607257889
 20
659.17298939734133
 40
8.6264472266935819
 50
169.93753021866758
 51
171.40928398376977
  0
LINE
  8
_0-0_
  6
CONTINUOUS
 62
    7
 10
737.16332225024394
 20
660.68021790042235
 11
737.16413563568085
 21
660.68480160863237
  0
ARC
  8
_0-0_
  6
CONTINUOUS
 62
    7
 10
745.62999479600785
 20
659.18252305236251
 40
8.5981167811980921
 50
168.5229615691872
 51
169.93753021865706
  0
LINE
  8
_0-0_
  6
CONTINUOUS
 62
    7
 10
737.20380145580498
 20
660.89333513340534
 11
737.20401941852924
 21
660.89440865636925
  0
ARC
  8
_0-0_
  6
CONTINUOUS
 62
    7
 10
745.0123698560717
 20
659.30904030292368
 40
7.9676677498233826
 50
167.01222836604629
 51
168.52296156918058
  0
LINE
  8
_0-0_
  6
CONTINUOUS
 62
    7
 10
737.24853056170548
 20
661.09971860536405
 11
737.25165180806596
 21
661.11325138515349
  0
ARC
  8
_0-0_
  6
CONTINUOUS
 62
    7
 10
743.11535347229972
 20
659.7608272887727
 40
6.0176447339145263
 50
165.27642237092141
 51
167.01222836604356
  0
LINE
  8
_0-0_
  6
CONTINUOUS
 62
    7
 10
737.29530864827109
 20
661.290247567802
 11
737.30265196621804
 21
661.3181917765944
  0
ARC
  8
_0-0_
  6
CONTINUOUS
 62
    7
 10
742.23138778692805
 20
660.02299410336434
 40
5.0960743521941643
 50
163.87632144348342
 51
165.27642237091246
  0
ARC
  8
_0-0_
  6
CONTINUOUS
 62
    7
 10
744.57476268470361
 20
659.3455644440902
 40
7.535401483759026
 50
162.92942948171665
 51
163.87632144346978
  0
LINE
  8
_0-0_
  6
CONTINUOUS
 62
    7
 10
737.3713414516958
 20
661.55757666405907
 11
737.37407889454073
 21
661.56649115093887
  0
ARC
  8
_0-0_
  6
CONTINUOUS
 62
    7
 10
740.87223876391681
 20
660.49228319777762
 40
3.6593777064342343
 50
160.68781052409014
 51
162.92942948171088
  0
LINE
  8
_0-0_
  6
CONTINUOUS
 62
    7
 10
737.4187719925244
 20
661.70249493843983
 11
737.41881319573952
 21
661.70261251615739
  0
ARC
  8
_0-0_
  6
CONTINUOUS
 62
    7
 10
743.40579078028281
 20
659.60457276551426
 40
6.3439476190383788
 50
159.39241779670013
 51
160.687810524063
  0
LINE
  8
_0-0_
  6
CONTINUOUS
 62
    7
 10
737.46777354825758
 20
661.83742357675851
 11
737.46835281450524
 21
661.8389640706165
  0
ARC
  8
_0-0_
  6
CONTINUOUS
 62
    7
 10
740.33953271417408
 20
660.75928398107681
 40
3.0674717785190104
 50
156.65086828778374
 51
159.39170348365172
  0
LINE
  8
_0-0_
  6
CONTINUOUS
 62
    7
 10
737.52326583322122
 20
661.97502407141644
 11
737.5238123692609
 21
661.97629012438279
  0
ARC
  8
_0-0_
  6
CONTINUOUS
 62
    7
 10
743.76683807022994
 20
659.28126974793292
 40
6.7998900529670205
 50
155.43718664492334
 51
156.65086828778215
  0
ARC
  8
_0-0_
  6
CONTINUOUS
 62
    7
 10
741.14105723252783
 20
660.4813852543715
 40
3.9128496589929105
 50
153.32816657950056
 51
155.43718664491689
  0
LINE
  8
_0-0_
  6
CONTINUOUS
 62
    7
 10
737.64456543291658
 20
662.23778428338869
 11
737.65003679328743
 21
662.24867620848852
  0
ARC
  8
_0-0_
  6
CONTINUOUS
 62
    7
 10
743.94794713386307
 20
659.08503555351945
 40
7.0478576072238441
 50
151.95902729732666
 51
153.3281665795183
  0
LINE
  8
_0-0_
  6
CONTINUOUS
 62
    7
 10
737.72742594453712
 20
662.39825347343503
 11
737.72879656073599
 21
662.40082678654426
  0
ARC
  8
_0-0_
  6
CONTINUOUS
 62
    7
 10
742.17568731886695
 20
660.03229243076976
 40
5.0383323043677155
 50
149.97760535354672
 51
151.95902729733479
  0
LINE
  8
_0-0_
  6
CONTINUOUS
 62
    7
 10
737.81334852592488
 20
662.55316384058585
 11
737.82754064776293
 21
662.57772314313775
  0
ARC
  8
_0-0_
  6
CONTINUOUS
 62
    7
 10
742.07592235232471
 20
660.12270429078808
 40
4.9067162821023098
 50
147.83991252040954
 51
149.9776053535613
  0
LINE
  8
_0-0_
  6
CONTINUOUS
 62
    7
 10
737.92207218003489
 20
662.73448403249972
 11
737.92254998372698
 21
662.73524394533501
  0
ARC
  8
_0-0_
  6
CONTINUOUS
 62
    7
 10
743.29963694385106
 20
659.35434039576319
 40
6.3516590736786256
 50
146.20463872352826
 51
147.83991252039067
  0
ARC
  8
_0-0_
  6
CONTINUOUS
 62
    7
 10
741.94582682108478
 20
660.26047856289961
 40
4.7225831925589823
 50
144.00539077529479
 51
146.20463872355606
  0
LINE
  8
_0-0_
  6
CONTINUOUS
 62
    7
 10
738.12491560569515
 20
663.03598383126962
 11
738.13261662148318
 21
663.04658546763835
  0
ARC
  8
_0-0_
  6
CONTINUOUS
 62
    7
 10
742.38744745177883
 20
659.95588151776803
 40
5.2589006741121596
 50
141.76657483121016
 51
144.00539077529567
  0
ARC
  8
_0-0_
  6
CONTINUOUS
 62
    7
 10
742.33146684422411
 20
659.99998681756256
 40
5.1876328279811892
 50
139.49700995868994
 51
141.76657483120908
  0
LINE
  8
_0-0_
  6
CONTINUOUS
 62
    7
 10
738.38693571982628
 20
663.3692906872966
 11
738.40041873572011
 21
663.38507560248991
  0
ARC
  8
_0-0_
  6
CONTINUOUS
 62
    7
 10
741.58758534272295
 20
660.66269049668131
 40
4.1915882008042828
 50
136.58593290788167
 51
139.49700995869659
  0
LINE
  8
_0-0_
  6
CONTINUOUS
 62
    7
 10
738.54279070286213
 20
663.54342603577493
 11
738.55519641088233
 21
663.55653825408547
  0
ARC
  8
_0-0_
  6
CONTINUOUS
 62
    7
 10
742.24877810903388
 20
660.06197348931698
 40
5.0847348658589739
 50
134.592678801337
 51
136.58593290787402
  0
ARC
  8
_0-0_
  6
CONTINUOUS
 62
    7
 10
741.93050481883881
 20
660.38480452853537
 40
4.6313941913828511
 50
132.40436177451747
 51
134.59267880132316
  0
LINE
  8
_0-0_
  6
CONTINUOUS
 62
    7
 10
738.8072843054199
 20
663.80464455118772
 11
738.80955072058794
 21
663.80671438904494
  0
ARC
  8
_0-0_
  6
CONTINUOUS
 62
    7
 10
741.95882104671455
 20
660.35847394733332
 40
4.6699320906065154
 50
130.16085280681369
 51
132.40538279708028
  0
ARC
  8
_0-0_
  6
CONTINUOUS
 62
    7
 10
741.87955776150943
 20
660.45251954840944
 40
4.5469392562452438
 50
127.85862570559715
 51
130.16182861527486
  0
LINE
  8
_0-0_
  6
CONTINUOUS
 62
    7
 10
739.08903189719422
 20
664.04245297405566
 11
739.10709862558929
 21
664.05649659740254
  0
ARC
  8
_0-0_
  6
CONTINUOUS
 62
    7
 10
741.14209491709858
 20
661.4385308220734
 40
3.3158640966196429
 50
125.49236959724784
 51
127.85862570562458
  0
ARC
  8
_0-0_
  6
CONTINUOUS
 62
    7
 10
742.96915958779164
 20
658.87635893129152
 40
6.462749876054243
 50
124.2781797331901
 51
125.49236959722347
  0
LINE
  8
_0-0_
  6
CONTINUOUS
 62
    7
 10
739.32926517887017
 20
664.21661216988809
 11
739.33561770038875
 21
664.22094202214885
  0
ARC
  8
_0-0_
  6
CONTINUOUS
 62
    7
 10
741.08339634143465
 20
661.65669715688023
 40
3.103237326913975
 50
121.46611539051172
 51
124.27817973318572
  0
LINE
  8
_0-0_
  6
CONTINUOUS
 62
    7
 10
739.46352438206509
 20
664.3036003931926
 11
739.48952938329876
 21
664.31951513148897
  0
ARC
  8
_0-0_
  6
CONTINUOUS
 62
    7
 10
741.82009625781404
 20
660.51132216480721
 40
4.4647369046868031
 50
119.1621292099465
 51
121.46611539051523
  0
ARC
  8
_0-0_
  6
CONTINUOUS
 62
    7
 10
741.87524425258346
 20
660.41231700320168
 40
4.5780652602276311
 50
116.91301589845096
 51
119.16105520314551
  0
ARC
  8
_0-0_
  6
CONTINUOUS
 62
    7
 10
741.92467071326814
 20
660.31494695531251
 40
4.6872618775825776
 50
114.71628648126045
 51
116.91301589841542
  0
LINE
  8
_0-0_
  6
CONTINUOUS
 62
    7
 10
739.9648079212235
 20
664.57280577699726
 11
739.96491066842179
 21
664.5728530708177
  0
ARC
  8
_0-0_
  6
CONTINUOUS
 62
    7
 10
741.9806344301669
 20
660.19363467049629
 40
4.82086051254106
 50
112.5777322100403
 51
114.71628648125697
  0
LINE
  8
_0-0_
  6
CONTINUOUS
 62
    7
 10
740.12973015918749
 20
664.64502203412212
 11
740.13076298534895
 21
664.64545148727848
  0
ARC
  8
_0-0_
  6
CONTINUOUS
 62
    7
 10
741.98027801018293
 20
660.19740523255484
 40
4.8172420855971181
 50
110.41097345490802
 51
112.57773221004187
  0
LINE
  8
_0-0_
  6
CONTINUOUS
 62
    7
 10
740.30025735690583
 20
664.71219779875435
 11
740.30132709550981
 21
664.7125958642074
  0
ARC
  8
_0-0_
  6
CONTINUOUS
 62
    7
 10
741.9891636902795
 20
660.17679917851626
 40
4.8396532876405907
 50
108.2272300401424
 51
110.41097345490495
  0
LINE
  8
_0-0_
  6
CONTINUOUS
 62
    7
 10
740.47538614943926
 20
664.77361563139084
 11
740.4974716868536
 21
664.78088861930712
  0
ARC
  8
_0-0_
  6
CONTINUOUS
 62
    7
 10
741.74421491189207
 20
660.99476740773275
 40
3.9861111998931187
 50
104.90628885563251
 51
108.22635243683099
  0
LINE
  8
_0-0_
  6
CONTINUOUS
 62
    7
 10
740.71883220207178
 20
664.84673739675327
 11
740.74910483725841
 21
664.85479588027977
  0
ARC
  8
_0-0_
  6
CONTINUOUS
 62
    7
 10
741.85154218838386
 20
660.7133611255922
 40
4.2856563021887899
 50
102.65451888501725
 51
104.90628885564843
  0
LINE
  8
_0-0_
  6
CONTINUOUS
 62
    7
 10
740.91267591724466
 20
664.89491347674209
 11
740.93390396014252
 21
664.89967971946862
  0
ARC
  8
_0-0_
  6
CONTINUOUS
 62
    7
 10
741.7701240011105
 20
661.17529640112821
 40
3.8171055865470254
 50
100.77932840189503
 51
102.65451888503578
  0
LINE
  8
_0-0_
  6
CONTINUOUS
 62
    7
 10
741.05622255534161
 20
664.92504836420221
 11
741.06948657173962
 21
664.92757365136163
  0
ARC
  8
_0-0_
  6
CONTINUOUS
 62
    7
 10
742.00704275317128
 20
660.0030800078016
 40
5.0129481583998032
 50
99.660024026653588
 51
100.77932840189092
  0
ARC
  8
_0-0_
  6
CONTINUOUS
 62
    7
 10
742.11109073910075
 20
659.39163374797636
 40
5.6331840097355919
 50
98.663363227837991
 51
99.65972912426345
  0
ARC
  8
_0-0_
  6
CONTINUOUS
 62
    7
 10
742.22749062655259
 20
658.6274400033202
 40
6.4061917793731276
 50
97.786285929273561
 51
98.663025962229725
  0
ARC
  8
_0-0_
  6
CONTINUOUS
 62
    7
 10
742.36484275681016
 20
657.62264760722132
 40
7.4203285381133375
 50
97.028428148789828
 51
97.78596232762402
  0
ARC
  8
_0-0_
  6
CONTINUOUS
 62
    7
 10
742.53463526539952
 20
656.24510408810784
 40
8.8082967083292125
 50
96.389439933032165
 51
97.028154401988601
  0
ARC
  8
_0-0_
  6
CONTINUOUS
 62
    7
 10
742.75845693597932
 20
654.24601421865714
 40
10.819877292131844
 50
95.868836126872608
 51
96.389234115835066
  0
ARC
  8
_0-0_
  6
CONTINUOUS
 62
    7
 10
743.08366493096196
 20
651.08189070762648
 40
14.000669305486598
 50
95.466237255343586
 51
95.868701479317949
  0
ARC
  8
_0-0_
  6
CONTINUOUS
 62
    7
 10
743.51021510157329
 20
646.62446785583961
 40
18.478454866193982
 50
95.161197523839405
 51
95.46623725532676
  0
LINE
  8
_0-0_
  6
CONTINUOUS
 62
    7
 10
741.84792812055662
 20
665.02800274005995
 11
741.86940546967298
 21
665.0299426672558
  0
ARC
  8
_0-0_
  6
CONTINUOUS
 62
    7
 10
745.23926447935378
 20
627.72151244599331
 40
37.46031120158964
 50
94.944760223571592
 51
95.161197523888248
  0
LINE
  8
_0-0_
  6
CONTINUOUS
 62
    7
 10
742.01036339675022
 20
665.04240623377257
 11
742.0318330672892
 21
665.0442637306171
  0
LINE
  8
_0-0_
  6
CONTINUOUS
 62
    7
 10
742.0318330672892
 20
665.0442637306171
 11
742.03796456996872
 21
665.04479564440669
  0
LINE
  8
_0-0_
  6
CONTINUOUS
 62
    7
 10
822.03796464447453
 20
658.20524088752688
 11
822.03796464447453
 21
668.65933306229533
  0
LINE
  8
_0-0_
  6
CONTINUOUS
 62
    7
 10
862.03796561305012
 20
659.6918440581602
 11
862.03796561305012
 21
658.20524088752688
  0
LINE
  8
_0-0_
  6
CONTINUOUS
 62
    7
 10
862.03796561305012
 20
659.6918440581602
 11
862.03796561305012
 21
660.22748864901484
  0
LINE
  8
_0-0_
  6
CONTINUOUS
 62
    7
 10
737.03796188775971
 20
659.6918440581602
 11
737.03796188775971
 21
660.22748864901484
  0
LINE
  8
_0-0_
  6
CONTINUOUS
 62
    7
 10
777.03796471898033
 20
650.84020040643634
 11
777.04710575861395
 21
650.81701159086322
  0
ARC
  8
_0-0_
  6
CONTINUOUS
 62
    7
 10
780.11033223565244
 20
652.02453659552793
 40
3.2926392281146808
 50
201.5143771359144
 51
202.02940300557276
  0
ARC
  8
_0-0_
  6
CONTINUOUS
 62
    7
 10
778.95192324571428
 20
651.55581732855944
 40
2.0429956232429709
 50
202.02940300541496
 51
202.85944694823857
  0
LINE
  8
_0-0_
  6
CONTINUOUS
 62
    7
 10
777.06938329209129
 20
650.76217103479701
 11
777.06939540047472
 21
650.76214231354447
  0
ARC
  8
_0-0_
  6
CONTINUOUS
 62
    7
 10
778.39737945841603
 20
651.32199743042065
 40
1.4411729285685162
 50
202.8594469482197
 51
204.03856815280167
  0
LINE
  8
_0-0_
  6
CONTINUOUS
 62
    7
 10
777.08119735458308
 20
650.73493348195461
 11
777.08121763888698
 21
650.73488800507266
  0
ARC
  8
_0-0_
  6
CONTINUOUS
 62
    7
 10
778.10585407893848
 20
651.19191223635994
 40
1.1219407213685906
 50
204.038568152783
 51
205.5582417838126
  0
LINE
  8
_0-0_
  6
CONTINUOUS
 62
    7
 10
777.09369839983628
 20
650.70787518868053
 11
777.09373031035216
 21
650.7078084615365
  0
ARC
  8
_0-0_
  6
CONTINUOUS
 62
    7
 10
777.93011633923538
 20
651.10778825960529
 40
0.9271059422603071
 50
205.55824178384296
 51
207.40637022239986
  0
LINE
  8
_0-0_
  6
CONTINUOUS
 62
    7
 10
777.10706486109734
 20
650.68104279388933
 11
777.10711326525734
 21
650.68094943820404
  0
ARC
  8
_0-0_
  6
CONTINUOUS
 62
    7
 10
777.81655425618487
 20
651.04878879469004
 40
0.7991322242209109
 50
207.40637022253659
 51
209.56546907272977
  0
LINE
  8
_0-0_
  6
CONTINUOUS
 62
    7
 10
777.121475073287
 20
650.65448276976736
 11
777.12154646183603
 21
650.65435692666279
  0
ARC
  8
_0-0_
  6
CONTINUOUS
 62
    7
 10
777.74108315643298
 20
651.00580904514254
 40
0.7122810593691808
 50
209.56546907277695
 51
212.01102683694202
  0
LINE
  8
_0-0_
  6
CONTINUOUS
 62
    7
 10
777.13710721356563
 20
650.62824134528785
 11
777.13727961450775
 21
650.62796556422506
  0
ARC
  8
_0-0_
  6
CONTINUOUS
 62
    7
 10
777.68611930186478
 20
650.97106555155335
 40
0.6472577567885011
 50
212.01102683693759
 51
214.71315912792454
  0
LINE
  8
_0-0_
  6
CONTINUOUS
 62
    7
 10
777.15406483482411
 20
650.60247275750419
 11
777.15454263989648
 21
650.60178305784848
  0
ARC
  8
_0-0_
  6
CONTINUOUS
 62
    7
 10
777.64441552361359
 20
650.94115360376486
 40
0.5959427905737183
 50
214.71315912772434
 51
217.48663162528729
  0
LINE
  8
_0-0_
  6
CONTINUOUS
 62
    7
 10
777.17153768671858
 20
650.57847694197051
 11
777.17182320221934
 21
650.57810467111153
  0
ARC
  8
_0-0_
  6
CONTINUOUS
 62
    7
 10
777.68296115147768
 20
650.97012516919756
 40
0.6441599755431458
 50
217.48663162528445
 51
219.9691555275804
  0
ARC
  8
_0-0_
  6
CONTINUOUS
 62
    7
 10
777.69540979127248
 20
650.98055940334598
 40
0.6604031856631309
 50
219.96915552761649
 51
222.39063792691337
  0
LINE
  8
_0-0_
  6
CONTINUOUS
 62
    7
 10
777.20765877491897
 20
650.5353276505698
 11
777.20783308315481
 21
650.53513669604172
  0
ARC
  8
_0-0_
  6
CONTINUOUS
 62
    7
 10
777.71592022786149
 20
650.99893179316098
 40
0.6879378160327716
 50
222.39063792677717
 51
224.75827684429828
  0
LINE
  8
_0-0_
  6
CONTINUOUS
 62
    7
 10
777.22742682042417
 20
650.51454286923899
 11
777.22761367794772
 21
650.51435442837283
  0
ARC
  8
_0-0_
  6
CONTINUOUS
 62
    7
 10
777.7360114527944
 20
651.01848047661042
 40
0.7159688331069871
 50
224.75827684419968
 51
227.07570181685492
  0
LINE
  8
_0-0_
  6
CONTINUOUS
 62
    7
 10
777.24841414809623
 20
650.49420932688747
 11
777.24861328883151
 21
650.49402411645622
  0
ARC
  8
_0-0_
  6
CONTINUOUS
 62
    7
 10
777.75560346285033
 20
651.03914673889574
 40
0.7444445647910441
 50
227.0757018169038
 51
229.34635154697781
  0
LINE
  8
_0-0_
  6
CONTINUOUS
 62
    7
 10
777.27060909262786
 20
650.47436521396821
 11
777.27082027716403
 21
650.47418386364677
  0
ARC
  8
_0-0_
  6
CONTINUOUS
 62
    7
 10
777.77464606224169
 20
651.06089478786123
 40
0.7733499403903405
 50
229.34635154678352
 51
231.57338409222174
  0
LINE
  8
_0-0_
  6
CONTINUOUS
 62
    7
 10
777.29399997469682
 20
650.45504871101525
 11
777.29422300374881
 21
650.45487177161544
  0
ARC
  8
_0-0_
  6
CONTINUOUS
 62
    7
 10
777.79303773806544
 20
651.08361911334828
 40
0.802582929613824
 50
231.57338409216274
 51
233.75995268998355
  0
LINE
  8
_0-0_
  6
CONTINUOUS
 62
    7
 10
777.31857514535614
 20
650.43629801294514
 11
777.31880984536417
 21
650.43612598645905
  0
ARC
  8
_0-0_
  6
CONTINUOUS
 62
    7
 10
777.8109607107491
 20
651.10757963663502
 40
0.8325037409127712
 50
233.75995269009263
 51
235.9079929629236
  0
LINE
  8
_0-0_
  6
CONTINUOUS
 62
    7
 10
777.34432282362548
 20
650.41815120602416
 11
777.34456911913389
 21
650.41798450153306
  0
ARC
  8
_0-0_
  6
CONTINUOUS
 62
    7
 10
777.82749970548605
 20
651.13148438105736
 40
0.8615706757518697
 50
235.90799296303828
 51
238.02227364456328
  0
LINE
  8
_0-0_
  6
CONTINUOUS
 62
    7
 10
777.37122088175249
 20
650.40065357688445
 11
777.37129357799779
 21
650.40060819201392
  0
ARC
  8
_0-0_
  6
CONTINUOUS
 62
    7
 10
777.85352342387898
 20
651.17303077967165
 40
0.9105944641729544
 50
238.02312399166868
 51
240.01201646446526
  0
ARC
  8
_0-0_
  6
CONTINUOUS
 62
    7
 10
777.87092299859501
 20
651.20318232904549
 40
0.9454062600177981
 50
240.01201646439898
 51
241.92768774527792
  0
LINE
  8
_0-0_
  6
CONTINUOUS
 62
    7
 10
777.42602847828073
 20
650.36899897853129
 11
777.42620928298936
 21
650.36890255006131
  0
ARC
  8
_0-0_
  6
CONTINUOUS
 62
    7
 10
777.88841910273027
 20
651.23555232539059
 40
0.9822014816437769
 50
241.92768774549643
 51
243.79550717757104
  0
LINE
  8
_0-0_
  6
CONTINUOUS
 62
    7
 10
777.45470229546117
 20
650.35429783227551
 11
777.45492469831947
 21
650.35418837483917
  0
ARC
  8
_0-0_
  6
CONTINUOUS
 62
    7
 10
777.90469873147151
 20
651.26806900145948
 40
1.0185649123202145
 50
243.79550717763158
 51
245.62453553956757
  0
LINE
  8
_0-0_
  6
CONTINUOUS
 62
    7
 10
777.4843223109857
 20
650.34029847718671
 11
777.48453461014446
 21
650.3402022836151
  0
ARC
  8
_0-0_
  6
CONTINUOUS
 62
    7
 10
777.91814945201997
 20
651.29718999647844
 40
1.050641382045314
 50
245.62453553973052
 51
247.42314698121567
  0
LINE
  8
_0-0_
  6
CONTINUOUS
 62
    7
 10
777.51478477234298
 20
650.32706410317633
 11
777.51498609691657
 21
650.32698039525474
  0
ARC
  8
_0-0_
  6
CONTINUOUS
 62
    7
 10
777.92890931255738
 20
651.32250045331909
 40
1.0781431326381403
 50
247.423146981272
 51
249.19905431929391
  0
LINE
  8
_0-0_
  6
CONTINUOUS
 62
    7
 10
777.54603654450182
 20
650.31463088936925
 11
777.54622623052649
 21
650.31455883082526
  0
ARC
  8
_0-0_
  6
CONTINUOUS
 62
    7
 10
777.93713362659298
 20
651.34357865070058
 40
1.1007680872898196
 50
249.19905431936286
 51
250.95958419211306
  0
LINE
  8
_0-0_
  6
CONTINUOUS
 62
    7
 10
777.57802451470934
 20
650.30303502943434
 11
777.57820208143073
 21
650.3029737481711
  0
ARC
  8
_0-0_
  6
CONTINUOUS
 62
    7
 10
777.94320142857475
 20
651.36058473566447
 40
1.11882327660909
 50
250.95958419211524
 51
252.71094240618271
  0
LINE
  8
_0-0_
  6
CONTINUOUS
 62
    7
 10
777.61069551120897
 20
650.29231260778738
 11
777.61158932254762
 21
650.29203440380604
  0
ARC
  8
_0-0_
  6
CONTINUOUS
 62
    7
 10
777.93274881006778
 20
651.32385282026939
 40
1.0806445581120299
 50
252.71094240617259
 51
254.461607090716
  0
LINE
  8
_0-0_
  6
CONTINUOUS
 62
    7
 10
777.64326139288926
 20
650.2827045617239
 11
777.64467007984354
 21
650.28231288153358
  0
ARC
  8
_0-0_
  6
CONTINUOUS
 62
    7
 10
777.93888895030022
 20
651.34047792232127
 40
1.0983068775519882
 50
254.46160709067001
 51
256.03160387863556
  0
LINE
  8
_0-0_
  6
CONTINUOUS
 62
    7
 10
777.67377233056982
 20
650.27464905462216
 11
777.676678984197
 21
650.27392604719785
  0
ARC
  8
_0-0_
  6
CONTINUOUS
 62
    7
 10
777.92708750050213
 20
651.28062500732085
 40
1.037375159405185
 50
256.0316038785495
 51
257.36299923871957
  0
ARC
  8
_0-0_
  6
CONTINUOUS
 62
    7
 10
778.06581710531395
 20
651.89938833764893
 40
1.6714997230438124
 50
257.36299923853795
 51
258.18931985720951
  0
LINE
  8
_0-0_
  6
CONTINUOUS
 62
    7
 10
777.72369702794219
 20
650.2632755124456
 11
777.72616458779135
 21
650.26275953228003
  0
ARC
  8
_0-0_
  6
CONTINUOUS
 62
    7
 10
777.95869011504908
 20
651.37476090984967
 40
1.1360524567744648
 50
258.18931985715273
 51
259.65932617644444
  0
LINE
  8
_0-0_
  6
CONTINUOUS
 62
    7
 10
777.75476799213823
 20
650.25716037641621
 11
777.75966565866418
 21
650.25626672745545
  0
ARC
  8
_0-0_
  6
CONTINUOUS
 62
    7
 10
778.08102592204011
 20
652.01749006430805
 40
1.7903016676391423
 50
259.65932617637958
 51
260.91079357153853
  0
LINE
  8
_0-0_
  6
CONTINUOUS
 62
    7
 10
777.7982082936943
 20
650.24966816992833
 11
777.79835721615007
 21
650.24964434518904
  0
ARC
  8
_0-0_
  6
CONTINUOUS
 62
    7
 10
778.13987324251991
 20
652.38437516881697
 40
2.1618762419746407
 50
260.91079357149283
 51
261.95517018483446
  0
LINE
  8
_0-0_
  6
CONTINUOUS
 62
    7
 10
777.83732326374115
 20
650.24377422610121
 11
777.83745694730737
 21
650.24375533142575
  0
ARC
  8
_0-0_
  6
CONTINUOUS
 62
    7
 10
778.21404839228865
 20
652.90821429257483
 40
2.6909408525793324
 50
261.9551701849046
 51
262.79996971993614
  0
LINE
  8
_0-0_
  6
CONTINUOUS
 62
    7
 10
777.87678266299179
 20
650.23849249060322
 11
777.8768972346254
 21
650.23847801677846
  0
ARC
  8
_0-0_
  6
CONTINUOUS
 62
    7
 10
778.31707234666089
 20
653.72280800112458
 40
3.5120235718270694
 50
262.79996971990624
 51
263.4510346707699
  0
LINE
  8
_0-0_
  6
CONTINUOUS
 62
    7
 10
777.91651803329285
 20
650.23370126571058
 11
777.91661042107819
 21
650.23369065946417
  0
ARC
  8
_0-0_
  6
CONTINUOUS
 62
    7
 10
778.48069636699552
 20
655.14727168348543
 40
4.9458539640797463
 50
263.45103467077917
 51
263.91550933794491
  0
LINE
  8
_0-0_
  6
CONTINUOUS
 62
    7
 10
777.95646101580496
 20
650.22927933593496
 11
777.95652887819404
 21
650.22927210211651
  0
ARC
  8
_0-0_
  6
CONTINUOUS
 62
    7
 10
778.74878700817555
 20
657.6616579793041
 40
7.4744921414059009
 50
263.91550933790978
 51
264.22389837071313
  0
LINE
  8
_0-0_
  6
CONTINUOUS
 62
    7
 10
777.99654426444954
 20
650.22511552824187
 11
778.03670999859253
 21
650.22105256722807
  0
LINE
  8
_0-0_
  6
CONTINUOUS
 62
    7
 10
778.03670999859253
 20
650.22105256722807
 11
778.03796488289311
 21
650.22092677367152
  0
ARC
  8
_0-0_
  6
CONTINUOUS
 62
    7
 10
735.53796467632742
 20
662.45933331364586
 40
4
 50
90
 51
270.0000000000008
  0
ARC
  8
_0-0_
  6
CONTINUOUS
 62
    7
 10
863.53796467632742
 20
662.45933331364586
 40
4.0000000000000373
 50
247.97568716295939
 51
90
  0
ARC
  8
_0-0_
  6
CONTINUOUS
 62
    7
 10
863.53796467632742
 20
662.45933331364586
 40
4
 50
90
 51
155.97523999592948
  0
LINE
  8
_0-0_
  6
CONTINUOUS
 62
    7
 10
831.5379652703233
 20
697.45933326606871
 11
767.53796409313156
 21
697.45933326606871
  0
LINE
  8
_0-0_
  6
CONTINUOUS
 62
    7
 10
810.0379645401664
 20
686.45933309284271
 11
789.03796482328846
 21
686.45933309284271
  0
LINE
  8
_0-0_
  6
CONTINUOUS
 62
    8
 10
822.31784570459797
 20
687.51351294753374
 11
776.75808365885689
 21
687.51351294753374
  0
LINE
  8
_0-0_
  6
CONTINUOUS
 62
    8
 10
816.30781344567015
 20
686.99643054691376
 11
782.76811684910729
 21
686.99643054691376
  0
LINE
  8
_0-0_
  6
CONTINUOUS
 62
    7
 10
756.03796516601517
 20
665.04479564440669
 11
742.03796456996872
 21
665.04479564440669
  0
LINE
  8
_0-0_
  6
CONTINUOUS
 62
    7
 10
757.03796516601517
 20
666.04479564440669
 11
757.03796516601517
 21
668.65933306229533
  0
ARC
  8
_0-0_
  6
CONTINUOUS
 62
    7
 10
756.03796516601517
 20
666.04479564440669
 40
1
 50
270
 51
0
  0
LINE
  8
_0-0_
  6
CONTINUOUS
 62
    7
 10
842.03796606008484
 20
666.04479564440669
 11
842.03796606008484
 21
668.65933306229533
  0
LINE
  8
_0-0_
  6
CONTINUOUS
 62
    7
 10
843.03796606008484
 20
665.04479564440669
 11
857.03796293084099
 21
665.04479564440669
  0
ARC
  8
_0-0_
  6
CONTINUOUS
 62
    7
 10
843.03796606008484
 20
666.04479564440669
 40
1
 50
180
 51
270
  0
LINE
  8
_0-0_
  6
CONTINUOUS
 62
    7
 10
821.03796464447453
 20
649.27853263628901
 11
778.03796488289311
 21
649.27853263628901
  0
ARC
  8
_0-0_
  6
CONTINUOUS
 62
    7
 10
821.03796464447453
 20
650.27853263628901
 40
1
 50
270
 51
0
  0
LINE
  8
_0-0_
  6
CONTINUOUS
 62
    7
 10
821.03796464447453
 20
650.22092677367152
 11
778.03796488289311
 21
650.22092677367152
  0
ARC
  8
_0-0_
  6
CONTINUOUS
 62
    7
 10
821.03796464447453
 20
651.22092677367152
 40
1
 50
270
 51
0
  0
LINE
  8
_0-0_
  6
CONTINUOUS
 62
    7
 10
822.03796464447453
 20
650.27853263628901
 11
822.03796464447453
 21
658.20524088752688
  0
LINE
  8
_0-0_
  6
CONTINUOUS
 62
    7
 10
862.03796747569515
 20
659.6918440581602
 11
862.03635321106344
 21
659.70854917284453
  0
ARC
  8
_0-0_
  6
CONTINUOUS
 62
    7
 10
818.01925331105497
 20
655.45504664386976
 40
44.222136621508085
 50
5.519522876937347
 51
5.709413542583019
  0
LINE
  8
_0-0_
  6
CONTINUOUS
 62
    7
 10
862.02201446256186
 20
659.85440778098496
 11
862.02073349473744
 21
659.86722012338328
  0
ARC
  8
_0-0_
  6
CONTINUOUS
 62
    7
 10
840.68558888582152
 20
657.73414929803698
 40
21.441510828980665
 50
5.7094135425686252
 51
6.0322384809257583
  0
ARC
  8
_0-0_
  6
CONTINUOUS
 62
    7
 10
847.45418002451765
 20
658.44940766057925
 40
14.635232805859452
 50
6.0322384809187
 51
6.5051953180842812
  0
LINE
  8
_0-0_
  6
CONTINUOUS
 62
    7
 10
861.99518515494776
 20
660.1074815668062
 11
861.99514211981818
 21
660.10785897702738
  0
ARC
  8
_0-0_
  6
CONTINUOUS
 62
    7
 10
850.854774116866
 20
658.83755109076071
 40
11.212559090908378
 50
6.505195318073568
 51
7.1264034394717335
  0
LINE
  8
_0-0_
  6
CONTINUOUS
 62
    7
 10
861.98071477185601
 20
660.22856723328186
 11
861.97728169114964
 21
660.25602647766766
  0
ARC
  8
_0-0_
  6
CONTINUOUS
 62
    7
 10
855.10877376084875
 20
659.39729410596635
 40
6.9219811091055998
 50
7.1264034394599269
 51
8.5907160162486207
  0
LINE
  8
_0-0_
  6
CONTINUOUS
 62
    7
 10
861.95309438255731
 20
660.43126591509372
 11
861.94851693992507
 21
660.46156604970656
  0
ARC
  8
_0-0_
  6
CONTINUOUS
 62
    7
 10
853.41885329087597
 20
659.17298939734133
 40
8.6264472266935819
 50
8.5907160162302212
 51
10.062469781332407
  0
LINE
  8
_0-0_
  6
CONTINUOUS
 62
    7
 10
861.91260711321092
 20
660.68021790042235
 11
861.91179372777401
 21
660.68480160863237
  0
ARC
  8
_0-0_
  6
CONTINUOUS
 62
    7
 10
853.44593456744701
 20
659.18252305236251
 40
8.5981167811980921
 50
10.062469781342925
 51
11.477038430812788
  0
LINE
  8
_0-0_
  6
CONTINUOUS
 62
    7
 10
861.87212790764988
 20
660.89333513340534
 11
861.87190994492562
 21
660.89440865636925
  0
ARC
  8
_0-0_
  6
CONTINUOUS
 62
    7
 10
854.06355950738316
 20
659.30904030292368
 40
7.9676677498233826
 50
11.477038430819427
 51
12.987771633953702
  0
LINE
  8
_0-0_
  6
CONTINUOUS
 62
    7
 10
861.82739880174938
 20
661.09971860536405
 11
861.8242775553889
 21
661.11325138515349
  0
ARC
  8
_0-0_
  6
CONTINUOUS
 62
    7
 10
855.96057589115514
 20
659.7608272887727
 40
6.0176447339145263
 50
12.98777163395645
 51
14.723577629078587
  0
LINE
  8
_0-0_
  6
CONTINUOUS
 62
    7
 10
861.78062071518377
 20
661.290247567802
 11
861.77327739723682
 21
661.3181917765944
  0
ARC
  8
_0-0_
  6
CONTINUOUS
 62
    7
 10
856.84454157652681
 20
660.02299410336434
 40
5.0960743521941643
 50
14.723577629087552
 51
16.12367855651658
  0
ARC
  8
_0-0_
  6
CONTINUOUS
 62
    7
 10
854.50116667875125
 20
659.3455644440902
 40
7.535401483759026
 50
16.123678556530233
 51
17.070570518283354
  0
LINE
  8
_0-0_
  6
CONTINUOUS
 62
    7
 10
861.70458791175906
 20
661.55757666405907
 11
861.70185046891413
 21
661.56649115093887
  0
ARC
  8
_0-0_
  6
CONTINUOUS
 62
    7
 10
858.20369059953805
 20
660.49228319777762
 40
3.6593777064342343
 50
17.070570518289117
 51
19.312189475909857
  0
LINE
  8
_0-0_
  6
CONTINUOUS
 62
    7
 10
861.65715737093046
 20
661.70249493843983
 11
861.65711616771534
 21
661.70261251615739
  0
ARC
  8
_0-0_
  6
CONTINUOUS
 62
    7
 10
855.67013858317205
 20
659.60457276551426
 40
6.3439476190383788
 50
19.312189475937
 51
20.60758220329987
  0
LINE
  8
_0-0_
  6
CONTINUOUS
 62
    7
 10
861.60815581519728
 20
661.83742357675851
 11
861.60757654894962
 21
661.8389640706165
  0
ARC
  8
_0-0_
  6
CONTINUOUS
 62
    7
 10
858.73639664928078
 20
660.75928398107681
 40
3.0674717785190104
 50
20.608296516348268
 51
23.349131712216263
  0
LINE
  8
_0-0_
  6
CONTINUOUS
 62
    7
 10
861.55266353023364
 20
661.97502407141644
 11
861.55211699419397
 21
661.97629012438279
  0
ARC
  8
_0-0_
  6
CONTINUOUS
 62
    7
 10
855.30909129322492
 20
659.28126974793292
 40
6.7998900529670205
 50
23.34913171221784
 51
24.562813355076671
  0
ARC
  8
_0-0_
  6
CONTINUOUS
 62
    7
 10
857.93487213092703
 20
660.4813852543715
 40
3.9128496589929105
 50
24.562813355083108
 51
26.67183342049946
  0
LINE
  8
_0-0_
  6
CONTINUOUS
 62
    7
 10
861.43136393053828
 20
662.23778428338869
 11
861.42589257016743
 21
662.24867620848852
  0
ARC
  8
_0-0_
  6
CONTINUOUS
 62
    7
 10
855.12798222959179
 20
659.08503555351945
 40
7.0478576072238441
 50
26.671833420481715
 51
28.040972702673354
  0
LINE
  8
_0-0_
  6
CONTINUOUS
 62
    7
 10
861.34850341891774
 20
662.39825347343503
 11
861.34713280271887
 21
662.40082678654426
  0
ARC
  8
_0-0_
  6
CONTINUOUS
 62
    7
 10
856.90024204458791
 20
660.03229243076976
 40
5.0383323043677155
 50
28.040972702665233
 51
30.022394646453275
  0
LINE
  8
_0-0_
  6
CONTINUOUS
 62
    7
 10
861.26258083752998
 20
662.55316384058585
 11
861.24838871569193
 21
662.57772314313775
  0
ARC
  8
_0-0_
  6
CONTINUOUS
 62
    7
 10
857.00000701113015
 20
660.12270429078808
 40
4.9067162821023098
 50
30.022394646438698
 51
32.16008747959048
  0
LINE
  8
_0-0_
  6
CONTINUOUS
 62
    7
 10
861.15385718341997
 20
662.73448403249972
 11
861.15337937972788
 21
662.73524394533501
  0
ARC
  8
_0-0_
  6
CONTINUOUS
 62
    7
 10
855.77629241960381
 20
659.35434039576319
 40
6.3516590736786256
 50
32.160087479609324
 51
33.795361276471723
  0
ARC
  8
_0-0_
  6
CONTINUOUS
 62
    7
 10
857.13010254237008
 20
660.26047856289961
 40
4.7225831925589823
 50
33.795361276443927
 51
35.994609224705201
  0
LINE
  8
_0-0_
  6
CONTINUOUS
 62
    7
 10
860.95101375775971
 20
663.03598383126962
 11
860.94331274197168
 21
663.04658546763835
  0
ARC
  8
_0-0_
  6
CONTINUOUS
 62
    7
 10
856.68848191167604
 20
659.95588151776803
 40
5.2589006741121596
 50
35.994609224704334
 51
38.233425168789836
  0
ARC
  8
_0-0_
  6
CONTINUOUS
 62
    7
 10
856.74446251923075
 20
659.99998681756256
 40
5.1876328279811892
 50
38.233425168790909
 51
40.502990041310049
  0
LINE
  8
_0-0_
  6
CONTINUOUS
 62
    7
 10
860.68899364362858
 20
663.3692906872966
 11
860.67551062773475
 21
663.38507560248991
  0
ARC
  8
_0-0_
  6
CONTINUOUS
 62
    7
 10
857.48834402073192
 20
660.66269049668131
 40
4.1915882008042828
 50
40.502990041303413
 51
43.41406709211833
  0
LINE
  8
_0-0_
  6
CONTINUOUS
 62
    7
 10
860.53313866059273
 20
663.54342603577493
 11
860.52073295257253
 21
663.55653825408547
  0
ARC
  8
_0-0_
  6
CONTINUOUS
 62
    7
 10
856.82715125442098
 20
660.06197348931698
 40
5.0847348658589739
 50
43.414067092125983
 51
45.40732119866297
  0
ARC
  8
_0-0_
  6
CONTINUOUS
 62
    7
 10
857.14542454461605
 20
660.38480452853537
 40
4.6313941913828511
 50
45.407321198676854
 51
47.595638225482517
  0
LINE
  8
_0-0_
  6
CONTINUOUS
 62
    7
 10
860.26864505803496
 20
663.80464455118772
 11
860.26637864286693
 21
663.80671438904494
  0
ARC
  8
_0-0_
  6
CONTINUOUS
 62
    7
 10
857.11710831674031
 20
660.35847394733332
 40
4.6699320906065154
 50
47.594617202919721
 51
49.839147193186292
  0
ARC
  8
_0-0_
  6
CONTINUOUS
 62
    7
 10
857.19637160194543
 20
660.45251954840944
 40
4.5469392562452438
 50
49.838171384725136
 51
52.141374294402866
  0
LINE
  8
_0-0_
  6
CONTINUOUS
 62
    7
 10
859.98689746626064
 20
664.04245297405566
 11
859.96883073786557
 21
664.05649659740254
  0
ARC
  8
_0-0_
  6
CONTINUOUS
 62
    7
 10
857.93383444635629
 20
661.4385308220734
 40
3.3158640966196429
 50
52.141374294375424
 51
54.507630402752135
  0
ARC
  8
_0-0_
  6
CONTINUOUS
 62
    7
 10
856.10676977566322
 20
658.87635893129152
 40
6.462749876054243
 50
54.507630402776527
 51
55.7218202668099
  0
LINE
  8
_0-0_
  6
CONTINUOUS
 62
    7
 10
859.74666418458469
 20
664.21661216988809
 11
859.74031166306611
 21
664.22094202214885
  0
ARC
  8
_0-0_
  6
CONTINUOUS
 62
    7
 10
857.99253302202021
 20
661.65669715688023
 40
3.103237326913975
 50
55.721820266814277
 51
58.533884609488283
  0
LINE
  8
_0-0_
  6
CONTINUOUS
 62
    7
 10
859.61240498138977
 20
664.3036003931926
 11
859.5863999801561
 21
664.31951513148897
  0
ARC
  8
_0-0_
  6
CONTINUOUS
 62
    7
 10
857.25583310564082
 20
660.51132216480721
 40
4.4647369046868031
 50
58.533884609484772
 51
60.837870790053508
  0
ARC
  8
_0-0_
  6
CONTINUOUS
 62
    7
 10
857.2006851108714
 20
660.41231700320168
 40
4.5780652602276311
 50
60.838944796854491
 51
63.086984101549021
  0
ARC
  8
_0-0_
  6
CONTINUOUS
 62
    7
 10
857.15125865018672
 20
660.31494695531251
 40
4.6872618775825776
 50
63.086984101584576
 51
65.283713518739546
  0
LINE
  8
_0-0_
  6
CONTINUOUS
 62
    7
 10
859.11112144223137
 20
664.57280577699726
 11
859.11101869503307
 21
664.5728530708177
  0
ARC
  8
_0-0_
  6
CONTINUOUS
 62
    7
 10
857.09529493328796
 20
660.19363467049629
 40
4.82086051254106
 50
65.283713518743028
 51
67.422267789959704
  0
LINE
  8
_0-0_
  6
CONTINUOUS
 62
    7
 10
858.94619920426737
 20
664.64502203412212
 11
858.94516637810591
 21
664.64545148727848
  0
ARC
  8
_0-0_
  6
CONTINUOUS
 62
    7
 10
857.09565135327193
 20
660.19740523255484
 40
4.8172420855971181
 50
67.422267789958127
 51
69.589026545091983
  0
LINE
  8
_0-0_
  6
CONTINUOUS
 62
    7
 10
858.77567200654903
 20
664.71219779875435
 11
858.77460226794506
 21
664.7125958642074
  0
ARC
  8
_0-0_
  6
CONTINUOUS
 62
    7
 10
857.08676567317536
 20
660.17679917851626
 40
4.8396532876405907
 50
69.589026545095052
 51
71.772769959857598
  0
LINE
  8
_0-0_
  6
CONTINUOUS
 62
    7
 10
858.6005432140156
 20
664.77361563139084
 11
858.57845767660126
 21
664.78088861930712
  0
ARC
  8
_0-0_
  6
CONTINUOUS
 62
    7
 10
857.33171445156279
 20
660.99476740773275
 40
3.9861111998931187
 50
71.773647563169007
 51
75.093711144367489
  0
LINE
  8
_0-0_
  6
CONTINUOUS
 62
    7
 10
858.35709716138308
 20
664.84673739675327
 11
858.32682452619645
 21
664.85479588027977
  0
ARC
  8
_0-0_
  6
CONTINUOUS
 62
    7
 10
857.224387175071
 20
660.7133611255922
 40
4.2856563021887899
 50
75.093711144351573
 51
77.345481114982746
  0
LINE
  8
_0-0_
  6
CONTINUOUS
 62
    7
 10
858.16325344621021
 20
664.89491347674209
 11
858.14202540331235
 21
664.89967971946862
  0
ARC
  8
_0-0_
  6
CONTINUOUS
 62
    7
 10
857.30580536234436
 20
661.17529640112821
 40
3.8171055865470254
 50
77.345481114964215
 51
79.220671598104971
  0
LINE
  8
_0-0_
  6
CONTINUOUS
 62
    7
 10
858.01970680811326
 20
664.92504836420221
 11
858.00644279171524
 21
664.92757365136163
  0
ARC
  8
_0-0_
  6
CONTINUOUS
 62
    7
 10
857.06888661028358
 20
660.0030800078016
 40
5.0129481583998032
 50
79.220671598109078
 51
80.339975973346412
  0
ARC
  8
_0-0_
  6
CONTINUOUS
 62
    7
 10
856.96483862435412
 20
659.39163374797636
 40
5.6331840097355919
 50
80.34027087573655
 51
81.336636772162009
  0
ARC
  8
_0-0_
  6
CONTINUOUS
 62
    7
 10
856.84843873690227
 20
658.6274400033202
 40
6.4061917793731276
 50
81.336974037770261
 51
82.213714070726425
  0
ARC
  8
_0-0_
  6
CONTINUOUS
 62
    7
 10
856.7110866066447
 20
657.62264760722132
 40
7.4203285381133375
 50
82.21403767237598
 51
82.971571851210172
  0
ARC
  8
_0-0_
  6
CONTINUOUS
 62
    7
 10
856.54129409805535
 20
656.24510408810784
 40
8.8082967083292125
 50
82.971845598011399
 51
83.610560066967835
  0
ARC
  8
_0-0_
  6
CONTINUOUS
 62
    7
 10
856.31747242747554
 20
654.24601421865714
 40
10.819877292131844
 50
83.610765884164934
 51
84.131163873127392
  0
ARC
  8
_0-0_
  6
CONTINUOUS
 62
    7
 10
855.9922644324929
 20
651.08189070762648
 40
14.000669305486598
 50
84.131298520682051
 51
84.533762744656414
  0
ARC
  8
_0-0_
  6
CONTINUOUS
 62
    7
 10
855.56571426188157
 20
646.62446785583961
 40
18.478454866193982
 50
84.53376274467324
 51
84.838802476160595
  0
LINE
  8
_0-0_
  6
CONTINUOUS
 62
    7
 10
857.22800124289824
 20
665.02800274005995
 11
857.20652389378188
 21
665.0299426672558
  0
ARC
  8
_0-0_
  6
CONTINUOUS
 62
    7
 10
853.83666488410108
 20
627.72151244599331
 40
37.46031120158964
 50
84.838802476111738
 51
85.055239776428408
  0
LINE
  8
_0-0_
  6
CONTINUOUS
 62
    7
 10
857.06556596670464
 20
665.04240623377257
 11
857.04409629616566
 21
665.0442637306171
  0
LINE
  8
_0-0_
  6
CONTINUOUS
 62
    7
 10
857.04409629616566
 20
665.0442637306171
 11
857.03796479348614
 21
665.04479564440669
  0
LINE
  8
_0-0_
  6
CONTINUOUS
 62
    7
 10
1021.7668720569778
 20
811.58231072296439
 11
1021.7668720569778
 21
867.58231072296451
  0
LINE
  8
_0-0_
  6
CONTINUOUS
 62
    7
 10
1013.7668720569778
 20
867.58231072296451
 11
1013.7668720569778
 21
811.58231072296439
  0
LINE
  8
_0-0_
  6
CONTINUOUS
 62
    7
 10
1013.7668720569778
 20
811.58231072296439
 11
1013.7668720569778
 21
799.58231072296451
  0
LINE
  8
_0-0_
  6
CONTINUOUS
 62
    7
 10
1021.7668720569778
 20
799.58231072296451
 11
1021.7668720569778
 21
811.58231072296439
  0
LINE
  8
_0-0_
  6
CONTINUOUS
 62
    7
 10
1013.7668720569778
 20
879.58231072296439
 11
1013.7668720569778
 21
867.58231072296451
  0
LINE
  8
_0-0_
  6
CONTINUOUS
 62
    7
 10
1021.7668720569778
 20
867.58231072296451
 11
1021.7668720569778
 21
879.58231072296439
  0
ARC
  8
_0-0_
  6
CONTINUOUS
 62
    7
 10
999.74288293250629
 20
869.04631257411825
 40
6.0000000000000426
 50
96.121557463163398
 51
174.87476233141385
  0
ARC
  8
_0-0_
  6
CONTINUOUS
 62
    7
 10
999.74288293250629
 20
890.11830887181065
 40
6.0000000000000293
 50
185.12523766858664
 51
263.87844253683716
  0
ARC
  8
_0-0_
  6
CONTINUOUS
 62
    7
 10
1009.7668720569778
 20
775.58231072296451
 40
100.00000000000003
 50
90.022351751367154
 51
96.121557463163356
  0
ARC
  8
_0-0_
  6
CONTINUOUS
 62
    7
 10
1009.7668720569778
 20
983.58231072296439
 40
100.00000000000004
 50
263.87844253683744
 51
269.97764824863361
  0
ARC
  8
_0-0_
  6
CONTINUOUS
 62
    7
 10
1017.7668720569778
 20
879.58231072296439
 40
9
 50
0.0000000000003411
 51
243.61220003875763
  0
ARC
  8
_0-0_
  6
CONTINUOUS
 62
    7
 10
1017.7668720569778
 20
879.58231072296439
 40
8.9999999999999734
 50
296.3877999612439
 51
347.9013908353748
  0
LINE
  8
_0-0_
  6
CONTINUOUS
 62
    7
 10
1026.7615291973914
 20
879.27224149455344
 11
1026.7668720569777
 21
879.58231072296439
  0
ARC
  8
_0-0_
  6
CONTINUOUS
 62
    7
 10
983.26687205697738
 20
911.58231072296439
 40
0.4999999999999658
 50
48.848227814699918
 51
180
  0
ARC
  8
_0-0_
  6
CONTINUOUS
 62
    7
 10
991.82159867271491
 20
921.37090881104587
 40
12.500000000000062
 50
228.84822781466895
 51
267.64500408483559
  0
ARC
  8
_0-0_
  6
CONTINUOUS
 62
    7
 10
991.26687205697749
 20
907.88231072296458
 40
1
 50
0
 51
87.645004084837126
  0
LINE
  8
_0-0_
  6
CONTINUOUS
 62
    7
 10
992.26687205697817
 20
851.28231072296433
 11
992.26687205697749
 21
907.88231072296458
  0
LINE
  8
_0-0_
  6
CONTINUOUS
 62
    7
 10
992.26687205697817
 20
855.69406434306836
 11
992.71269257102676
 21
856.80242894036849
  0
LINE
  8
_0-0_
  6
CONTINUOUS
 62
    7
 10
992.71269257102608
 20
902.36219250556042
 11
992.26687205697749
 21
903.47055710286065
  0
ARC
  8
_0-0_
  6
CONTINUOUS
 62
    7
 10
992.01687205697749
 20
902.08231072296439
 40
0.75
 50
0
 51
21.911605381897118
  0
ARC
  8
_0-0_
  6
CONTINUOUS
 62
    7
 10
992.01687205697817
 20
857.08231072296451
 40
0.7500000000000558
 50
338.08839461810447
 51
0
  0
LINE
  8
_0-0_
  6
CONTINUOUS
 62
    7
 10
992.76687205697817
 20
857.08231072296451
 11
992.76687205697749
 21
902.08231072296439
  0
LINE
  8
_0-0_
  6
CONTINUOUS
 62
    7
 10
992.76687205697806
 20
861.16068366599211
 11
993.22977478221935
 21
862.81246198436668
  0
LINE
  8
_0-0_
  6
CONTINUOUS
 62
    7
 10
993.22977478221878
 20
896.35215946156234
 11
992.76687205697749
 21
898.0039377799369
  0
ARC
  8
_0-0_
  6
CONTINUOUS
 62
    7
 10
992.2668720569776
 20
896.08231072296439
 40
1
 50
0.0000000000032401
 51
15.655266117939565
  0
ARC
  8
_0-0_
  6
CONTINUOUS
 62
    7
 10
992.26687205697806
 20
863.08231072296451
 40
1.0000000000000047
 50
344.34473388206044
 51
0.0000000000000127
  0
LINE
  8
_0-0_
  6
CONTINUOUS
 62
    7
 10
993.26687205697806
 20
863.08231072296451
 11
993.2668720569776
 21
896.08231072296451
  0
LINE
  8
_0-0_
  6
CONTINUOUS
 62
    7
 10
993.26687205697795
 20
867.65178874684239
 11
993.76687205697795
 21
869.08231072296451
  0
LINE
  8
_0-0_
  6
CONTINUOUS
 62
    7
 10
993.76687205697772
 20
890.08231072296451
 11
993.2668720569776
 21
891.51283269908652
  0
ARC
  8
_0-0_
  6
CONTINUOUS
 62
    7
 10
1017.7668720569777
 20
879.58231072296439
 40
4
 50
0
 51
90
  0
ARC
  8
_0-0_
  6
CONTINUOUS
 62
    7
 10
1017.7668720569777
 20
879.58231072296439
 40
4
 50
90
 51
180
  0
ARC
  8
_0-0_
  6
CONTINUOUS
 62
    7
 10
960.2680345334752
 20
818.62065327342839
 40
88.79999990769906
 50
335.50548759801967
 51
46.674385072469555
  0
ARC
  8
_0-0_
  6
CONTINUOUS
 62
    7
 10
960.26803448345777
 20
818.62065329968698
 40
89.999999943508854
 50
335.50548759598217
 51
46.67438503736733
  0
LINE
  8
_0-0_
  6
CONTINUOUS
 62
    7
 10
1039.954209642975
 20
776.78629567012229
 11
1038.8917273068478
 21
777.34408710553328
  0
LINE
  8
_0-0_
  6
CONTINUOUS
 62
    7
 10
1038.8917273068478
 20
777.34408710553328
 11
1039.0011126454044
 21
777.55245492003996
  0
ARC
  8
_0-0_
  6
CONTINUOUS
 62
    7
 10
982.1418083230634
 20
807.40147103666345
 40
64.21794337372566
 50
332.30220084132156
 51
333.38825408731452
  0
LINE
  8
_0-0_
  6
CONTINUOUS
 62
    7
 10
1039.5566585213751
 20
778.6355323616184
 11
1039.6672975822457
 21
778.85636037553161
  0
ARC
  8
_0-0_
  6
CONTINUOUS
 62
    7
 10
964.28303431673066
 20
816.62531887092644
 40
84.316554566178297
 50
333.38825408731356
 51
333.87976513087466
  0
LINE
  8
_0-0_
  6
CONTINUOUS
 62
    7
 10
1039.9885203279387
 20
779.50442500078759
 11
1040.0362625785499
 21
779.60179200650771
  0
ARC
  8
_0-0_
  6
CONTINUOUS
 62
    7
 10
978.5898435811747
 20
809.73099556203135
 40
68.435599759855776
 50
333.87976513087574
 51
334.30375655590802
  0
LINE
  8
_0-0_
  6
CONTINUOUS
 62
    7
 10
1040.2575356306261
 20
780.05731915034926
 11
1040.263506829494
 21
780.06972846720805
  0
ARC
  8
_0-0_
  6
CONTINUOUS
 62
    7
 10
920.27521547940728
 20
837.80650460370089
 40
133.15676993584952
 50
334.30375655590649
 51
334.50981551428521
  0
LINE
  8
_0-0_
  6
CONTINUOUS
 62
    7
 10
1040.4703753715592
 20
780.50162768865266
 11
1040.485289437235
 21
780.53290946788422
  0
ARC
  8
_0-0_
  6
CONTINUOUS
 62
    7
 10
998.39547482825446
 20
800.59987096374232
 40
46.628697574504443
 50
334.50981551428987
 51
335.01308577804195
  0
LINE
  8
_0-0_
  6
CONTINUOUS
 62
    7
 10
1040.6599261205638
 20
780.90338410809716
 11
1040.6908164133279
 21
780.9696680745476
  0
ARC
  8
_0-0_
  6
CONTINUOUS
 62
    7
 10
921.90943485670573
 20
836.32531209662545
 40
131.04680053171413
 50
335.0130857780407
 51
335.12821316984082
  0
ARC
  8
_0-0_
  6
CONTINUOUS
 62
    7
 10
945.64000091877665
 20
825.32414985180776
 40
104.89024616453652
 50
335.12821316983815
 51
335.27204993305293
  0
LINE
  8
_0-0_
  6
CONTINUOUS
 62
    7
 10
1040.9122546954718
 20
781.44748862096594
 11
1040.9307600210461
 21
781.48767044029466
  0
ARC
  8
_0-0_
  6
CONTINUOUS
 62
    7
 10
642.2907957443291
 20
965.077225345079
 40
438.88374974323091
 50
335.27204993305946
 51
335.31673312850432
  0
LINE
  8
_0-0_
  6
CONTINUOUS
 62
    7
 10
1041.0738145617433
 20
781.79861314073912
 11
1041.0761218662283
 21
781.80363273167154
  0
LINE
  8
_0-0_
  6
CONTINUOUS
 62
    7
 10
1039.954209642975
 20
776.78629567012229
 11
1040.0475076273201
 21
776.96407689599505
  0
ARC
  8
_0-0_
  6
CONTINUOUS
 62
    7
 10
978.93543071398381
 20
809.03514383325057
 40
69.016224752991505
 50
332.30991616024414
 51
333.32672331334948
  0
LINE
  8
_0-0_
  6
CONTINUOUS
 62
    7
 10
1040.6070080402385
 20
778.0536036964653
 11
1040.7063919552718
 21
778.25143643085823
  0
ARC
  8
_0-0_
  6
CONTINUOUS
 62
    7
 10
967.79704097451065
 20
814.87842217840989
 40
81.592337540893951
 50
333.32672331334589
 51
333.87589126339083
  0
LINE
  8
_0-0_
  6
CONTINUOUS
 62
    7
 10
1041.0540995065976
 20
778.9519288814912
 11
1041.1120775320417
 21
779.07015081783288
  0
ARC
  8
_0-0_
  6
CONTINUOUS
 62
    7
 10
978.86814681924443
 20
809.59562105012924
 40
69.326122374486729
 50
333.87589126339458
 51
334.30458167338435
  0
LINE
  8
_0-0_
  6
CONTINUOUS
 62
    7
 10
1041.3387265371077
 20
779.53671366485673
 11
1041.3471389557619
 21
779.5541969573602
  0
ARC
  8
_0-0_
  6
CONTINUOUS
 62
    7
 10
922.63092611108209
 20
836.67676030068242
 40
131.74417040269824
 50
334.30458167338963
 51
334.51329114642709
  0
LINE
  8
_0-0_
  6
CONTINUOUS
 62
    7
 10
1041.5544293763132
 20
779.9870186694161
 11
1041.5697237628158
 21
780.01910316955355
  0
ARC
  8
_0-0_
  6
CONTINUOUS
 62
    7
 10
998.67847307870159
 20
800.46496839185568
 40
47.515184835335205
 50
334.51329114642135
 51
335.00625289229617
  0
LINE
  8
_0-0_
  6
CONTINUOUS
 62
    7
 10
1041.7440463285038
 20
780.38888335014519
 11
1041.7734329238829
 21
780.4519210675702
  0
ARC
  8
_0-0_
  6
CONTINUOUS
 62
    7
 10
923.03009294083893
 20
835.8070739598453
 40
131.01211295928292
 50
335.00625289229657
 51
335.12420658870553
  0
ARC
  8
_0-0_
  6
CONTINUOUS
 62
    7
 10
946.57006058730713
 20
824.89227056850439
 40
105.06480076960908
 50
335.12420658870747
 51
335.27129067258824
  0
LINE
  8
_0-0_
  6
CONTINUOUS
 62
    7
 10
1042.0002806375953
 20
780.94132675712297
 11
1042.019235074931
 21
780.98248232669698
  0
ARC
  8
_0-0_
  6
CONTINUOUS
 62
    7
 10
642.74629469778301
 20
964.86996114291424
 40
439.58330926321378
 50
335.2712906725842
 51
335.31698451435511
  0
LINE
  8
_0-0_
  6
CONTINUOUS
 62
    7
 10
1042.1657598198324
 20
781.30096412976309
 11
1042.1681230477711
 21
781.30610542638181
  0
LINE
  8
_0-0_
  6
CONTINUOUS
 62
    7
 10
1023.212592153991
 20
876.61850692855273
 11
1022.1585818162912
 21
877.19214637064169
  0
ARC
  8
_0-0_
  6
CONTINUOUS
 62
    7
 10
1017.7668720569777
 20
879.58231072296439
 40
6.2000000247405573
 50
310.1777693470907
 51
331.44299583860487
  0
LINE
  8
_0-0_
  6
CONTINUOUS
 62
    7
 10
1021.7668720569778
 20
876.58231067689576
 11
1021.8283101123116
 21
876.66602520985032
  0
LINE
  8
_0-0_
  6
CONTINUOUS
 62
    7
 10
1021.8283101123116
 20
876.66602520985032
 11
1022.1585818162911
 21
877.19214637064169
  0
LINE
  8
_0-0_
  6
CONTINUOUS
 62
    7
 10
1023.652439127539
 20
877.63292605986987
 11
1022.5132971184277
 21
878.01022631573744
  0
ARC
  8
_0-0_
  6
CONTINUOUS
 62
    7
 10
1017.7668720569778
 20
799.58231072296451
 40
4
 50
180
 51
0
  0
ARC
  8
_0-0_
  6
CONTINUOUS
 62
    7
 10
1017.7668720569778
 20
879.58231072296439
 40
4
 50
0
 51
180
  0
ARC
  8
_0-0_
  6
CONTINUOUS
 62
    7
 10
1017.7668720569779
 20
879.58231072296451
 40
5.0500000000000052
 50
341.68283623504203
 51
38.366254694695201
  0
ARC
  8
_0-0_
  6
CONTINUOUS
 62
    7
 10
1017.7668720569779
 20
879.58231072296451
 40
4.3599999999999888
 50
336.5533827449517
 51
203.44661725504565
  0
ARC
  8
_0-0_
  6
CONTINUOUS
 62
    7
 10
1017.7668720569779
 20
879.58231072296451
 40
4.0999999999999899
 50
347.31961650817721
 51
192.680383491817
  0
ARC
  8
_0-0_
  6
CONTINUOUS
 62
    7
 10
1017.7668720569779
 20
879.58231072296451
 40
6.0000000000000062
 50
341.68094102934953
 51
11.999609029722325
  0
LINE
  8
_0-0_
  6
CONTINUOUS
 62
    7
 10
982.76687205697749
 20
911.58231072217541
 11
982.76687205697829
 21
847.58231072296428
  0
LINE
  8
_0-0_
  6
CONTINUOUS
 62
    7
 10
993.76687205697772
 20
890.08231072296451
 11
993.76687205697795
 21
869.08231072296451
  0
ARC
  8
_0-0_
  6
CONTINUOUS
 62
    8
 10
1017.7668720569779
 20
879.58231072296451
 40
5.1500000000000332
 50
341.66387284448018
 51
32.396237212663436
  0
ARC
  8
_0-0_
  6
CONTINUOUS
 62
    8
 10
1017.7668720569778
 20
879.58231072296439
 40
7.1759062493224803
 50
15.230182402673888
 51
236.12237837462192
  0
ARC
  8
_0-0_
  6
CONTINUOUS
 62
    8
 10
1017.7668720569778
 20
879.58231072296439
 40
7.1759062493224741
 50
303.87762162538002
 51
359.10891483668479
  0
LINE
  8
_0-0_
  6
CONTINUOUS
 62
    8
 10
1024.4354658059758
 20
879.58231072296439
 11
1024.4211175346657
 21
880.01952887428706
  0
ARC
  8
_0-0_
  6
CONTINUOUS
 62
    8
 10
1017.7668720569778
 20
879.58231072296439
 40
6.6685937489979059
 50
24.242810977773551
 51
233.14251929507355
  0
ARC
  8
_0-0_
  6
CONTINUOUS
 62
    8
 10
1017.7668720569778
 20
879.58231072296439
 40
6.6685937489979521
 50
306.85748070492815
 51
0.000000000000019
  0
LINE
  8
_0-0_
  6
CONTINUOUS
 62
    8
 10
992.71269257102608
 20
902.36219250556042
 11
992.71269257102676
 21
856.80242894036849
  0
LINE
  8
_0-0_
  6
CONTINUOUS
 62
    8
 10
993.22977478221878
 20
896.35215946156234
 11
993.22977478221935
 21
862.81246198436668
  0
ARC
  8
_0-0_
  6
CONTINUOUS
 62
    7
 10
983.26687205697817
 20
847.58231072296451
 40
0.4999999999999658
 50
180
 51
311.15177218530005
  0
ARC
  8
_0-0_
  6
CONTINUOUS
 62
    7
 10
991.82159867271571
 20
837.79371263488304
 40
12.500000000000062
 50
92.354995915164437
 51
131.15177218533105
  0
ARC
  8
_0-0_
  6
CONTINUOUS
 62
    7
 10
991.26687205697817
 20
851.28231072296433
 40
1
 50
272.35499591516287
 51
0
  0
LINE
  8
_0-0_
  6
CONTINUOUS
 62
    7
 10
737.03796467632742
 20
885.05231074770506
 11
737.03796467632742
 21
884.09260043235952
  0
LINE
  8
_0-0_
  6
CONTINUOUS
 62
    7
 10
737.76796467632744
 20
885.78231074770508
 11
777.03796467632742
 21
885.78231074770508
  0
ARC
  8
_0-0_
  6
CONTINUOUS
 62
    7
 10
737.76796467632744
 20
885.05231074770506
 40
0.73
 50
90
 51
180
  0
LINE
  8
_0-0_
  6
CONTINUOUS
 62
    7
 10
861.3079646763274
 20
885.78231074770508
 11
822.03796467632742
 21
885.78231074770508
  0
LINE
  8
_0-0_
  6
CONTINUOUS
 62
    7
 10
862.03796467632742
 20
885.05231074770506
 11
862.03796467632742
 21
884.09260043235952
  0
ARC
  8
_0-0_
  6
CONTINUOUS
 62
    7
 10
861.3079646763274
 20
885.05231074770506
 40
0.73
 50
0
 51
90
  0
LINE
  8
_0-0_
  6
CONTINUOUS
 62
    7
 10
822.03796467632742
 20
875.12479095780122
 11
822.0229512589126
 21
875.07702290937254
  0
ARC
  8
_0-0_
  6
CONTINUOUS
 62
    7
 10
819.08915655364297
 20
875.99910965917366
 40
3.0752878478000878
 50
341.85757965909482
 51
342.55215420445131
  0
ARC
  8
_0-0_
  6
CONTINUOUS
 62
    7
 10
819.72319961771245
 20
875.79135273677002
 40
2.4080745791210658
 50
340.970267374836
 51
341.85757965904338
  0
ARC
  8
_0-0_
  6
CONTINUOUS
 62
    7
 10
820.31152014451868
 20
875.58842640567889
 40
1.7857401529508909
 50
339.77364098907486
 51
340.97056377840329
  0
LINE
  8
_0-0_
  6
CONTINUOUS
 62
    7
 10
821.98714096749632
 20
874.97104260975857
 11
821.98713269681741
 21
874.97102016258407
  0
ARC
  8
_0-0_
  6
CONTINUOUS
 62
    7
 10
820.65161952791755
 20
875.46309102874227
 40
1.423281125296908
 50
338.27001022450276
 51
339.77364098911153
  0
LINE
  8
_0-0_
  6
CONTINUOUS
 62
    7
 10
821.97376074692272
 20
874.9361453402372
 11
821.97374531643743
 21
874.93610662413971
  0
ARC
  8
_0-0_
  6
CONTINUOUS
 62
    7
 10
820.86935616985966
 20
875.37626618565537
 40
1.1888716611444445
 50
336.46593759813646
 51
338.2700102245621
  0
LINE
  8
_0-0_
  6
CONTINUOUS
 62
    7
 10
821.95934088116553
 20
874.90155663678172
 11
821.95931400566269
 21
874.90149492770672
  0
ARC
  8
_0-0_
  6
CONTINUOUS
 62
    7
 10
821.01771925264313
 20
875.31157776262285
 40
1.0270192843403456
 50
334.37010462866806
 51
336.46593759814675
  0
LINE
  8
_0-0_
  6
CONTINUOUS
 62
    7
 10
821.94368698039682
 20
874.86733416101936
 11
821.94364281281923
 21
874.86724209947647
  0
ARC
  8
_0-0_
  6
CONTINUOUS
 62
    7
 10
821.11958553384159
 20
875.26259299840001
 40
0.9139872714189564
 50
332.00235433441571
 51
334.37010462860098
  0
LINE
  8
_0-0_
  6
CONTINUOUS
 62
    7
 10
821.92660602609453
 20
874.83353512654639
 11
821.92603678590615
 21
874.83246443532448
  0
ARC
  8
_0-0_
  6
CONTINUOUS
 62
    7
 10
821.23778278270402
 20
875.19837930457618
 40
0.7794788415750285
 50
329.39872613566786
 51
332.00235433461205
  0
LINE
  8
_0-0_
  6
CONTINUOUS
 62
    7
 10
821.90870415882625
 20
874.8015773747353
 11
821.9081613350794
 21
874.80065955647922
  0
ARC
  8
_0-0_
  6
CONTINUOUS
 62
    7
 10
821.20341165587354
 20
875.21746850416787
 40
0.8187806844411664
 50
327.0692038936013
 51
329.39872613570151
  0
ARC
  8
_0-0_
  6
CONTINUOUS
 62
    7
 10
821.19882773944403
 20
875.22043746888971
 40
0.8242420983014289
 50
324.75511281547745
 51
327.06920389371959
  0
LINE
  8
_0-0_
  6
CONTINUOUS
 62
    7
 10
821.87198053571785
 20
874.74479017363717
 11
821.87188267042063
 21
874.74465167122344
  0
ARC
  8
_0-0_
  6
CONTINUOUS
 62
    7
 10
821.19013006845546
 20
875.22637555761469
 40
0.8347721323848083
 50
322.44693384058758
 51
324.75511281547699
  0
LINE
  8
_0-0_
  6
CONTINUOUS
 62
    7
 10
821.85192838104285
 20
874.71758531943919
 11
821.85182380347771
 21
874.71744929234796
  0
ARC
  8
_0-0_
  6
CONTINUOUS
 62
    7
 10
821.18238912677634
 20
875.23211036373959
 40
0.844404408311766
 50
320.14180235648462
 51
322.44693384062128
  0
LINE
  8
_0-0_
  6
CONTINUOUS
 62
    7
 10
821.83058176699308
 20
874.69094023712023
 11
821.83047009055758
 21
874.69080647540648
  0
ARC
  8
_0-0_
  6
CONTINUOUS
 62
    7
 10
821.17549472642293
 20
875.23763943639437
 40
0.8532403031068993
 50
317.8371427853163
 51
320.14180235656994
  0
LINE
  8
_0-0_
  6
CONTINUOUS
 62
    7
 10
821.80795047723325
 20
874.66491023501476
 11
821.80783119582782
 21
874.66477851445518
  0
ARC
  8
_0-0_
  6
CONTINUOUS
 62
    7
 10
821.16928072801625
 20
875.24302687254522
 40
0.8614626304002712
 50
315.53084591368025
 51
317.83714278529055
  0
LINE
  8
_0-0_
  6
CONTINUOUS
 62
    7
 10
821.78404431429465
 20
874.6395506123971
 11
821.78391678901744
 21
874.63942070190694
  0
ARC
  8
_0-0_
  6
CONTINUOUS
 62
    7
 10
821.16367507239454
 20
875.24827451154795
 40
0.8691390847002453
 50
313.22092169582066
 51
315.53084591377637
  0
LINE
  8
_0-0_
  6
CONTINUOUS
 62
    7
 10
821.75887302933177
 20
874.61491668171448
 11
821.75873651504287
 21
874.61478839242511
  0
ARC
  8
_0-0_
  6
CONTINUOUS
 62
    7
 10
821.15821071314849
 20
875.25381565085911
 40
0.87691908165036
 50
310.90701544956534
 51
313.22092169580185
  0
LINE
  8
_0-0_
  6
CONTINUOUS
 62
    7
 10
821.73244657967973
 20
874.59106362683235
 11
821.73215980684029
 21
874.59081515493938
  0
ARC
  8
_0-0_
  6
CONTINUOUS
 62
    7
 10
821.15985497345275
 20
875.25133848480175
 40
0.8739701892005281
 50
308.58424084189028
 51
310.90701544958978
  0
LINE
  8
_0-0_
  6
CONTINUOUS
 62
    7
 10
821.70491925636384
 20
874.56816294432485
 11
821.7047103018723
 21
874.56799623222332
  0
ARC
  8
_0-0_
  6
CONTINUOUS
 62
    7
 10
821.14168875766018
 20
875.27367913940816
 40
0.9027633270906745
 50
306.36944849838818
 51
308.58424084188709
  0
ARC
  8
_0-0_
  6
CONTINUOUS
 62
    7
 10
821.13014019537889
 20
875.28936072788281
 40
0.9222384781260802
 50
304.20141522312747
 51
306.36944849832156
  0
LINE
  8
_0-0_
  6
CONTINUOUS
 62
    7
 10
821.64853395473096
 20
874.52660800202659
 11
821.64845329501316
 21
874.52655318282643
  0
ARC
  8
_0-0_
  6
CONTINUOUS
 62
    7
 10
821.12256916813158
 20
875.30032706421616
 40
0.9355640728602814
 50
302.05231378542845
 51
304.20141522321876
  0
LINE
  8
_0-0_
  6
CONTINUOUS
 62
    7
 10
821.61906680167749
 20
874.50737672887965
 11
821.61893589100134
 21
874.50729476051674
  0
ARC
  8
_0-0_
  6
CONTINUOUS
 62
    7
 10
821.11562462222923
 20
875.3111270698497
 40
0.948403192107936
 50
299.91364364538191
 51
302.05231378543186
  0
LINE
  8
_0-0_
  6
CONTINUOUS
 62
    7
 10
821.58858775236399
 20
874.48907202769396
 11
821.58846538175658
 21
874.48900162269365
  0
ARC
  8
_0-0_
  6
CONTINUOUS
 62
    7
 10
821.11114994529191
 20
875.3186213884718
 40
0.9571305980153249
 50
297.77757341687624
 51
299.91364364540993
  0
LINE
  8
_0-0_
  6
CONTINUOUS
 62
    7
 10
821.55721143754556
 20
874.47178720943452
 11
821.55709831650495
 21
874.47172762405
  0
ARC
  8
_0-0_
  6
CONTINUOUS
 62
    7
 10
821.1088902635322
 20
875.32263698334009
 40
0.9617365525324441
 50
295.63650223925777
 51
297.77757341684736
  0
LINE
  8
_0-0_
  6
CONTINUOUS
 62
    7
 10
821.52499539691405
 20
874.45557659648671
 11
821.52489157559546
 21
874.45552677229421
  0
ARC
  8
_0-0_
  6
CONTINUOUS
 62
    7
 10
821.10851831849789
 20
875.3231458627871
 40
0.9623562622094641
 50
293.48310200320674
 51
295.63650223926925
  0
LINE
  8
_0-0_
  6
CONTINUOUS
 62
    7
 10
821.49199668207325
 20
874.44049422137732
 11
821.49190171515943
 21
874.44045296188722
  0
ARC
  8
_0-0_
  6
CONTINUOUS
 62
    7
 10
821.10956965333855
 20
875.32046616206912
 40
0.9594795662183885
 50
291.31088523638255
 51
293.48310200315939
  0
LINE
  8
_0-0_
  6
CONTINUOUS
 62
    7
 10
821.4582716134372
 20
874.42659369856324
 11
821.45520840265522
 21
874.42539873211388
  0
ARC
  8
_0-0_
  6
CONTINUOUS
 62
    7
 10
821.1696870248727
 20
875.15731230458505
 40
0.7856334608061941
 50
289.11048647748743
 51
291.31088523627699
  0
LINE
  8
_0-0_
  6
CONTINUOUS
 62
    7
 10
821.42689622464638
 20
874.4149758833513
 11
821.42297764630655
 21
874.41361815069774
  0
ARC
  8
_0-0_
  6
CONTINUOUS
 62
    7
 10
821.13588753476199
 20
875.24219444641801
 40
0.8769033070848368
 50
287.68087827346238
 51
289.11048647763988
  0
LINE
  8
_0-0_
  6
CONTINUOUS
 62
    7
 10
821.4022163152149
 20
874.40671351265667
 11
821.40136314947711
 21
874.4064415464378
  0
ARC
  8
_0-0_
  6
CONTINUOUS
 62
    7
 10
821.09637630993154
 20
875.36319390739914
 40
1.0041872596787
 50
286.53463579406866
 51
287.6808782733504
  0
ARC
  8
_0-0_
  6
CONTINUOUS
 62
    7
 10
821.08126243635547
 20
875.41410445540248
 40
1.0572938795341669
 50
285.44596416193957
 51
286.53463579438534
  0
LINE
  8
_0-0_
  6
CONTINUOUS
 62
    7
 10
821.36285093834476
 20
874.39499785487044
 11
821.35794889808631
 21
874.39364337618065
  0
ARC
  8
_0-0_
  6
CONTINUOUS
 62
    7
 10
821.12007134113458
 20
875.25455419710715
 40
0.8931702937792676
 50
283.50490548525835
 51
285.44596416175267
  0
LINE
  8
_0-0_
  6
CONTINUOUS
 62
    7
 10
821.32865216214657
 20
874.38608012449731
 11
821.32366236645714
 21
874.38488172869654
  0
ARC
  8
_0-0_
  6
CONTINUOUS
 62
    7
 10
820.99703078119376
 20
875.74488722546084
 40
1.3986790710240187
 50
281.84494827645835
 51
283.50490548529046
  0
LINE
  8
_0-0_
  6
CONTINUOUS
 62
    7
 10
821.28412911029648
 20
874.37599070156023
 11
821.28401334681189
 21
874.37596642251322
  0
ARC
  8
_0-0_
  6
CONTINUOUS
 62
    7
 10
820.93900133806721
 20
876.02099772921224
 40
1.6808216104625258
 50
280.45553878381872
 51
281.84494827645153
  0
LINE
  8
_0-0_
  6
CONTINUOUS
 62
    7
 10
821.24402418766704
 20
874.36808443825601
 11
821.24391261989706
 21
874.36806384992906
  0
ARC
  8
_0-0_
  6
CONTINUOUS
 62
    7
 10
820.86548142711786
 20
876.41877562145373
 40
2.0853366484906579
 50
279.329394986789
 51
280.45553878380042
  0
LINE
  8
_0-0_
  6
CONTINUOUS
 62
    7
 10
821.20353555052588
 20
874.36102239349248
 11
821.20343503053584
 21
874.36100587975477
  0
ARC
  8
_0-0_
  6
CONTINUOUS
 62
    7
 10
820.76316663020236
 20
877.04094278694436
 40
2.715860469694483
 50
278.46039141846626
 51
279.32939498685602
  0
LINE
  8
_0-0_
  6
CONTINUOUS
 62
    7
 10
821.16273941882798
 20
874.35463683314106
 11
821.16265545527506
 21
874.35462434403837
  0
ARC
  8
_0-0_
  6
CONTINUOUS
 62
    7
 10
820.60069439999154
 20
878.13265771262581
 40
3.8195989791881959
 50
277.83994882562473
 51
278.46039141850486
  0
LINE
  8
_0-0_
  6
CONTINUOUS
 62
    7
 10
821.12171186722981
 20
874.34876062620185
 11
821.12164869976641
 21
874.34875192846209
  0
ARC
  8
_0-0_
  6
CONTINUOUS
 62
    7
 10
820.3348571611981
 20
880.06283715144195
 40
5.7679988610122708
 50
277.42781948656204
 51
277.83994882549598
  0
LINE
  8
_0-0_
  6
CONTINUOUS
 62
    7
 10
821.08052720571789
 20
874.34324039595776
 11
821.03925429237381
 21
874.33785960139357
  0
LINE
  8
_0-0_
  6
CONTINUOUS
 62
    7
 10
821.03925429237381
 20
874.33785960139357
 11
821.03796467632742
 21
874.33769305485464
  0
ARC
  8
_0-0_
  6
CONTINUOUS
 62
    7
 10
1017.7668720569777
 20
879.58231072296439
 40
6.2000000247405787
 50
46.674385175522715
 51
229.82223065291222
  0
ARC
  8
_0-0_
  6
CONTINUOUS
 62
    7
 10
1017.7668720400022
 20
879.58231070496652
 40
5.0000000304230383
 50
46.674385208679411
 51
216.8698984348849
  0
LINE
  8
_0-2_FRF74-1311
  6
CONTINUOUS
 62
    7
 10
795.54543590900118
 20
669.43703918082326
 11
795.54543590900118
 21
669.43703918082326
  0
LINE
  8
_0-2_FRF74-1311
  6
CONTINUOUS
 62
    7
 10
795.54543590900118
 20
669.43703918082326
 11
795.60607541668708
 21
669.15919757019822
  0
LINE
  8
_0-2_FRF74-1311
  6
CONTINUOUS
 62
    7
 10
795.60607541668708
 20
669.15919757019822
 11
795.78641039740774
 21
668.88978897394702
  0
LINE
  8
_0-2_FRF74-1311
  6
CONTINUOUS
 62
    7
 10
795.78641039740774
 20
668.88978897394702
 11
796.08096146402784
 21
668.63699923593936
  0
LINE
  8
_0-2_FRF74-1311
  6
CONTINUOUS
 62
    7
 10
796.08096146402784
 20
668.63699923593936
 11
796.4807788314381
 21
668.40850924444692
  0
LINE
  8
_0-2_FRF74-1311
  6
CONTINUOUS
 62
    7
 10
796.4807788314381
 20
668.40850924444692
 11
796.9737142512472
 21
668.21126155223953
  0
LINE
  8
_0-2_FRF74-1311
  6
CONTINUOUS
 62
    7
 10
796.9737142512472
 20
668.21126155223953
 11
797.54479013016146
 21
668.05124943063288
  0
LINE
  8
_0-2_FRF74-1311
  6
CONTINUOUS
 62
    7
 10
797.54479013016146
 20
668.05124943063288
 11
798.17665461657862
 21
667.93333476697205
  0
LINE
  8
_0-2_FRF74-1311
  6
CONTINUOUS
 62
    7
 10
798.17665461657862
 20
667.93333476697205
 11
798.85010882781751
 21
667.86110033864441
  0
LINE
  8
_0-2_FRF74-1311
  6
CONTINUOUS
 62
    7
 10
798.85010882781751
 20
667.86110033864441
 11
799.54469019845419
 21
667.83674095220249
  0
LINE
  8
_0-2_FRF74-1311
  6
CONTINUOUS
 62
    7
 10
799.54469019845419
 20
667.83674095220249
 11
800.23929422501681
 21
667.86099675527691
  0
LINE
  8
_0-2_FRF74-1311
  6
CONTINUOUS
 62
    7
 10
800.23929422501681
 20
667.86099675527691
 11
800.9128157156448
 21
667.93313074756509
  0
LINE
  8
_0-2_FRF74-1311
  6
CONTINUOUS
 62
    7
 10
800.9128157156448
 20
667.93313074756509
 11
801.5447900606639
 21
668.05095117421308
  0
LINE
  8
_0-2_FRF74-1311
  6
CONTINUOUS
 62
    7
 10
801.5447900606639
 20
668.05095117421308
 11
802.11601503939505
 21
668.2108781211773
  0
LINE
  8
_0-2_FRF74-1311
  6
CONTINUOUS
 62
    7
 10
802.11601503939505
 20
668.2108781211773
 11
802.6091342699134
 21
668.40805228910085
  0
LINE
  8
_0-2_FRF74-1311
  6
CONTINUOUS
 62
    7
 10
802.6091342699134
 20
668.40805228910085
 11
803.00916457392998
 21
668.6364826406666
  0
LINE
  8
_0-2_FRF74-1311
  6
CONTINUOUS
 62
    7
 10
803.00916457392998
 20
668.6364826406666
 11
803.30395123308233
 21
668.88922843523346
  0
LINE
  8
_0-2_FRF74-1311
  6
CONTINUOUS
 62
    7
 10
803.30395123308233
 20
668.88922843523346
 11
803.48453730390122
 21
669.15861011972902
  0
LINE
  8
_0-2_FRF74-1311
  6
CONTINUOUS
 62
    7
 10
803.48453730390122
 20
669.15861011972902
 11
803.54543577000607
 21
669.43644266798367
  0
LINE
  8
_0-2_FRF74-1311
  6
CONTINUOUS
 62
    7
 10
803.54543577000607
 20
669.43644266798367
 11
803.53796466799042
 21
669.53448635187863
  0
TEXT
  8
_0-2_FRF74-1311
 62
    7
 10
704.52645968509307
 20
506.99149662678968
 40
6
 41
1
 50
0
  1
ペーパーホルダー　-LANGBERGER,Runua-
  0
TEXT
  8
_0-2_FRF74-1311
 62
    7
 10
704.92295806700326
 20
488.6359612205132
 40
6
 41
1
 50
0
  1
クローム
  0
ENDSEC
  0
EOF
