  0
SECTION
  2
HEADER
  9
$ACADVER
  1
AC1009
  9
$INSBASE
 10
0
 20
0
 30
0
  9
$EXTMIN
 10
0
 20
0
  9
$EXTMAX
 10
4205
 20
2970
  9
$LIMMIN
 10
0
 20
0
  9
$LIMMAX
 10
4205
 20
2970
  9
$LTSCALE
 40
5
  0
ENDSEC
  0
SECTION
  2
TABLES
  0
TABLE
  2
LTYPE
 70
     9
  0
LTYPE
  2
CONTINUOUS
 70
    64
  3
実線
 72
    65
 73
     0
 40
0.0
  0
LTYPE
  2
DASHED1
 70
    64
  3
--  --  --  --  --  --  --  --  
 72
    65
 73
     2
 40
2.5
 49
1.25
 49
-1.25
  0
LTYPE
  2
DASHED2
 70
    64
  3
----    ----    ----    ----    
 72
    65
 73
     2
 40
5.0
 49
2.5
 49
-2.5
  0
LTYPE
  2
DASHED3
 70
    64
  3
------  ------  ------  ------  
 72
    65
 73
     2
 40
5.0
 49
3.75
 49
-1.25
  0
LTYPE
  2
CENTER1
 70
    64
  3
----- - ----- - ----- - ----- - 
 72
    65
 73
     4
 40
10.0
 49
6.25
 49
-1.25
 49
1.25
 49
-1.25
  0
LTYPE
  2
CENTER2
 70
    64
  3
----------  --  ----------  --  
 72
    65
 73
     4
 40
20.0
 49
12.5
 49
-2.5
 49
2.5
 49
-2.5
  0
LTYPE
  2
PHANTOM1
 70
    64
  3
--- - - --- - - --- - - --- - - 
 72
    65
 73
     6
 40
10.0
 49
3.25
 49
-1.25
 49
1.25
 49
-1.25
 49
1.25
 49
-1.25
  0
LTYPE
  2
PHANTOM2
 70
    64
  3
--------  -  -  --------  -  -  
 72
    65
 73
     6
 40
20.0
 49
10.0
 49
-2.5
 49
1.25
 49
-2.5
 49
1.25
 49
-2.5
  0
LTYPE
  2
DOT
 70
    64
  3
-   -   -   -   -   -   -   -   
 72
    65
 73
     2
 40
2.5
 49
0.625
 49
-1.875
  0
LTYPE
  2
DUMMY
 70
    64
  3
ダミー
 72
    65
 73
     0
 40
0.0
  0
LTYPE
  2
RAND1
 70
    64
  3
ランダム線1
 72
    65
 73
     4
 40
10.0
 49
1.0
 49
-2.0
 49
3.0
 49
-4.0
  0
LTYPE
  2
RAND2
 70
    64
  3
ランダム線2
 72
    65
 73
     4
 40
14.0
 49
2.0
 49
-3.0
 49
4.0
 49
-5.0
  0
LTYPE
  2
RAND3
 70
    64
  3
ランダム線3
 72
    65
 73
     4
 40
18.0
 49
3.0
 49
-4.0
 49
5.0
 49
-6.0
  0
LTYPE
  2
RAND4
 70
    64
  3
ランダム線4
 72
    65
 73
     4
 40
22.0
 49
4.0
 49
-5.0
 49
6.0
 49
-7.0
  0
LTYPE
  2
RAND5
 70
    64
  3
ランダム線5
 72
    65
 73
     4
 40
26.0
 49
5.0
 49
-6.0
 49
7.0
 49
-8.0
  0
LTYPE
  2
LONG1
 70
    64
  3
----------  --  ----------  --  
 72
    65
 73
     4
 40
40.0
 49
32.5
 49
-2.5
 49
2.5
 49
-2.5
  0
LTYPE
  2
LONG2
 70
    64
  3
--------  -  -  --------  -  -  
 72
    65
 73
     6
 40
40.0
 49
30.0
 49
-2.5
 49
1.25
 49
-2.5
 49
1.25
 49
-2.5
  0
LTYPE
  2
LONG3
 70
    64
  3
+++++++++++++++..+++++++++++++++
 72
    65
 73
     2
 40
40.0
 49
37.5
 49
-2.5
  0
LTYPE
  2
LONG4
 70
    64
  3
+++++++++++++++..+++++++++++++++
 72
    65
 73
     2
 40
80.0
 49
75.0
 49
-5.0
  0
LTYPE
  2
LONG5
 70
    64
  3
----------  --  ----------  --  
 72
    65
 73
     4
 40
60.0
 49
37.5
 49
-7.5
 49
7.5
 49
-7.5
  0
LTYPE
  2
dashed
 70
   64
  3
-------   -------------   ------
 72
   65
 73
    2
 40
7.5
 49
6
 49
-1.5
  0
LTYPE
  2
dashed_spaced
 70
   64
  3
----        --------        ----
 72
   65
 73
    2
 40
12
 49
6
 49
-6
  0
LTYPE
  2
long_dashed_dotted
 70
   64
  3
------------- --- --------------
 72
   65
 73
    4
 40
15.25
 49
12
 49
-1.5
 49
0.25
 49
-1.5
  0
LTYPE
  2
long_dashed_double-dotted
 70
   64
  3
----------- --- --- ------------
 72
   65
 73
    6
 40
17
 49
12
 49
-1.5
 49
0.25
 49
-1.5
 49
0.25
 49
-1.5
  0
LTYPE
  2
long_dashed_triplicate-dotted
 70
   64
  3
--------- --- --- --- ----------
 72
   65
 73
    8
 40
18.75
 49
12
 49
-1.5
 49
0.25
 49
-1.5
 49
0.25
 49
-1.5
 49
0.25
 49
-1.5
  0
LTYPE
  2
dotted
 70
   64
  3
   -       -       -       -    
 72
   65
 73
    2
 40
1.75
 49
0.25
 49
-1.5
  0
LTYPE
  2
chain
 70
   64
  3
-------------- -- --------------
 72
   65
 73
    4
 40
18.5
 49
12
 49
-1.5
 49
3.5
 49
-1.5
  0
LTYPE
  2
chain_double_dash
 70
   64
  3
------------ -- -- -------------
 72
   65
 73
    6
 40
23.5
 49
12
 49
-1.5
 49
3.5
 49
-1.5
 49
3.5
 49
-1.5
  0
LTYPE
  2
dashed_dotted
 70
   64
  3
-----------     -     ----------
 72
   65
 73
    4
 40
9.25
 49
6
 49
-1.5
 49
0.25
 49
-1.5
  0
LTYPE
  2
double-dashed_dotted
 70
   64
  3
------   -----------   -   -----
 72
   65
 73
    6
 40
16.75
 49
6
 49
-1.5
 49
6
 49
-1.5
 49
0.25
 49
-1.5
  0
LTYPE
  2
dashed_double-dotted
 70
   64
  3
---------    -    -    ---------
 72
   65
 73
    6
 40
11
 49
6
 49
-1.5
 49
0.25
 49
-1.5
 49
0.25
 49
-1.5
  0
LTYPE
  2
double-dashed_double-dotted
 70
   64
  3
-----   ---------   -   -   ----
 72
   65
 73
    8
 40
18.5
 49
6
 49
-1.5
 49
6
 49
-1.5
 49
0.25
 49
-1.5
 49
0.25
 49
-1.5
  0
LTYPE
  2
dashed_triplicate-dotted
 70
   64
  3
-------    -    -    -    ------
 72
   65
 73
    8
 40
12.75
 49
6
 49
-1.5
 49
0.25
 49
-1.5
 49
0.25
 49
-1.5
 49
0.25
 49
-1.5
  0
LTYPE
  2
double-dashed_triplicate-dotted
 70
   64
  3
-----  ---------  -  -  -  -----
 72
   65
 73
   10
 40
20.25
 49
6
 49
-1.5
 49
6
 49
-1.5
 49
0.25
 49
-1.5
 49
0.25
 49
-1.5
 49
0.25
 49
-1.5
  0
LTYPE
  2
undefined
 70
   64
  3
--------------------------------
 72
   65
 73
    0
 40
0
  0
ENDTAB
  0
TABLE
  2
STYLE
  5
3
100
AcDbSymbolTable
 70
     1
  0
STYLE
  5
10
100
AcDbSymbolTableRecord
100
AcDbTextStyleTableRecord
  2
STANDARD
 70
     0
 40
0.0
 41
1.0
 50
0.0
 71
     0
 42
0.2
  3
txt
  4
bigfont.shx
  0
STYLE
  5
26
100
AcDbSymbolTableRecord
100
AcDbTextStyleTableRecord
  2
TATEGAKI
 70
    68
 40
0.0
 41
1.0
 50
0.0
 71
     0
 42
1.0
  3
txt
  4
bigfont.shx
  0
ENDTAB
  0
TABLE
  2
LAYER
 70
    4
  0
LAYER
  2
_0-0_FRF74-1505
 70
   64
 62
    7
  6
CONTINUOUS
  0
LAYER
  2
_0-1_
 70
   64
 62
    7
  6
CONTINUOUS
  0
LAYER
  2
_0-2_
 70
   64
 62
    7
  6
CONTINUOUS
  0
LAYER
  2
ADD_LINE
 70
   64
 62
    7
  6
CONTINUOUS
  0
ENDTAB
  0
ENDSEC
  0
SECTION
  2
BLOCKS
  0
ENDSEC
  0
SECTION
  2
ENTITIES
  0
LINE
  8
_0-1_
  6
CONTINUOUS
 62
    4
 10
1671.1796973997702
 20
1490.8288512945612
 11
2271.1796973997702
 21
1490.8288512945612
  0
LINE
  8
_0-1_
  6
CONTINUOUS
 62
    4
 10
2271.1796973997702
 20
1490.8288512945612
 11
2271.1796973997702
 21
1559.8288512521947
  0
POINT
  8
_0-1_
 62
    7
 10
1667.17969739977
 20
1490.8288512945612
  0
LINE
  8
_0-1_
  6
CONTINUOUS
 62
    4
 10
1667.17969739977
 20
1490.8288512945612
 11
1667.17969739977
 21
1559.8288512521947
  0
LINE
  8
_0-1_
  6
CONTINUOUS
 62
    4
 10
1671.1796973997702
 20
1490.8288512945612
 11
1667.17969739977
 21
1490.8288512945612
  0
LINE
  8
_0-0_FRF74-1505
  6
CONTINUOUS
 62
    7
 10
2449.1140974901255
 20
1892.7705358139578
 11
2449.1140974901255
 21
1916.7705360225741
  0
LINE
  8
_0-0_FRF74-1505
  6
CONTINUOUS
 62
    7
 10
2377.1140968642767
 20
1916.7705360225741
 11
2377.1140968642767
 21
1892.7705358139578
  0
LINE
  8
_0-0_FRF74-1505
  6
CONTINUOUS
 62
    7
 10
2449.1140974901255
 20
1892.7705358139578
 11
2449.1140974901255
 21
1909.1507067587384
  0
LINE
  8
_0-0_FRF74-1505
  6
CONTINUOUS
 62
    7
 10
2413.1140953145559
 20
1892.7705358139578
 11
2413.1140953145559
 21
1916.7705360225741
  0
LINE
  8
_0-0_FRF74-1505
  6
CONTINUOUS
 62
    7
 10
2449.1140974901255
 20
1915.7705360225741
 11
2476.1140963278349
 21
1915.7705360225741
  0
LINE
  8
_0-0_FRF74-1505
  6
CONTINUOUS
 62
    7
 10
2377.1140968642767
 20
1916.7705360225741
 11
2449.1140974901255
 21
1916.7705360225741
  0
LINE
  8
_0-0_FRF74-1505
  6
CONTINUOUS
 62
    7
 10
2449.1140974901255
 20
1893.7705360225741
 11
2476.1140963278349
 21
1893.7705360225741
  0
LINE
  8
_0-0_FRF74-1505
  6
CONTINUOUS
 62
    7
 10
2377.1140968642767
 20
1892.7705358139578
 11
2449.1140974901255
 21
1892.7705358139578
  0
LINE
  8
_0-0_FRF74-1505
  6
CONTINUOUS
 62
    7
 10
2476.1140963278349
 20
1915.7705360225741
 11
2476.1140963278349
 21
1893.7705360225741
  0
LINE
  8
_0-2_
  6
CONTINUOUS
 62
    7
 10
2552.5662833856559
 20
971.19795300716578
 11
2552.5662833856559
 21
2371.1979530071658
  0
LINE
  8
_0-2_
  6
CONTINUOUS
 62
    7
 10
2552.566283385414
 20
1056.1979530071658
 11
1577.5662833854144
 21
1056.1979530071658
  0
LINE
  8
_0-2_
  6
CONTINUOUS
 62
    7
 10
2552.5662833856559
 20
2371.1979530071658
 11
1577.5662833856554
 21
2371.1979530071658
  0
LINE
  8
_0-2_
  6
CONTINUOUS
 62
    7
 10
1577.5662833856554
 20
2371.1979530071658
 11
1577.5662833856554
 21
971.19795300716578
  0
LINE
  8
_0-2_
  6
CONTINUOUS
 62
    7
 10
1577.5662833856554
 20
971.19795300716578
 11
2552.5662833856559
 21
971.19795300716578
  0
LINE
  8
_0-2_
  6
CONTINUOUS
 62
    7
 10
2552.566283385414
 20
1098.6979530071658
 11
1577.5662833854144
 21
1098.6979530071658
  0
LINE
  8
_0-2_
  6
CONTINUOUS
 62
    7
 10
2552.5662833856559
 20
1013.6979530071658
 11
2176.0662833856559
 21
1013.6979530071658
  0
LINE
  8
_0-2_
  6
CONTINUOUS
 62
    7
 10
2427.066283385785
 20
1013.6979530071658
 11
2427.066283385785
 21
1056.1979530071658
  0
LINE
  8
_0-2_
  6
CONTINUOUS
 62
    7
 10
2301.566283385785
 20
1013.6979530071658
 11
2301.566283385785
 21
1056.1979530071658
  0
LINE
  8
_0-2_
  6
CONTINUOUS
 62
    7
 10
2176.066283385785
 20
971.19795300716578
 11
2176.066283385785
 21
1098.6979530071658
  0
TEXT
  8
_0-2_
 62
    7
 10
2196.3388549397118
 20
983.13221232091132
 40
15
 41
1
 50
0
  1
大洋金物株式会社 ティーフォルム事業部
  0
TEXT
  8
_0-2_
 62
    7
 10
1582.8750828572131
 20
1080.7343511503877
 40
11
 41
1
 50
0
  1
品名
  0
TEXT
  8
_0-2_
 62
    7
 10
1584.6653190366922
 20
1037.1766457401898
 40
11
 41
1
 50
0
  1
仕様
  0
TEXT
  8
_0-2_
 62
    7
 10
2183.0590642652819
 20
1080.1315954814579
 40
11
 41
1
 50
0
  1
品番
  0
TEXT
  8
_0-2_
 62
    7
 10
2183.0568574992371
 20
1037.182349606808
 40
11
 41
1
 50
0
  1
重量
  0
TEXT
  8
_0-2_
 62
    7
 10
2308.1776163454042
 20
1037.5114084130682
 40
11
 41
1
 50
0
  1
容量
  0
TEXT
  8
_0-2_
 62
    7
 10
2433.6646030852935
 20
1037.4114153200876
 40
11
 41
1
 50
0
  1
縮尺
  0
TEXT
  8
_0-2_
 62
    7
 10
2211.5256034060785
 20
1065.334252852228
 40
15
 41
1
 50
0
  1
FRF74-1505
  0
TEXT
  8
_0-2_
 62
    7
 10
1578.1476923649509
 20
947.26970852156592
 40
15
 41
1
 50
0
  1
120911S
  0
LINE
  8
_0-1_
  6
CONTINUOUS
 62
    4
 10
1821.1796973997764
 20
1669.8288507581194
 11
2121.1796973997766
 21
1669.8288507581194
  0
POINT
  8
_0-1_
 62
    7
 10
1821.1796973997764
 20
1669.8288507581194
  0
POINT
  8
_0-1_
 62
    7
 10
2121.1796973997766
 20
1669.8288507581194
  0
LINE
  8
_0-1_
  6
CONTINUOUS
 62
    4
 10
1821.1796973997764
 20
1669.8288507581194
 11
1821.1796973997764
 21
1654.8288507581194
  0
LINE
  8
_0-1_
  6
CONTINUOUS
 62
    4
 10
2121.1796973997766
 20
1669.8288507581194
 11
2121.1796973997766
 21
1655.8288512521947
  0
TEXT
  8
_0-1_
 62
    4
 10
1961.8046973997766
 20
1672.3288507581194
 40
12.5
 41
1
 50
0
  1
300
  0
LINE
  8
_0-1_
  6
CONTINUOUS
 62
    4
 10
2325.6213444710493
 20
1639.8288507581194
 11
2325.6213444710493
 21
1540.8288512521947
  0
POINT
  8
_0-1_
 62
    7
 10
2325.6213444710493
 20
1639.8288507581194
  0
POINT
  8
_0-1_
 62
    7
 10
2325.6213444710493
 20
1540.8288512521947
  0
LINE
  8
_0-1_
  6
CONTINUOUS
 62
    4
 10
2325.6213444710493
 20
1639.8288507581194
 11
2157.1796905165361
 21
1639.8288507581194
  0
LINE
  8
_0-1_
  6
CONTINUOUS
 62
    4
 10
2325.6213444710493
 20
1540.8288512521947
 11
2254.1796973997707
 21
1540.8288512521947
  0
TEXT
  8
_0-1_
 62
    4
 10
2323.1213444710493
 20
1584.078851005157
 40
12.5
 41
1
 50
90
  1
99
  0
LINE
  8
_0-1_
  6
CONTINUOUS
 62
    4
 10
2302.5201562306474
 20
1608.8288512521947
 11
2302.5201562306474
 21
1544.8288519502123
  0
POINT
  8
_0-1_
 62
    7
 10
2302.5201562306474
 20
1608.8288512521947
  0
POINT
  8
_0-1_
 62
    7
 10
2302.5201562306474
 20
1544.8288519502123
  0
LINE
  8
_0-1_
  6
CONTINUOUS
 62
    4
 10
2302.5201562306474
 20
1608.8288512521947
 11
2254.1796973997698
 21
1608.8288512521947
  0
LINE
  8
_0-1_
  6
CONTINUOUS
 62
    4
 10
2302.5201562306474
 20
1544.8288519502123
 11
2254.179693377559
 21
1544.8288519502123
  0
TEXT
  8
_0-1_
 62
    4
 10
2300.0201562306474
 20
1570.5788516012035
 40
12.5
 41
1
 50
90
  1
64
  0
POINT
  8
_0-1_
 62
    7
 10
1671.1796973997702
 20
1490.8288512945612
  0
POINT
  8
_0-1_
 62
    7
 10
2271.1796973997702
 20
1490.8288512945612
  0
LINE
  8
_0-1_
  6
CONTINUOUS
 62
    4
 10
1671.1796973997702
 20
1490.8288512945612
 11
1671.1796973997702
 21
1559.8288512521947
  0
TEXT
  8
_0-1_
 62
    4
 10
1961.8046973997702
 20
1493.3288512945612
 40
12.5
 41
1
 50
0
  1
600
  0
LINE
  8
_0-1_
  6
CONTINUOUS
 62
    4
 10
2305.1796769266771
 20
1892.7705358139578
 11
2305.1796769266771
 21
1916.7705360225741
  0
POINT
  8
_0-1_
 62
    7
 10
2305.1796769266771
 20
1892.7705358139578
  0
POINT
  8
_0-1_
 62
    7
 10
2305.1796769266771
 20
1916.7705360225741
  0
LINE
  8
_0-1_
  6
CONTINUOUS
 62
    4
 10
2305.1796769266771
 20
1892.7705358139578
 11
2290.1796769266771
 21
1892.7705358139578
  0
LINE
  8
_0-1_
  6
CONTINUOUS
 62
    4
 10
2305.1796769266771
 20
1916.7705360225741
 11
2290.1796769266771
 21
1916.7705360225741
  0
TEXT
  8
_0-1_
 62
    4
 10
2320.1796769266771
 20
1898.520535918266
 40
12.5
 41
1
 50
90
  1
24
  0
LINE
  8
_0-0_FRF74-1505
  6
CONTINUOUS
 62
    7
 10
2275.1796769266771
 20
1916.7705360225741
 11
2275.1796769266771
 21
1892.7705358139578
  0
LINE
  8
_0-0_FRF74-1505
  6
CONTINUOUS
 62
    7
 10
1667.1796964770006
 20
1892.7705358139578
 11
1667.1796964770006
 21
1916.7705360225741
  0
LINE
  8
_0-0_FRF74-1505
  6
CONTINUOUS
 62
    7
 10
2275.1796769266771
 20
1916.7705360225741
 11
2239.179693377559
 21
1916.7705360225741
  0
LINE
  8
_0-0_FRF74-1505
  6
CONTINUOUS
 62
    7
 10
2239.179693377559
 20
1916.7705360225741
 11
2239.179693377559
 21
1892.7705358139578
  0
LINE
  8
_0-0_FRF74-1505
  6
CONTINUOUS
 62
    7
 10
2275.1796769266771
 20
1892.7705358139578
 11
2239.179693377559
 21
1892.7705358139578
  0
LINE
  8
_0-0_FRF74-1505
  6
CONTINUOUS
 62
    7
 10
2239.179693377559
 20
1916.7705360225741
 11
1703.1796949272798
 21
1916.7705360225741
  0
LINE
  8
_0-0_FRF74-1505
  6
CONTINUOUS
 62
    7
 10
1703.1796949272798
 20
1916.7705360225741
 11
1703.1796949272798
 21
1892.7705358139578
  0
LINE
  8
_0-0_FRF74-1505
  6
CONTINUOUS
 62
    7
 10
2239.179693377559
 20
1892.7705358139578
 11
1703.1796949272798
 21
1892.7705358139578
  0
LINE
  8
_0-0_FRF74-1505
  6
CONTINUOUS
 62
    7
 10
1703.1796949272798
 20
1916.7705360225741
 11
1667.1796964770006
 21
1916.7705360225741
  0
LINE
  8
_0-0_FRF74-1505
  6
CONTINUOUS
 62
    7
 10
1703.1796949272798
 20
1892.7705358139578
 11
1667.1796964770006
 21
1892.7705358139578
  0
LINE
  8
_0-0_FRF74-1505
  6
CONTINUOUS
 62
    7
 10
2131.1796980267213
 20
1639.8288507581194
 11
2111.1796947484659
 21
1639.8288507581194
  0
LINE
  8
_0-0_FRF74-1505
  6
CONTINUOUS
 62
    7
 10
2142.1796905165361
 20
1612.82885192041
 11
2142.1796905165361
 21
1639.8288507581194
  0
LINE
  8
_0-0_FRF74-1505
  6
CONTINUOUS
 62
    7
 10
2100.1796948080705
 20
1639.8288507581194
 11
2100.1796948080705
 21
1612.82885192041
  0
LINE
  8
_0-0_FRF74-1505
  6
CONTINUOUS
 62
    7
 10
1800.1796977883027
 20
1639.8288507581194
 11
1800.1796977883027
 21
1612.82885192041
  0
LINE
  8
_0-0_FRF74-1505
  6
CONTINUOUS
 62
    7
 10
1842.1796934967683
 20
1612.82885192041
 11
1842.1796934967683
 21
1639.8288507581194
  0
LINE
  8
_0-0_FRF74-1505
  6
CONTINUOUS
 62
    7
 10
2099.1797002320932
 20
1612.82885192041
 11
2099.1797002320932
 21
1608.8288512647589
  0
LINE
  8
_0-0_FRF74-1505
  6
CONTINUOUS
 62
    7
 10
1843.1796955233262
 20
1608.8288512647589
 11
1843.1796955233262
 21
1612.82885192041
  0
LINE
  8
_0-0_FRF74-1505
  6
CONTINUOUS
 62
    7
 10
2131.1796980267213
 20
1612.82885192041
 11
2131.1796980267213
 21
1639.8288507581194
  0
LINE
  8
_0-0_FRF74-1505
  6
CONTINUOUS
 62
    7
 10
2111.1796947484659
 20
1612.82885192041
 11
2111.1796947484659
 21
1639.8288507581194
  0
LINE
  8
_0-0_FRF74-1505
  6
CONTINUOUS
 62
    7
 10
2142.1796905165361
 20
1639.8288507581194
 11
2131.1796980267213
 21
1639.8288507581194
  0
LINE
  8
_0-0_FRF74-1505
  6
CONTINUOUS
 62
    7
 10
2111.1796947484659
 20
1639.8288507581194
 11
2100.1796948080705
 21
1639.8288507581194
  0
LINE
  8
_0-0_FRF74-1505
  6
CONTINUOUS
 62
    7
 10
1831.1797010069536
 20
1612.82885192041
 11
1831.1797010069536
 21
1639.8288507581194
  0
LINE
  8
_0-0_FRF74-1505
  6
CONTINUOUS
 62
    7
 10
1811.1796902781175
 20
1612.82885192041
 11
1811.1796902781175
 21
1639.8288507581194
  0
LINE
  8
_0-0_FRF74-1505
  6
CONTINUOUS
 62
    7
 10
1831.1797010069536
 20
1639.8288507581194
 11
1811.1796902781175
 21
1639.8288507581194
  0
LINE
  8
_0-0_FRF74-1505
  6
CONTINUOUS
 62
    7
 10
1811.1796902781175
 20
1639.8288507581194
 11
1800.1796977883027
 21
1639.8288507581194
  0
LINE
  8
_0-0_FRF74-1505
  6
CONTINUOUS
 62
    7
 10
1842.1796934967683
 20
1639.8288507581194
 11
1831.1797010069536
 21
1639.8288507581194
  0
LINE
  8
_0-0_FRF74-1505
  6
CONTINUOUS
 62
    7
 10
2099.1797002320932
 20
1612.82885192041
 11
2111.1796947484659
 21
1612.82885192041
  0
LINE
  8
_0-0_FRF74-1505
  6
CONTINUOUS
 62
    7
 10
2111.1796947484659
 20
1612.82885192041
 11
2111.1796947484659
 21
1608.8288512647589
  0
LINE
  8
_0-0_FRF74-1505
  6
CONTINUOUS
 62
    7
 10
2111.1796947484659
 20
1608.8288512647589
 11
2099.1797002320932
 21
1608.8288512647589
  0
LINE
  8
_0-0_FRF74-1505
  6
CONTINUOUS
 62
    7
 10
1843.1796955233262
 20
1608.8288512647589
 11
1831.1797010069536
 21
1608.8288512647589
  0
LINE
  8
_0-0_FRF74-1505
  6
CONTINUOUS
 62
    7
 10
1831.1797010069536
 20
1608.8288512647589
 11
1831.1797010069536
 21
1612.82885192041
  0
LINE
  8
_0-0_FRF74-1505
  6
CONTINUOUS
 62
    7
 10
1831.1797010069536
 20
1612.82885192041
 11
1843.1796955233262
 21
1612.82885192041
  0
ARC
  8
_0-0_FRF74-1505
  6
CONTINUOUS
 62
    7
 10
2239.1796973997698
 20
1576.8288512521945
 40
36.000000000000057
 50
270.00000000000068
 51
89.999999999999972
  0
LINE
  8
_0-0_FRF74-1505
  6
CONTINUOUS
 62
    7
 10
1703.1796949272798
 20
1540.8288512945612
 11
2239.179693377559
 21
1540.8288512945612
  0
LINE
  8
_0-0_FRF74-1505
  6
CONTINUOUS
 62
    7
 10
1831.1797010069536
 20
1608.8288512647589
 11
1703.1796949272798
 21
1608.8288512647589
  0
ARC
  8
_0-0_FRF74-1505
  6
CONTINUOUS
 62
    7
 10
1703.17969739977
 20
1576.8288512521945
 40
32
 50
90
 51
270.0000000000008
  0
LINE
  8
_0-0_FRF74-1505
  6
CONTINUOUS
 62
    7
 10
1703.1796949272798
 20
1544.8288519502123
 11
2239.179693377559
 21
1544.8288519502123
  0
ARC
  8
_0-0_FRF74-1505
  6
CONTINUOUS
 62
    7
 10
2239.1796973997698
 20
1576.8288512521945
 40
32
 50
270.0000000000008
 51
90
  0
LINE
  8
_0-0_FRF74-1505
  6
CONTINUOUS
 62
    7
 10
2239.179693377559
 20
1608.8288512647589
 11
2111.1796947484659
 21
1608.8288512647589
  0
ARC
  8
_0-0_FRF74-1505
  6
CONTINUOUS
 62
    7
 10
1703.17969739977
 20
1576.8288512521945
 40
36
 50
90
 51
270.0000000000008
  0
LINE
  8
_0-0_FRF74-1505
  6
CONTINUOUS
 62
    7
 10
1831.1797010069536
 20
1612.82885192041
 11
1703.1796949272798
 21
1612.82885192041
  0
LINE
  8
_0-0_FRF74-1505
  6
CONTINUOUS
 62
    7
 10
2239.179693377559
 20
1612.82885192041
 11
2111.1796947484659
 21
1612.82885192041
  0
TEXT
  8
_0-2_
 62
    7
 10
1614.6943364596746
 20
1066.3317848654224
 40
15
 41
1
 50
0
  1
タオルバー　-LANGBERGER,Lugano-
  0
TEXT
  8
_0-2_
 62
    7
 10
1611.6387933876513
 20
1016.5408091178824
 40
15
 41
1
 50
0
  1
クローム
  0
LINE
  8
_0-1_
  6
CONTINUOUS
 62
    4
 10
1667.1796964770006
 20
1966.7705360225741
 11
2275.1796769266771
 21
1966.7705360225741
  0
POINT
  8
_0-1_
 62
    7
 10
1667.1796964770006
 20
1966.7705360225741
  0
POINT
  8
_0-1_
 62
    7
 10
2275.1796769266771
 20
1966.7705360225741
  0
LINE
  8
_0-1_
  6
CONTINUOUS
 62
    4
 10
1667.1796964770006
 20
1966.7705360225741
 11
1667.1796964770006
 21
1931.7705360225741
  0
LINE
  8
_0-1_
  6
CONTINUOUS
 62
    4
 10
2275.1796769266771
 20
1966.7705360225741
 11
2275.1796769266771
 21
1931.7705360225741
  0
TEXT
  8
_0-1_
 62
    4
 10
1961.8046867018388
 20
1969.2705360225741
 40
12.5
 41
1
 50
0
  1
608
  0
LINE
  8
_0-1_
  6
CONTINUOUS
 62
    4
 10
2506.1140963278349
 20
1915.7705360225741
 11
2506.1140963278349
 21
1893.7705360225741
  0
POINT
  8
_0-1_
 62
    7
 10
2506.1140963278349
 20
1915.7705360225741
  0
POINT
  8
_0-1_
 62
    7
 10
2506.1140963278349
 20
1893.7705360225741
  0
LINE
  8
_0-1_
  6
CONTINUOUS
 62
    4
 10
2506.1140963278349
 20
1915.7705360225741
 11
2491.1140963278349
 21
1915.7705360225741
  0
LINE
  8
_0-1_
  6
CONTINUOUS
 62
    4
 10
2506.1140963278349
 20
1893.7705360225741
 11
2491.1140963278349
 21
1893.7705360225741
  0
TEXT
  8
_0-1_
 62
    4
 10
2503.6140963278349
 20
1898.5205360225741
 40
12.5
 41
1
 50
90
  1
22
  0
POINT
  8
_0-1_
 62
    7
 10
1671.1796973997702
 20
1490.8288512945612
  0
POINT
  8
_0-1_
 62
    7
 10
1667.17969739977
 20
1490.8288512945612
  0
LINE
  8
_0-1_
  6
CONTINUOUS
 62
    4
 10
1671.1796973997702
 20
1490.8288512945612
 11
1671.1796973997702
 21
1544.8288512521947
  0
LINE
  8
_0-1_
  6
CONTINUOUS
 62
    4
 10
1667.17969739977
 20
1490.8288512945612
 11
1667.17969739977
 21
1544.8288512521947
  0
TEXT
  8
_0-1_
 62
    4
 10
1658.6362721841197
 20
1493.437798232859
 40
12.5
 41
1
 50
0
  1
4
  0
LINE
  8
_0-1_
  6
CONTINUOUS
 62
    7
 10
1667.17969739977
 20
1490.8288512945612
 11
1658.9390120900412
 21
1490.8288512945612
  0
ENDSEC
  0
EOF
