  0
SECTION
  2
HEADER
  9
$ACADVER
  1
AC1009
  9
$INSBASE
 10
0
 20
0
 30
0
  9
$EXTMIN
 10
0
 20
0
  9
$EXTMAX
 10
1682
 20
1188
  9
$LIMMIN
 10
0
 20
0
  9
$LIMMAX
 10
1682
 20
1188
  9
$LTSCALE
 40
2
  0
ENDSEC
  0
SECTION
  2
TABLES
  0
TABLE
  2
LTYPE
 70
     9
  0
LTYPE
  2
CONTINUOUS
 70
    64
  3
実線
 72
    65
 73
     0
 40
0.0
  0
LTYPE
  2
DASHED1
 70
    64
  3
--  --  --  --  --  --  --  --  
 72
    65
 73
     2
 40
2.5
 49
1.25
 49
-1.25
  0
LTYPE
  2
DASHED2
 70
    64
  3
----    ----    ----    ----    
 72
    65
 73
     2
 40
5.0
 49
2.5
 49
-2.5
  0
LTYPE
  2
DASHED3
 70
    64
  3
------  ------  ------  ------  
 72
    65
 73
     2
 40
5.0
 49
3.75
 49
-1.25
  0
LTYPE
  2
CENTER1
 70
    64
  3
----- - ----- - ----- - ----- - 
 72
    65
 73
     4
 40
10.0
 49
6.25
 49
-1.25
 49
1.25
 49
-1.25
  0
LTYPE
  2
CENTER2
 70
    64
  3
----------  --  ----------  --  
 72
    65
 73
     4
 40
20.0
 49
12.5
 49
-2.5
 49
2.5
 49
-2.5
  0
LTYPE
  2
PHANTOM1
 70
    64
  3
--- - - --- - - --- - - --- - - 
 72
    65
 73
     6
 40
10.0
 49
3.25
 49
-1.25
 49
1.25
 49
-1.25
 49
1.25
 49
-1.25
  0
LTYPE
  2
PHANTOM2
 70
    64
  3
--------  -  -  --------  -  -  
 72
    65
 73
     6
 40
20.0
 49
10.0
 49
-2.5
 49
1.25
 49
-2.5
 49
1.25
 49
-2.5
  0
LTYPE
  2
DOT
 70
    64
  3
-   -   -   -   -   -   -   -   
 72
    65
 73
     2
 40
2.5
 49
0.625
 49
-1.875
  0
LTYPE
  2
DUMMY
 70
    64
  3
ダミー
 72
    65
 73
     0
 40
0.0
  0
LTYPE
  2
RAND1
 70
    64
  3
ランダム線1
 72
    65
 73
     4
 40
10.0
 49
1.0
 49
-2.0
 49
3.0
 49
-4.0
  0
LTYPE
  2
RAND2
 70
    64
  3
ランダム線2
 72
    65
 73
     4
 40
14.0
 49
2.0
 49
-3.0
 49
4.0
 49
-5.0
  0
LTYPE
  2
RAND3
 70
    64
  3
ランダム線3
 72
    65
 73
     4
 40
18.0
 49
3.0
 49
-4.0
 49
5.0
 49
-6.0
  0
LTYPE
  2
RAND4
 70
    64
  3
ランダム線4
 72
    65
 73
     4
 40
22.0
 49
4.0
 49
-5.0
 49
6.0
 49
-7.0
  0
LTYPE
  2
RAND5
 70
    64
  3
ランダム線5
 72
    65
 73
     4
 40
26.0
 49
5.0
 49
-6.0
 49
7.0
 49
-8.0
  0
LTYPE
  2
LONG1
 70
    64
  3
----------  --  ----------  --  
 72
    65
 73
     4
 40
40.0
 49
32.5
 49
-2.5
 49
2.5
 49
-2.5
  0
LTYPE
  2
LONG2
 70
    64
  3
--------  -  -  --------  -  -  
 72
    65
 73
     6
 40
40.0
 49
30.0
 49
-2.5
 49
1.25
 49
-2.5
 49
1.25
 49
-2.5
  0
LTYPE
  2
LONG3
 70
    64
  3
+++++++++++++++..+++++++++++++++
 72
    65
 73
     2
 40
40.0
 49
37.5
 49
-2.5
  0
LTYPE
  2
LONG4
 70
    64
  3
+++++++++++++++..+++++++++++++++
 72
    65
 73
     2
 40
80.0
 49
75.0
 49
-5.0
  0
LTYPE
  2
LONG5
 70
    64
  3
----------  --  ----------  --  
 72
    65
 73
     4
 40
60.0
 49
37.5
 49
-7.5
 49
7.5
 49
-7.5
  0
LTYPE
  2
dashed
 70
   64
  3
-------   -------------   ------
 72
   65
 73
    2
 40
7.5
 49
6
 49
-1.5
  0
LTYPE
  2
dashed_spaced
 70
   64
  3
----        --------        ----
 72
   65
 73
    2
 40
12
 49
6
 49
-6
  0
LTYPE
  2
long_dashed_dotted
 70
   64
  3
------------- --- --------------
 72
   65
 73
    4
 40
15.25
 49
12
 49
-1.5
 49
0.25
 49
-1.5
  0
LTYPE
  2
long_dashed_double-dotted
 70
   64
  3
----------- --- --- ------------
 72
   65
 73
    6
 40
17
 49
12
 49
-1.5
 49
0.25
 49
-1.5
 49
0.25
 49
-1.5
  0
LTYPE
  2
long_dashed_triplicate-dotted
 70
   64
  3
--------- --- --- --- ----------
 72
   65
 73
    8
 40
18.75
 49
12
 49
-1.5
 49
0.25
 49
-1.5
 49
0.25
 49
-1.5
 49
0.25
 49
-1.5
  0
LTYPE
  2
dotted
 70
   64
  3
   -       -       -       -    
 72
   65
 73
    2
 40
1.75
 49
0.25
 49
-1.5
  0
LTYPE
  2
chain
 70
   64
  3
-------------- -- --------------
 72
   65
 73
    4
 40
18.5
 49
12
 49
-1.5
 49
3.5
 49
-1.5
  0
LTYPE
  2
chain_double_dash
 70
   64
  3
------------ -- -- -------------
 72
   65
 73
    6
 40
23.5
 49
12
 49
-1.5
 49
3.5
 49
-1.5
 49
3.5
 49
-1.5
  0
LTYPE
  2
dashed_dotted
 70
   64
  3
-----------     -     ----------
 72
   65
 73
    4
 40
9.25
 49
6
 49
-1.5
 49
0.25
 49
-1.5
  0
LTYPE
  2
double-dashed_dotted
 70
   64
  3
------   -----------   -   -----
 72
   65
 73
    6
 40
16.75
 49
6
 49
-1.5
 49
6
 49
-1.5
 49
0.25
 49
-1.5
  0
LTYPE
  2
dashed_double-dotted
 70
   64
  3
---------    -    -    ---------
 72
   65
 73
    6
 40
11
 49
6
 49
-1.5
 49
0.25
 49
-1.5
 49
0.25
 49
-1.5
  0
LTYPE
  2
double-dashed_double-dotted
 70
   64
  3
-----   ---------   -   -   ----
 72
   65
 73
    8
 40
18.5
 49
6
 49
-1.5
 49
6
 49
-1.5
 49
0.25
 49
-1.5
 49
0.25
 49
-1.5
  0
LTYPE
  2
dashed_triplicate-dotted
 70
   64
  3
-------    -    -    -    ------
 72
   65
 73
    8
 40
12.75
 49
6
 49
-1.5
 49
0.25
 49
-1.5
 49
0.25
 49
-1.5
 49
0.25
 49
-1.5
  0
LTYPE
  2
double-dashed_triplicate-dotted
 70
   64
  3
-----  ---------  -  -  -  -----
 72
   65
 73
   10
 40
20.25
 49
6
 49
-1.5
 49
6
 49
-1.5
 49
0.25
 49
-1.5
 49
0.25
 49
-1.5
 49
0.25
 49
-1.5
  0
LTYPE
  2
undefined
 70
   64
  3
--------------------------------
 72
   65
 73
    0
 40
0
  0
ENDTAB
  0
TABLE
  2
STYLE
  5
3
100
AcDbSymbolTable
 70
     1
  0
STYLE
  5
10
100
AcDbSymbolTableRecord
100
AcDbTextStyleTableRecord
  2
STANDARD
 70
     0
 40
0.0
 41
1.0
 50
0.0
 71
     0
 42
0.2
  3
txt
  4
bigfont.shx
  0
STYLE
  5
26
100
AcDbSymbolTableRecord
100
AcDbTextStyleTableRecord
  2
TATEGAKI
 70
    68
 40
0.0
 41
1.0
 50
0.0
 71
     0
 42
1.0
  3
txt
  4
bigfont.shx
  0
ENDTAB
  0
TABLE
  2
LAYER
 70
    4
  0
LAYER
  2
_0-0_FRF74-1515
 70
   64
 62
    7
  6
CONTINUOUS
  0
LAYER
  2
_0-1_
 70
   64
 62
    7
  6
CONTINUOUS
  0
LAYER
  2
_0-2_
 70
   64
 62
    7
  6
CONTINUOUS
  0
LAYER
  2
ADD_LINE
 70
   64
 62
    7
  6
CONTINUOUS
  0
ENDTAB
  0
ENDSEC
  0
SECTION
  2
BLOCKS
  0
ENDSEC
  0
SECTION
  2
ENTITIES
  0
LINE
  8
_0-2_
  6
CONTINUOUS
 62
    7
 10
1079.8988725370491
 20
503.2673488237719
 11
689.8988725370491
 21
503.2673488237719
  0
LINE
  8
_0-2_
  6
CONTINUOUS
 62
    7
 10
1079.8988725371457
 20
1029.267348823772
 11
689.89887253714551
 21
1029.267348823772
  0
LINE
  8
_0-2_
  6
CONTINUOUS
 62
    7
 10
689.89887253714551
 20
1029.267348823772
 11
689.89887253714551
 21
469.2673488237719
  0
LINE
  8
_0-2_
  6
CONTINUOUS
 62
    7
 10
689.89887253714551
 20
469.2673488237719
 11
1079.8988725371457
 21
469.2673488237719
  0
LINE
  8
_0-2_
  6
CONTINUOUS
 62
    7
 10
1079.8988725371457
 20
469.2673488237719
 11
1079.8988725371457
 21
1029.267348823772
  0
LINE
  8
_0-2_
  6
CONTINUOUS
 62
    7
 10
1079.8988725370491
 20
520.26734882377195
 11
689.8988725370491
 21
520.26734882377195
  0
LINE
  8
_0-2_
  6
CONTINUOUS
 62
    7
 10
1079.8988725371457
 20
486.2673488237719
 11
929.29887253714571
 21
486.2673488237719
  0
LINE
  8
_0-2_
  6
CONTINUOUS
 62
    7
 10
1029.6988725371975
 20
486.2673488237719
 11
1029.6988725371975
 21
503.2673488237719
  0
LINE
  8
_0-2_
  6
CONTINUOUS
 62
    7
 10
979.49887253719749
 20
486.2673488237719
 11
979.49887253719749
 21
503.2673488237719
  0
LINE
  8
_0-2_
  6
CONTINUOUS
 62
    7
 10
929.29887253719744
 20
469.2673488237719
 11
929.29887253719744
 21
520.26734882377195
  0
TEXT
  8
_0-2_
 62
    7
 10
936.36516934588531
 20
473.92519932464324
 40
6
 41
1
 50
0
  1
大洋金物株式会社 ティーフォルム事業部
  0
TEXT
  8
_0-2_
 62
    7
 10
692.03092613020874
 20
496.95829989926438
 40
4.4000000000000004
 41
1
 50
0
  1
仕様
  0
TEXT
  8
_0-2_
 62
    7
 10
692.11008412622641
 20
513.7277384202182
 40
4.4000000000000004
 41
1
 50
0
  1
品名
  0
TEXT
  8
_0-2_
 62
    7
 10
931.58014201817321
 20
514.02354576782386
 40
4.4000000000000004
 41
1
 50
0
  1
品番
  0
TEXT
  8
_0-2_
 62
    7
 10
931.40046929208268
 20
496.85593532261146
 40
4.4000000000000004
 41
1
 50
0
  1
重量
  0
TEXT
  8
_0-2_
 62
    7
 10
981.63419090952073
 20
497.28379304790997
 40
4.4000000000000004
 41
1
 50
0
  1
容量
  0
TEXT
  8
_0-2_
 62
    7
 10
1031.8476186341097
 20
497.19837872271296
 40
4.4000000000000004
 41
1
 50
0
  1
縮尺
  0
TEXT
  8
_0-2_
 62
    4
 10
690.59866426069993
 20
460.90948008418826
 40
5
 41
1
 50
0
  1
120911S
  0
TEXT
  8
_0-2_
 62
    7
 10
942.89541103866486
 20
507.16508785728229
 40
6
 41
1
 50
0
  1
FRF74-1515
  0
LINE
  8
_0-1_
  6
CONTINUOUS
 62
    4
 10
935.59923712851969
 20
892.9371521893944
 11
935.59923712851969
 21
868.9371521893944
  0
POINT
  8
_0-1_
 62
    7
 10
935.59923712851969
 20
892.9371521893944
  0
POINT
  8
_0-1_
 62
    7
 10
935.59923712851969
 20
868.9371521893944
  0
TEXT
  8
_0-1_
 62
    4
 10
934.59923712851969
 20
878.4371521893944
 40
5
 41
1
 50
90
  1
24
  0
LINE
  8
_0-1_
  6
CONTINUOUS
 62
    4
 10
935.59923712851969
 20
892.9371521893944
 11
921.47737898954938
 21
892.9371521893944
  0
LINE
  8
_0-1_
  6
CONTINUOUS
 62
    4
 10
935.59923712851969
 20
868.9371521893944
 11
921.47737898954938
 21
868.9371521893944
  0
LINE
  8
_0-1_
  6
CONTINUOUS
 62
    4
 10
1072.1040249461689
 20
891.93715218939406
 11
1072.1040249461689
 21
869.93715218939417
  0
POINT
  8
_0-1_
 62
    7
 10
1072.1040249461689
 20
891.93715218939406
  0
POINT
  8
_0-1_
 62
    7
 10
1072.1040249461689
 20
869.93715218939417
  0
TEXT
  8
_0-1_
 62
    4
 10
1071.1040249461689
 20
878.43715218939406
 40
5
 41
1
 50
90
  1
22
  0
LINE
  8
_0-1_
  6
CONTINUOUS
 62
    4
 10
1072.1040249461689
 20
891.93715218939406
 11
1058.1040249461689
 21
891.93715218939406
  0
LINE
  8
_0-1_
  6
CONTINUOUS
 62
    4
 10
1072.1040249461689
 20
869.93715218939417
 11
1058.1040249461689
 21
869.93715218939417
  0
LINE
  8
_0-1_
  6
CONTINUOUS
 62
    4
 10
1052.1040249461689
 20
838.9371521893944
 11
951.10402494616892
 21
838.9371521893944
  0
POINT
  8
_0-1_
 62
    7
 10
1052.1040249461689
 20
838.9371521893944
  0
POINT
  8
_0-1_
 62
    7
 10
951.10402494616892
 20
838.9371521893944
  0
LINE
  8
_0-1_
  6
CONTINUOUS
 62
    4
 10
1052.1040249461689
 20
838.9371521893944
 11
1052.1040249461689
 21
863.93715218939417
  0
LINE
  8
_0-1_
  6
CONTINUOUS
 62
    4
 10
951.10402494616892
 20
838.9371521893944
 11
951.10402494616892
 21
862.9371521893944
  0
TEXT
  8
_0-1_
 62
    4
 10
997.85402494616892
 20
839.9371521893944
 40
5
 41
1
 50
0
  1
101
  0
LINE
  8
_0-1_
  6
CONTINUOUS
 62
    4
 10
951.10402494616892
 20
848.49482915969452
 11
1025.1040249461689
 21
848.49482915969452
  0
POINT
  8
_0-1_
 62
    7
 10
951.10402494616892
 20
848.49482915969452
  0
POINT
  8
_0-1_
 62
    7
 10
1025.1040249461689
 20
848.49482915969452
  0
LINE
  8
_0-1_
  6
CONTINUOUS
 62
    4
 10
951.10402494616892
 20
848.49482915969452
 11
951.10402494616892
 21
862.9371521893944
  0
LINE
  8
_0-1_
  6
CONTINUOUS
 62
    4
 10
1025.1040249461689
 20
848.49482915969452
 11
1025.1040249461689
 21
862.9371521893944
  0
TEXT
  8
_0-1_
 62
    4
 10
985.60402494616892
 20
849.49482915969452
 40
5
 41
1
 50
0
  1
74
  0
LINE
  8
_0-1_
  6
CONTINUOUS
 62
    4
 10
937.47737898954995
 20
655.29050235734053
 11
937.47737898954995
 21
692.29050235733871
  0
LINE
  8
_0-1_
  6
CONTINUOUS
 62
    4
 10
790.47737898955029
 20
786.29050235734064
 11
832.47737898955017
 21
786.29050235734064
  0
POINT
  8
_0-1_
 62
    7
 10
790.47737898955029
 20
786.29050235734064
  0
POINT
  8
_0-1_
 62
    7
 10
832.47737898955017
 20
786.29050235734064
  0
LINE
  8
_0-1_
  6
CONTINUOUS
 62
    4
 10
790.47737898955029
 20
786.29050235734064
 11
790.47737898955029
 21
762.29050235734053
  0
LINE
  8
_0-1_
  6
CONTINUOUS
 62
    4
 10
832.47737898955017
 20
786.29050235734064
 11
832.47737898955017
 21
762.29050235734064
  0
TEXT
  8
_0-1_
 62
    4
 10
808.97737898955029
 20
787.29050235734064
 40
5
 41
1
 50
0
  1
42
  0
LINE
  8
_0-1_
  6
CONTINUOUS
 62
    4
 10
705.47737898955029
 20
625.29050235734053
 11
917.47737898955029
 21
625.29050235734053
  0
POINT
  8
_0-1_
 62
    7
 10
705.47737898955029
 20
625.29050235734053
  0
POINT
  8
_0-1_
 62
    7
 10
917.47737898955029
 20
625.29050235734053
  0
LINE
  8
_0-1_
  6
CONTINUOUS
 62
    4
 10
705.47737898955029
 20
625.29050235734053
 11
705.47737898955029
 21
685.04050235734053
  0
LINE
  8
_0-1_
  6
CONTINUOUS
 62
    4
 10
917.47737898955029
 20
625.29050235734053
 11
917.47737898955029
 21
685.04050235733871
  0
TEXT
  8
_0-1_
 62
    4
 10
807.72737898955029
 20
626.29050235734053
 40
5
 41
1
 50
0
  1
212
  0
POINT
  8
_0-1_
 62
    7
 10
937.47737898954995
 20
655.29050235734053
  0
POINT
  8
_0-1_
 62
    7
 10
937.47737898954995
 20
692.29050235733871
  0
TEXT
  8
_0-1_
 62
    4
 10
936.47737898954995
 20
671.29050235733962
 40
5
 41
1
 50
90
  1
37
  0
LINE
  8
_0-1_
  6
CONTINUOUS
 62
    4
 10
937.47737898954995
 20
692.29050235733871
 11
924.72737898955029
 21
692.29050235733871
  0
LINE
  8
_0-1_
  6
CONTINUOUS
 62
    4
 10
937.47737898954995
 20
655.29050235734053
 11
887.72737898955029
 21
655.29050235734053
  0
LINE
  8
_0-0_FRF74-1515
  6
CONTINUOUS
 62
    7
 10
705.47737898955017
 20
892.9371521893944
 11
705.47737898955017
 21
868.9371521893944
  0
LINE
  8
_0-0_FRF74-1515
  6
CONTINUOUS
 62
    7
 10
880.47737898955029
 20
892.9371521893944
 11
742.47737898955029
 21
892.9371521893944
  0
LINE
  8
_0-0_FRF74-1515
  6
CONTINUOUS
 62
    7
 10
880.47737898955029
 20
868.9371521893944
 11
742.47737898955029
 21
868.9371521893944
  0
LINE
  8
_0-0_FRF74-1515
  6
CONTINUOUS
 62
    7
 10
742.47737898955029
 20
868.9371521893944
 11
705.47737898955017
 21
868.9371521893944
  0
LINE
  8
_0-0_FRF74-1515
  6
CONTINUOUS
 62
    7
 10
742.47737898955029
 20
892.9371521893944
 11
705.47737898955017
 21
892.9371521893944
  0
LINE
  8
_0-0_FRF74-1515
  6
CONTINUOUS
 62
    7
 10
915.47737898954938
 20
868.9371521893944
 11
915.48076005206326
 21
868.93759450882612
  0
ARC
  8
_0-0_FRF74-1515
  6
CONTINUOUS
 62
    7
 10
913.92226180981038
 20
880.85065915547591
 40
12.014575566634127
 50
277.45325618314649
 51
277.92546168616593
  0
LINE
  8
_0-0_FRF74-1515
  6
CONTINUOUS
 62
    7
 10
915.57888801998911
 20
868.95084337345179
 11
915.58883090190398
 21
868.95222756620626
  0
ARC
  8
_0-0_FRF74-1515
  6
CONTINUOUS
 62
    7
 10
915.2206718615073
 20
871.59677389312685
 40
2.670049878608125
 50
277.92546168616673
 51
279.61932260806873
  0
LINE
  8
_0-0_FRF74-1515
  6
CONTINUOUS
 62
    7
 10
915.66684055412225
 20
868.96426561166118
 11
915.66711454261031
 21
868.96431204839462
  0
ARC
  8
_0-0_FRF74-1515
  6
CONTINUOUS
 62
    7
 10
915.05376538107646
 20
872.58322743599786
 40
3.6705239103682912
 50
279.61932260804736
 51
280.84285567981323
  0
ARC
  8
_0-0_FRF74-1515
  6
CONTINUOUS
 62
    7
 10
915.49772130495171
 20
870.26534947313576
 40
1.3105122339002027
 50
280.84285567985347
 51
284.26887468020414
  0
LINE
  8
_0-0_FRF74-1515
  6
CONTINUOUS
 62
    7
 10
915.82072662176927
 20
868.99526684570174
 11
915.84588422003219
 21
869.00166488455511
  0
ARC
  8
_0-0_FRF74-1515
  6
CONTINUOUS
 62
    7
 10
915.61405901840328
 20
869.91322003817379
 40
0.9405720186137321
 50
284.26887468015855
 51
288.99660384776814
  0
LINE
  8
_0-0_FRF74-1515
  6
CONTINUOUS
 62
    7
 10
915.92022660001885
 20
869.02387357353427
 11
915.93248041333732
 21
869.02809208739632
  0
ARC
  8
_0-0_FRF74-1515
  6
CONTINUOUS
 62
    7
 10
915.59079300074893
 20
870.02061549824612
 40
1.0496918638373622
 50
288.99660384780651
 51
291.81993849900618
  0
ARC
  8
_0-0_FRF74-1515
  6
CONTINUOUS
 62
    7
 10
915.62531505762036
 20
869.93439123089388
 40
0.9568134665047449
 50
291.8199384989806
 51
294.91720820300174
  0
LINE
  8
_0-0_FRF74-1515
  6
CONTINUOUS
 62
    7
 10
916.02842843203962
 20
869.0666403351587
 11
916.03850377443791
 21
869.0713208319379
  0
ARC
  8
_0-0_FRF74-1515
  6
CONTINUOUS
 62
    7
 10
915.74857643753057
 20
869.69542492340406
 40
0.6881597036088449
 50
294.91720820297996
 51
301.06869863412032
  0
LINE
  8
_0-0_FRF74-1515
  6
CONTINUOUS
 62
    7
 10
916.10371189353282
 20
869.10598231757967
 11
916.10427704022914
 21
869.10632281490325
  0
ARC
  8
_0-0_FRF74-1515
  6
CONTINUOUS
 62
    7
 10
915.41420465271017
 20
870.251683153984
 40
1.3371799453907611
 50
301.06869863414158
 51
304.29320660543686
  0
LINE
  8
_0-0_FRF74-1515
  6
CONTINUOUS
 62
    7
 10
916.16760940454856
 20
869.14695174487917
 11
916.17075095752944
 21
869.14909422125356
  0
ARC
  8
_0-0_FRF74-1515
  6
CONTINUOUS
 62
    7
 10
915.69213197892213
 20
869.85090213707952
 40
0.8494765902596607
 50
304.29320660543033
 51
309.87884267013067
  0
LINE
  8
_0-0_FRF74-1515
  6
CONTINUOUS
 62
    7
 10
916.23678774170389
 20
869.19901213296248
 11
916.24833080227279
 21
869.20865638953831
  0
ARC
  8
_0-0_FRF74-1515
  6
CONTINUOUS
 62
    7
 10
915.32872318075647
 20
870.30932043670578
 40
1.4342731686390184
 50
309.87884267013271
 51
314.38910090841728
  0
LINE
  8
_0-0_FRF74-1515
  6
CONTINUOUS
 62
    7
 10
916.33203658606817
 20
869.28438056871369
 11
916.33332241874223
 21
869.2856392700279
  0
ARC
  8
_0-0_FRF74-1515
  6
CONTINUOUS
 62
    7
 10
915.18507062050708
 20
870.45864168410344
 40
1.6414678966027376
 50
314.38910090840972
 51
318.45599258162707
  0
LINE
  8
_0-0_FRF74-1515
  6
CONTINUOUS
 62
    7
 10
916.41362161854227
 20
869.37002820779321
 11
916.41498217554033
 21
869.37156365971839
  0
ARC
  8
_0-0_FRF74-1515
  6
CONTINUOUS
 62
    7
 10
915.11090412547833
 20
870.52710131483354
 40
1.7423796466449779
 50
318.45599258160769
 51
322.42229347320972
  0
LINE
  8
_0-0_FRF74-1515
  6
CONTINUOUS
 62
    7
 10
916.49178701792925
 20
869.46453401325743
 11
916.50631378564992
 21
869.48341259628762
  0
ARC
  8
_0-0_FRF74-1515
  6
CONTINUOUS
 62
    7
 10
915.39816858986683
 20
870.33611260211364
 40
1.3982428526092732
 50
322.42229347320159
 51
326.9440843936797
  0
LINE
  8
_0-0_FRF74-1515
  6
CONTINUOUS
 62
    7
 10
916.57008996559534
 20
869.57343090967345
 11
916.57298513437445
 21
869.57787956789127
  0
ARC
  8
_0-0_FRF74-1515
  6
CONTINUOUS
 62
    7
 10
913.76110607109376
 20
871.40783909191236
 40
3.3549091978878058
 50
326.94408439370085
 51
328.64821303235954
  0
ARC
  8
_0-0_FRF74-1515
  6
CONTINUOUS
 62
    7
 10
915.07431679324327
 20
870.60776782747519
 40
1.8171717596537929
 50
328.64821303231651
 51
331.79386069280321
  0
LINE
  8
_0-0_FRF74-1515
  6
CONTINUOUS
 62
    7
 10
916.67570451752454
 20
869.7488903271269
 11
916.68465849568634
 21
869.76558513017631
  0
ARC
  8
_0-0_FRF74-1515
  6
CONTINUOUS
 62
    7
 10
914.2278199589316
 20
871.08326935443552
 40
2.7878929876423482
 50
331.79386069279707
 51
334.62283715956255
  0
LINE
  8
_0-0_FRF74-1515
  6
CONTINUOUS
 62
    7
 10
916.74669852369914
 20
869.88844799268315
 11
916.74806374798823
 21
869.89132610844865
  0
ARC
  8
_0-0_FRF74-1515
  6
CONTINUOUS
 62
    7
 10
913.82552830474197
 20
871.27762071864129
 40
3.2346601310308465
 50
334.62283715957739
 51
337.17400276563217
  0
LINE
  8
_0-0_FRF74-1515
  6
CONTINUOUS
 62
    7
 10
916.80687322928793
 20
870.02278662436277
 11
916.80815243775373
 21
870.0258258800576
  0
ARC
  8
_0-0_FRF74-1515
  6
CONTINUOUS
 62
    7
 10
913.35359820012695
 20
871.47983155454961
 40
3.7480765043100868
 50
337.17400276563268
 51
339.47657591252766
  0
LINE
  8
_0-0_FRF74-1515
  6
CONTINUOUS
 62
    7
 10
916.86378030294338
 20
870.16579232864046
 11
916.864966614693
 21
870.16896131339365
  0
ARC
  8
_0-0_FRF74-1515
  6
CONTINUOUS
 62
    7
 10
912.81855209406604
 20
871.68373953533285
 40
4.320650823012909
 50
339.4765759125471
 51
341.56379257055733
  0
LINE
  8
_0-0_FRF74-1515
  6
CONTINUOUS
 62
    7
 10
916.91745135208657
 20
870.31733973768894
 11
916.91938090563781
 21
870.32312797450902
  0
ARC
  8
_0-0_FRF74-1515
  6
CONTINUOUS
 62
    7
 10
912.29311220305317
 20
871.86533045891815
 40
4.8765510980027109
 50
341.56379257054658
 51
343.55645478273595
  0
LINE
  8
_0-0_FRF74-1515
  6
CONTINUOUS
 62
    7
 10
916.97020804981207
 20
870.48492289168905
 11
916.97163122116297
 21
870.48974487975465
  0
ARC
  8
_0-0_FRF74-1515
  6
CONTINUOUS
 62
    7
 10
911.28591086468987
 20
872.16783993326123
 40
5.9281885075135463
 50
343.55645478273993
 51
345.2928425225507
  0
LINE
  8
_0-0_FRF74-1515
  6
CONTINUOUS
 62
    7
 10
917.01986847304443
 20
870.66279869588334
 11
917.02051249190185
 21
870.6652523009642
  0
ARC
  8
_0-0_FRF74-1515
  6
CONTINUOUS
 62
    7
 10
910.46998423737455
 20
872.384625868586
 40
6.7724194995878007
 50
345.29284252255661
 51
346.85571852140652
  0
LINE
  8
_0-0_FRF74-1515
  6
CONTINUOUS
 62
    7
 10
917.06496978124051
 20
870.8445506903571
 11
917.06583648723563
 21
870.84826214132352
  0
ARC
  8
_0-0_FRF74-1515
  6
CONTINUOUS
 62
    7
 10
909.629195016263
 20
872.58488261799539
 40
7.6367196522973817
 50
346.85571852140612
 51
348.29891263900879
  0
LINE
  8
_0-0_FRF74-1515
  6
CONTINUOUS
 62
    7
 10
917.10721570682892
 20
871.03611097593421
 11
917.11834202703142
 21
871.08983280969255
  0
ARC
  8
_0-0_FRF74-1515
  6
CONTINUOUS
 62
    7
 10
910.04470856834996
 20
872.55485187830232
 40
7.223750492588259
 50
348.29891263901271
 51
350.6946270144569
  0
LINE
  8
_0-0_FRF74-1515
  6
CONTINUOUS
 62
    7
 10
917.17339853141561
 20
871.38679768878194
 11
917.18244079238684
 21
871.44198303515316
  0
ARC
  8
_0-0_FRF74-1515
  6
CONTINUOUS
 62
    7
 10
904.74774941312216
 20
873.47943920679188
 40
12.600507027453613
 50
350.69462701445394
 51
352.57665716739285
  0
LINE
  8
_0-0_FRF74-1515
  6
CONTINUOUS
 62
    7
 10
917.24264664626821
 20
871.85145871488692
 11
917.2438847915605
 21
871.86096159177134
  0
ARC
  8
_0-0_FRF74-1515
  6
CONTINUOUS
 62
    7
 10
901.31256743596668
 20
873.93667885308935
 40
16.065972576647056
 50
352.57665716739768
 51
354.12112124953154
  0
LINE
  8
_0-0_FRF74-1515
  6
CONTINUOUS
 62
    7
 10
917.29404331912974
 20
872.29110800093724
 11
917.29540291236799
 21
872.3043121157998
  0
ARC
  8
_0-0_FRF74-1515
  6
CONTINUOUS
 62
    7
 10
896.78700268743728
 20
874.41600854991896
 40
20.616831512524008
 50
354.12112124952773
 51
355.39846638377929
  0
LINE
  8
_0-0_FRF74-1515
  6
CONTINUOUS
 62
    7
 10
917.33738061519045
 20
872.76201077412782
 11
917.33866647658283
 21
872.77798717866926
  0
ARC
  8
_0-0_FRF74-1515
  6
CONTINUOUS
 62
    7
 10
891.09547357423162
 20
874.89017133619438
 40
26.32805529516601
 50
355.39846638377873
 51
356.46849462110879
  0
LINE
  8
_0-0_FRF74-1515
  6
CONTINUOUS
 62
    7
 10
917.37353396195704
 20
873.26843218196143
 11
917.37448207085367
 21
873.28379498724155
  0
ARC
  8
_0-0_FRF74-1515
  6
CONTINUOUS
 62
    7
 10
882.86004341010243
 20
875.41383867146385
 40
34.580103559177722
 50
356.46849462111027
 51
357.33418922449175
  0
LINE
  8
_0-0_FRF74-1515
  6
CONTINUOUS
 62
    7
 10
917.4027245965633
 20
873.80550456003687
 11
917.40324955514848
 21
873.81677925533518
  0
ARC
  8
_0-0_FRF74-1515
  6
CONTINUOUS
 62
    7
 10
872.29500545109909
 20
875.91705419657399
 40
45.157112850350735
 50
357.33418922449158
 51
358.02576098420661
  0
LINE
  8
_0-0_FRF74-1515
  6
CONTINUOUS
 62
    7
 10
917.42531382074344
 20
874.3613847457832
 11
917.42559880835483
 21
874.36965229823966
  0
ARC
  8
_0-0_FRF74-1515
  6
CONTINUOUS
 62
    7
 10
858.28899869156555
 20
876.40812722891792
 40
59.171723427799961
 50
358.02576098420707
 51
358.56955917285615
  0
LINE
  8
_0-0_FRF74-1515
  6
CONTINUOUS
 62
    7
 10
917.44228231987063
 20
874.93100522808641
 11
917.44247287108897
 21
874.9386361009964
  0
ARC
  8
_0-0_FRF74-1515
  6
CONTINUOUS
 62
    7
 10
840.23105384233463
 20
876.86668943578161
 40
77.235488074431544
 50
358.56955917285296
 51
358.9975006664223
  0
LINE
  8
_0-0_FRF74-1515
  6
CONTINUOUS
 62
    7
 10
917.45471970483834
 20
875.51537568537447
 11
917.45488980994492
 21
875.52509669939434
  0
ARC
  8
_0-0_FRF74-1515
  6
CONTINUOUS
 62
    7
 10
812.71981954088892
 20
877.35782425802438
 40
104.75110421646289
 50
358.99750066642076
 51
359.3236685712892
  0
LINE
  8
_0-0_FRF74-1515
  6
CONTINUOUS
 62
    7
 10
917.46362586513487
 20
876.12134891370499
 11
917.46377097787558
 21
876.13364164633128
  0
ARC
  8
_0-0_FRF74-1515
  6
CONTINUOUS
 62
    7
 10
775.68576229783434
 20
877.80729680791887
 40
141.78788688346313
 50
359.32366857129182
 51
359.57457311565736
  0
LINE
  8
_0-0_FRF74-1515
  6
CONTINUOUS
 62
    7
 10
917.46974066671487
 20
876.75451726283609
 11
917.46981932762958
 21
876.76511098824824
  0
ARC
  8
_0-0_FRF74-1515
  6
CONTINUOUS
 62
    7
 10
723.15604026871961
 20
878.20793671704212
 40
194.31913564607737
 50
359.57457311565651
 51
359.76389689679297
  0
LINE
  8
_0-0_FRF74-1515
  6
CONTINUOUS
 62
    7
 10
917.47352607002279
 20
877.40719325070165
 11
917.47423125704063
 21
877.57832192559113
  0
ARC
  8
_0-0_FRF74-1515
  6
CONTINUOUS
 62
    7
 10
614.00284741919268
 20
878.82886675860073
 40
303.47396044938966
 50
359.7638968967903
 51
359.94974244873083
  0
LINE
  8
_0-0_FRF74-1515
  6
CONTINUOUS
 62
    7
 10
917.47669112075891
 20
878.56267165138797
 11
917.47676912289535
 21
878.65159743370862
  0
ARC
  8
_0-0_FRF74-1515
  6
CONTINUOUS
 62
    7
 10
-792.98602125567322
 20
880.15194692102807
 40
1710.4634484016958
 50
359.94974244873697
 51
359.98867311433133
  0
LINE
  8
_0-0_FRF74-1515
  6
CONTINUOUS
 62
    7
 10
917.47739372193507
 20
879.81380292580025
 11
917.4774753144759
 21
880.22652962868801
  0
ARC
  8
_0-0_FRF74-1515
  6
CONTINUOUS
 62
    7
 10
-2771.1865236846111
 20
880.95574696821109
 40
3688.6640710791035
 50
359.98867311433912
 51
0.0195472940948747
  0
LINE
  8
_0-0_FRF74-1515
  6
CONTINUOUS
 62
    7
 10
917.47733272657888
 20
882.21418870036985
 11
917.47712388413049
 21
882.82633431768602
  0
ARC
  8
_0-0_FRF74-1515
  6
CONTINUOUS
 62
    7
 10
460.81994519395369
 20
882.67053902882162
 40
456.65720526609903
 50
0.0195472940975882
 51
0.1342028619330129
  0
LINE
  8
_0-0_FRF74-1515
  6
CONTINUOUS
 62
    7
 10
917.47589778505221
 20
883.74015791440661
 11
917.47560802012072
 21
883.86386822152281
  0
ARC
  8
_0-0_FRF74-1515
  6
CONTINUOUS
 62
    7
 10
616.88202004187485
 20
883.15979204170276
 40
300.59441255103587
 50
0.1342028619351659
 51
0.2612248409493079
  0
LINE
  8
_0-0_FRF74-1515
  6
CONTINUOUS
 62
    7
 10
917.47330842880979
 20
884.53026742819009
 11
917.47324336154384
 21
884.54453886529518
  0
ARC
  8
_0-0_FRF74-1515
  6
CONTINUOUS
 62
    7
 10
727.30378787413838
 20
883.67750589369848
 40
190.17143199374129
 50
0.2612248409483362
 51
0.4534023669342073
  0
LINE
  8
_0-0_FRF74-1515
  6
CONTINUOUS
 62
    7
 10
917.46926550476223
 20
885.18238597758352
 11
917.46917054295227
 21
885.19438590910363
  0
ARC
  8
_0-0_FRF74-1515
  6
CONTINUOUS
 62
    7
 10
776.70405053776904
 20
884.08043700396001
 40
140.76952756984338
 50
0.4534023669368952
 51
0.7032541674749153
  0
ARC
  8
_0-0_FRF74-1515
  6
CONTINUOUS
 62
    7
 10
813.93089116943042
 20
884.53738594187041
 40
103.53988258433512
 50
0.7032541674743365
 51
1.0429442633026227
  0
LINE
  8
_0-0_FRF74-1515
  6
CONTINUOUS
 62
    7
 10
917.45362065393556
 20
886.42199880818964
 11
917.45338217829681
 21
886.43509839457101
  0
ARC
  8
_0-0_FRF74-1515
  6
CONTINUOUS
 62
    7
 10
845.2983531506701
 20
885.12152893256189
 40
72.166984686275853
 50
1.0429442632993777
 51
1.5511085737838652
  0
LINE
  8
_0-0_FRF74-1515
  6
CONTINUOUS
 62
    7
 10
917.4388942008618
 20
887.07499142127017
 11
917.4372500766342
 21
887.13570823155578
  0
ARC
  8
_0-0_FRF74-1515
  6
CONTINUOUS
 62
    7
 10
870.98954804268601
 20
885.87797101071953
 40
46.464727774421618
 50
1.5511085737850971
 51
2.3571041517751201
  0
LINE
  8
_0-0_FRF74-1515
  6
CONTINUOUS
 62
    7
 10
917.41496207086857
 20
887.78895490990317
 11
917.41142941704743
 21
887.87477714855811
  0
ARC
  8
_0-0_FRF74-1515
  6
CONTINUOUS
 62
    7
 10
883.95659841991608
 20
886.49769425713362
 40
33.483161056514348
 50
2.3571041517779276
 51
3.1816282784173877
  0
LINE
  8
_0-0_FRF74-1515
  6
CONTINUOUS
 62
    7
 10
917.38814892890093
 20
888.35605506754541
 11
917.38712866871151
 21
888.37440935045151
  0
ARC
  8
_0-0_FRF74-1515
  6
CONTINUOUS
 62
    7
 10
883.00051965390867
 20
886.46295966824107
 40
34.439693950796638
 50
3.1816282784242902
 51
3.9220908058837232
  0
LINE
  8
_0-0_FRF74-1515
  6
CONTINUOUS
 62
    7
 10
917.35955518331389
 20
888.8186330143584
 11
917.35673836191313
 21
888.85971819569227
  0
ARC
  8
_0-0_FRF74-1515
  6
CONTINUOUS
 62
    7
 10
899.09970616884027
 20
887.60800657300638
 40
18.299890887250346
 50
3.9220908058841899
 51
5.0577210884000428
  0
LINE
  8
_0-0_FRF74-1515
  6
CONTINUOUS
 62
    7
 10
917.32834441580485
 20
889.22131192121765
 11
917.3277234164982
 21
889.22832855432216
  0
ARC
  8
_0-0_FRF74-1515
  6
CONTINUOUS
 62
    7
 10
886.82118194303098
 20
886.52838104053569
 40
30.625786344999849
 50
5.0577210884036585
 51
5.7099552837466394
  0
LINE
  8
_0-0_FRF74-1515
  6
CONTINUOUS
 62
    7
 10
917.29501225924787
 20
889.57542142556417
 11
917.29451346514361
 21
889.58040992751205
  0
ARC
  8
_0-0_FRF74-1515
  6
CONTINUOUS
 62
    7
 10
904.89845064798624
 20
888.34094302665733
 40
12.457875082261246
 50
5.7099552837447582
 51
7.2671803930419987
  0
LINE
  8
_0-0_FRF74-1515
  6
CONTINUOUS
 62
    7
 10
917.25625241407568
 20
889.91681963199915
 11
917.25487446085867
 21
889.92762534650774
  0
ARC
  8
_0-0_FRF74-1515
  6
CONTINUOUS
 62
    7
 10
896.76444989942638
 20
887.3146702828875
 40
20.656355750040866
 50
7.2671803930500252
 51
8.145955118571953
  0
LINE
  8
_0-0_FRF74-1515
  6
CONTINUOUS
 62
    7
 10
917.21238977238363
 20
890.24157783594944
 11
917.21185265183544
 21
890.24533026354561
  0
ARC
  8
_0-0_FRF74-1515
  6
CONTINUOUS
 62
    7
 10
908.84616095115894
 20
889.04786947397713
 40
8.4509591155870236
 50
8.1459551185796197
 51
10.242318739150223
  0
LINE
  8
_0-0_FRF74-1515
  6
CONTINUOUS
 62
    7
 10
917.16245018383347
 20
890.55054820605005
 11
917.15273998644352
 21
890.60428744403703
  0
ARC
  8
_0-0_FRF74-1515
  6
CONTINUOUS
 62
    7
 10
908.22509518077641
 20
888.9911422537192
 40
9.0722146789635723
 50
10.24231873915285
 51
11.505517685025836
  0
LINE
  8
_0-0_FRF74-1515
  6
CONTINUOUS
 62
    7
 10
917.11500824724249
 20
890.80070707761365
 11
917.11425383828032
 21
890.80441328918516
  0
ARC
  8
_0-0_FRF74-1515
  6
CONTINUOUS
 62
    7
 10
909.26914533482886
 20
889.20752113946844
 40
8.0059847594629865
 50
11.505517685043777
 51
12.882804285814274
  0
LINE
  8
_0-0_FRF74-1515
  6
CONTINUOUS
 62
    7
 10
917.07360466702858
 20
890.99251595761052
 11
917.07276566592623
 21
890.9961842875781
  0
ARC
  8
_0-0_FRF74-1515
  6
CONTINUOUS
 62
    7
 10
910.29302588426697
 20
889.44555792597009
 40
6.9548050742150016
 50
12.882804285806905
 51
14.406244273956208
  0
ARC
  8
_0-0_FRF74-1515
  6
CONTINUOUS
 62
    7
 10
910.92011952701409
 20
889.60664105737396
 40
6.3073529817813352
 50
14.406244273946125
 51
16.086044575117974
  0
LINE
  8
_0-0_FRF74-1515
  6
CONTINUOUS
 62
    7
 10
916.98051864026354
 20
891.3542863946526
 11
916.97660081864251
 21
891.36787242505068
  0
ARC
  8
_0-0_FRF74-1515
  6
CONTINUOUS
 62
    7
 10
912.73074185849282
 20
890.14348844046833
 40
4.4188725316743742
 50
16.086044575100214
 51
18.532903451142985
  0
LINE
  8
_0-0_FRF74-1515
  6
CONTINUOUS
 62
    7
 10
916.9204573131567
 20
891.54802354509775
 11
916.91484928114528
 21
891.56475225362976
  0
ARC
  8
_0-0_FRF74-1515
  6
CONTINUOUS
 62
    7
 10
912.84805603332552
 20
890.20142485308452
 40
4.2892270774103167
 50
18.532903451137436
 51
20.582514166208533
  0
LINE
  8
_0-0_FRF74-1515
  6
CONTINUOUS
 62
    7
 10
916.86348831711621
 20
891.70932819742757
 11
916.86235452474068
 21
891.71234740056502
  0
ARC
  8
_0-0_FRF74-1515
  6
CONTINUOUS
 62
    7
 10
913.36494192102509
 20
890.39897444618043
 40
3.7358858973390774
 50
20.582514166219866
 51
22.836740176868044
  0
LINE
  8
_0-0_FRF74-1515
  6
CONTINUOUS
 62
    7
 10
916.80798843245952
 20
891.8488965675499
 11
916.80348625356601
 21
891.85958763233532
  0
ARC
  8
_0-0_FRF74-1515
  6
CONTINUOUS
 62
    7
 10
914.18721014929133
 20
890.75783179296479
 40
2.8387966787683072
 50
22.836740176863675
 51
25.335048643782891
  0
ARC
  8
_0-0_FRF74-1515
  6
CONTINUOUS
 62
    7
 10
913.58532735261701
 20
890.47287252037347
 40
3.5047281226634186
 50
25.335048643797577
 51
27.358765173291815
  0
LINE
  8
_0-0_FRF74-1515
  6
CONTINUOUS
 62
    7
 10
916.69803885433726
 20
892.08350789836743
 11
916.69739300824449
 21
892.08475605955221
  0
ARC
  8
_0-0_FRF74-1515
  6
CONTINUOUS
 62
    7
 10
914.77943903752976
 20
891.09233369182266
 40
2.1595021624787685
 50
27.358765173287651
 51
30.717075551535469
  0
LINE
  8
_0-0_FRF74-1515
  6
CONTINUOUS
 62
    7
 10
916.63596321735781
 20
892.1954055659379
 11
916.62987119544232
 21
892.20565873824273
  0
ARC
  8
_0-0_FRF74-1515
  6
CONTINUOUS
 62
    7
 10
914.7681446852921
 20
891.09949584903484
 40
2.1655534941573187
 50
30.717075551550952
 51
34.049082291543314
  0
LINE
  8
_0-0_FRF74-1515
  6
CONTINUOUS
 62
    7
 10
916.56243187090172
 20
892.31199551155601
 11
916.56143616677946
 21
892.31346897930416
  0
ARC
  8
_0-0_FRF74-1515
  6
CONTINUOUS
 62
    7
 10
914.99983326752749
 20
891.25820703265458
 40
1.8847231603072974
 50
34.049082291542916
 51
37.769217406053606
  0
LINE
  8
_0-0_FRF74-1515
  6
CONTINUOUS
 62
    7
 10
916.48967712319848
 20
892.41256688847
 11
916.48823273008293
 21
892.41443105604083
  0
ARC
  8
_0-0_FRF74-1515
  6
CONTINUOUS
 62
    7
 10
915.15312174294297
 20
891.37996122167181
 40
1.6889787406007992
 50
37.769217406039196
 51
41.760342383584025
  0
LINE
  8
_0-0_FRF74-1515
  6
CONTINUOUS
 62
    7
 10
916.41299375731319
 20
892.50484863541965
 11
916.41163635084354
 21
892.50636892838611
  0
ARC
  8
_0-0_FRF74-1515
  6
CONTINUOUS
 62
    7
 10
915.27031503385581
 20
891.4873305102941
 40
1.5300502103388949
 50
41.760342383598946
 51
46.013218633210357
  0
LINE
  8
_0-0_FRF74-1515
  6
CONTINUOUS
 62
    7
 10
916.33292326744038
 20
892.5882017053375
 11
916.33170333242992
 21
892.58937923908752
  0
ARC
  8
_0-0_FRF74-1515
  6
CONTINUOUS
 62
    7
 10
915.35535464791337
 20
891.57787367275535
 40
1.405845035726943
 50
46.013218633173004
 51
50.503455373622025
  0
LINE
  8
_0-0_FRF74-1515
  6
CONTINUOUS
 62
    7
 10
916.24951663379318
 20
892.66271218953364
 11
916.24663432129796
 21
892.66508789266788
  0
ARC
  8
_0-0_FRF74-1515
  6
CONTINUOUS
 62
    7
 10
915.44945125591357
 20
891.69790867021231
 40
1.2533700523331992
 50
50.503455373625926
 51
55.198392098114091
  0
LINE
  8
_0-0_FRF74-1515
  6
CONTINUOUS
 62
    7
 10
916.16479543256207
 20
892.72709242300903
 11
916.16467703918283
 21
892.72717471347869
  0
ARC
  8
_0-0_FRF74-1515
  6
CONTINUOUS
 62
    7
 10
915.39749703731218
 20
891.62341344838421
 40
1.3441927263577154
 50
55.198392098104776
 51
59.56415356163636
  0
ARC
  8
_0-0_FRF74-1515
  6
CONTINUOUS
 62
    7
 10
915.52681003930559
 20
891.84350651919601
 40
1.0889226491769033
 50
59.56415356162838
 51
64.951991411592971
  0
LINE
  8
_0-0_FRF74-1515
  6
CONTINUOUS
 62
    7
 10
915.98783540539284
 20
892.83001964516779
 11
915.97309540786694
 21
892.83690806112145
  0
ARC
  8
_0-0_FRF74-1515
  6
CONTINUOUS
 62
    7
 10
915.64940967645884
 20
892.14427757652561
 40
0.7645321712712949
 50
64.951991411603657
 51
70.971844102765715
  0
LINE
  8
_0-0_FRF74-1515
  6
CONTINUOUS
 62
    7
 10
915.89867220681413
 20
892.86703454250357
 11
915.89412444204868
 21
892.86860296371049
  0
ARC
  8
_0-0_FRF74-1515
  6
CONTINUOUS
 62
    7
 10
915.48934522046204
 20
891.69491271163633
 40
1.241529309377047
 50
70.971844102792545
 51
74.237376908826619
  0
ARC
  8
_0-0_FRF74-1515
  6
CONTINUOUS
 62
    7
 10
915.61170252594104
 20
892.12839340955213
 40
0.7911108087915986
 50
74.237376908778757
 51
79.360111430621359
  0
LINE
  8
_0-0_FRF74-1515
  6
CONTINUOUS
 62
    7
 10
915.7577697548063
 20
892.90590268694916
 11
915.75748350851723
 21
892.90595646277336
  0
ARC
  8
_0-0_FRF74-1515
  6
CONTINUOUS
 62
    7
 10
915.46309732250836
 20
891.33895205981298
 40
1.5944171428487914
 50
79.360111430658975
 51
81.9240862455909
  0
LINE
  8
_0-0_FRF74-1515
  6
CONTINUOUS
 62
    7
 10
915.68708906123038
 20
892.91755705359526
 11
915.68144333793066
 21
892.91835813770638
  0
ARC
  8
_0-0_FRF74-1515
  6
CONTINUOUS
 62
    7
 10
915.4733791786083
 20
891.45200441052816
 40
1.48104150772489
 50
81.924086245559451
 51
85.12516238034101
  0
LINE
  8
_0-0_FRF74-1515
  6
CONTINUOUS
 62
    7
 10
915.59923712851969
 20
892.92768856509781
 11
915.58530002455973
 21
892.92887723092895
  0
ARC
  8
_0-0_FRF74-1515
  6
CONTINUOUS
 62
    7
 10
915.05046406582164
 20
886.65792692414482
 40
6.2937164897154396
 50
85.125162380366419
 51
86.078695500662505
  0
LINE
  8
_0-0_FRF74-1515
  6
CONTINUOUS
 62
    7
 10
915.48086778893173
 20
892.93690931686172
 11
915.47737898954938
 21
892.93715218939531
  0
LINE
  8
_0-0_FRF74-1515
  6
CONTINUOUS
 62
    7
 10
915.47737898954938
 20
868.9371521893944
 11
880.47737898955029
 21
868.9371521893944
  0
LINE
  8
_0-0_FRF74-1515
  6
CONTINUOUS
 62
    7
 10
915.47737898954938
 20
892.9371521893944
 11
880.47737898955029
 21
892.9371521893944
  0
LINE
  8
_0-0_FRF74-1515
  6
CONTINUOUS
 62
    7
 10
1025.1040249461689
 20
891.93715218939417
 11
1052.1040249461689
 21
891.93715218939406
  0
LINE
  8
_0-0_FRF74-1515
  6
CONTINUOUS
 62
    7
 10
1025.1040249461689
 20
869.93715218939417
 11
1052.1040249461689
 21
869.93715218939417
  0
LINE
  8
_0-0_FRF74-1515
  6
CONTINUOUS
 62
    7
 10
1052.1040249461689
 20
891.93715218939406
 11
1052.1040249461689
 21
869.93715218939417
  0
LINE
  8
_0-0_FRF74-1515
  6
CONTINUOUS
 62
    7
 10
1025.1040249461689
 20
892.9371521893944
 11
1025.1040249461689
 21
868.9371521893944
  0
LINE
  8
_0-0_FRF74-1515
  6
CONTINUOUS
 62
    7
 10
951.10402494616892
 20
892.9371521893944
 11
1025.1040249461689
 21
892.9371521893944
  0
LINE
  8
_0-0_FRF74-1515
  6
CONTINUOUS
 62
    7
 10
951.10402494616892
 20
892.9371521893944
 11
951.10402494616892
 21
868.9371521893944
  0
LINE
  8
_0-0_FRF74-1515
  6
CONTINUOUS
 62
    7
 10
951.10402494616892
 20
868.9371521893944
 11
1025.1040249461689
 21
868.9371521893944
  0
LINE
  8
_0-0_FRF74-1515
  6
CONTINUOUS
 62
    7
 10
832.47737898955017
 20
729.29050235734064
 11
832.47737898955017
 21
756.29050235734064
  0
LINE
  8
_0-0_FRF74-1515
  6
CONTINUOUS
 62
    7
 10
790.47737898955029
 20
756.29050235734064
 11
790.47737898955029
 21
729.29050235734064
  0
LINE
  8
_0-0_FRF74-1515
  6
CONTINUOUS
 62
    7
 10
917.47737898955029
 20
692.29050235733871
 11
913.47739972510362
 21
692.29050235733871
  0
LINE
  8
_0-0_FRF74-1515
  6
CONTINUOUS
 62
    7
 10
833.47737898955017
 20
725.29050235734076
 11
833.47737898955017
 21
729.29050235734064
  0
LINE
  8
_0-0_FRF74-1515
  6
CONTINUOUS
 62
    7
 10
832.47737898955017
 20
756.29050235734064
 11
821.47737898955017
 21
756.29050235734064
  0
LINE
  8
_0-0_FRF74-1515
  6
CONTINUOUS
 62
    7
 10
801.47737898955029
 20
756.29050235734064
 11
790.47737898955029
 21
756.29050235734064
  0
LINE
  8
_0-0_FRF74-1515
  6
CONTINUOUS
 62
    7
 10
821.47737898955017
 20
756.29050235734064
 11
801.47737898955029
 21
756.29050235734064
  0
LINE
  8
_0-0_FRF74-1515
  6
CONTINUOUS
 62
    7
 10
917.47740126319786
 20
692.28744900745801
 11
917.47736172467296
 21
692.25214134497037
  0
ARC
  8
_0-0_FRF74-1515
  6
CONTINUOUS
 62
    7
 10
880.12480830947243
 20
692.2939697969515
 40
37.352576835538478
 50
358.71753692699627
 51
359.9358385828765
  0
ARC
  8
_0-0_FRF74-1515
  6
CONTINUOUS
 62
    7
 10
880.94330327155308
 20
692.27564619774034
 40
36.53387679447377
 50
357.47193606284861
 51
358.71753692699525
  0
LINE
  8
_0-0_FRF74-1515
  6
CONTINUOUS
 62
    7
 10
917.44162298130118
 20
690.6641835085054
 11
917.4360727729088
 21
690.53847580102058
  0
ARC
  8
_0-0_FRF74-1515
  6
CONTINUOUS
 62
    7
 10
887.38584348874747
 20
691.86524436679201
 40
30.079504564699565
 50
355.47983345572555
 51
357.47193606284912
  0
LINE
  8
_0-0_FRF74-1515
  6
CONTINUOUS
 62
    7
 10
917.37179046286337
 20
689.4946792604735
 11
917.35759886062613
 21
689.31516567907897
  0
ARC
  8
_0-0_FRF74-1515
  6
CONTINUOUS
 62
    7
 10
885.69990066463083
 20
691.81789253158138
 40
31.756471730451491
 50
354.17571421875761
 51
355.47983345572288
  0
ARC
  8
_0-0_FRF74-1515
  6
CONTINUOUS
 62
    7
 10
873.16661795370021
 20
693.09634445062102
 40
44.354789666644663
 50
353.2419909964251
 51
354.17571421875846
  0
LINE
  8
_0-0_FRF74-1515
  6
CONTINUOUS
 62
    7
 10
917.21323131645443
 20
687.87684086844649
 11
917.21249825826351
 21
687.87065469955166
  0
ARC
  8
_0-0_FRF74-1515
  6
CONTINUOUS
 62
    7
 10
886.11821771430596
 20
691.55531275368344
 40
31.311834624023721
 50
351.89655976221843
 51
353.24199099642607
  0
LINE
  8
_0-0_FRF74-1515
  6
CONTINUOUS
 62
    7
 10
917.11740979834167
 20
687.14157537372114
 11
917.10124987456538
 21
687.02807868416301
  0
ARC
  8
_0-0_FRF74-1515
  6
CONTINUOUS
 62
    7
 10
883.73573420140679
 20
691.7787387442429
 40
33.702023784073042
 50
350.25680611904261
 51
351.89655976221655
  0
LINE
  8
_0-0_FRF74-1515
  6
CONTINUOUS
 62
    7
 10
916.95164568986877
 20
686.07526338855951
 11
916.94884535894289
 21
686.05895481556342
  0
ARC
  8
_0-0_FRF74-1515
  6
CONTINUOUS
 62
    7
 10
877.86244627445444
 20
692.77044650526796
 40
39.658425512025552
 50
348.81549955487742
 51
350.25680611904323
  0
LINE
  8
_0-0_FRF74-1515
  6
CONTINUOUS
 62
    7
 10
916.76766561993418
 20
685.07794224638121
 11
916.75174425180035
 21
684.99741914250262
  0
ARC
  8
_0-0_FRF74-1515
  6
CONTINUOUS
 62
    7
 10
887.55345540909457
 20
690.77062811172107
 40
29.763568555271384
 50
346.86539465634087
 51
348.81549955487685
  0
LINE
  8
_0-0_FRF74-1515
  6
CONTINUOUS
 62
    7
 10
916.53837619427463
 20
684.0071689212491
 11
916.52898186983248
 21
683.96690938214078
  0
ARC
  8
_0-0_FRF74-1515
  6
CONTINUOUS
 62
    7
 10
873.32907006031633
 20
694.04735233801864
 40
44.360429557621217
 50
345.6636841777505
 51
346.8653946563411
  0
LINE
  8
_0-0_FRF74-1515
  6
CONTINUOUS
 62
    7
 10
916.30807064804355
 20
683.06312642005685
 11
916.27663334978456
 21
682.94011878433969
  0
ARC
  8
_0-0_FRF74-1515
  6
CONTINUOUS
 62
    7
 10
892.87123640071991
 20
688.92188113973191
 40
24.157692092161192
 50
344.05926285130732
 51
345.66368417775317
  0
LINE
  8
_0-0_FRF74-1515
  6
CONTINUOUS
 62
    7
 10
916.09997541828955
 20
682.28714144074547
 11
916.07975278881258
 21
682.21634044422103
  0
ARC
  8
_0-0_FRF74-1515
  6
CONTINUOUS
 62
    7
 10
849.77622404201736
 20
701.15437466237506
 40
68.955109051650908
 50
343.61950073599803
 51
344.05926285130545
  0
ARC
  8
_0-0_FRF74-1515
  6
CONTINUOUS
 62
    7
 10
895.65587170453978
 20
687.66822619094921
 40
21.134420325634625
 50
342.1847602298555
 51
343.61950073599678
  0
LINE
  8
_0-0_FRF74-1515
  6
CONTINUOUS
 62
    7
 10
915.77685534128864
 20
681.20218103256332
 11
915.73819346160781
 21
681.08187332833768
  0
ARC
  8
_0-0_FRF74-1515
  6
CONTINUOUS
 62
    7
 10
874.33115341604059
 20
694.3883694541405
 40
43.492594823500795
 50
341.81515822725999
 51
342.18476022985487
  0
LINE
  8
_0-0_FRF74-1515
  6
CONTINUOUS
 62
    7
 10
915.65149536469926
 20
680.81504466884439
 11
915.65015760858091
 21
680.81097222962069
  0
ARC
  8
_0-0_FRF74-1515
  6
CONTINUOUS
 62
    7
 10
847.22358303334829
 20
703.28842708245202
 40
72.023829978424146
 50
341.59878835301026
 51
341.81515822726703
  0
LINE
  8
_0-0_FRF74-1515
  6
CONTINUOUS
 62
    7
 10
915.56478678490225
 20
680.55272928032775
 11
915.56341226118138
 21
680.548597601305
  0
ARC
  8
_0-0_FRF74-1515
  6
CONTINUOUS
 62
    7
 10
699.40579782537623
 20
752.45974241095723
 40
227.80545872830385
 50
341.53257029198232
 51
341.5987883529985
  0
LINE
  8
_0-0_FRF74-1515
  6
CONTINUOUS
 62
    7
 10
915.48015854165328
 20
680.29882731514419
 11
915.47737898954938
 21
680.29050235733791
  0
LINE
  8
_0-0_FRF74-1515
  6
CONTINUOUS
 62
    7
 10
880.47737898955029
 20
655.29050235734064
 11
742.47737898955029
 21
655.29050235734064
  0
ARC
  8
_0-0_FRF74-1515
  6
CONTINUOUS
 62
    7
 10
742.47737898955029
 20
692.29050235734064
 40
37.000000000000028
 50
90
 51
270.0000000000008
  0
LINE
  8
_0-0_FRF74-1515
  6
CONTINUOUS
 62
    7
 10
742.47737898955029
 20
729.29050235734064
 11
821.47737898955017
 21
729.29050235734064
  0
LINE
  8
_0-0_FRF74-1515
  6
CONTINUOUS
 62
    7
 10
742.47737898955029
 20
725.29050235734076
 11
821.47737898955017
 21
725.29050235734076
  0
ARC
  8
_0-0_FRF74-1515
  6
CONTINUOUS
 62
    7
 10
742.47737898955029
 20
692.29050235734064
 40
33.000000000000007
 50
90
 51
270.0000000000008
  0
LINE
  8
_0-0_FRF74-1515
  6
CONTINUOUS
 62
    7
 10
880.47737898955029
 20
659.29050235734064
 11
742.47737898955029
 21
659.29050235734064
  0
ARC
  8
_0-0_FRF74-1515
  6
CONTINUOUS
 62
    7
 10
880.47737898955029
 20
692.29050235734064
 40
36.999999999999972
 50
270.00000000000068
 51
341.07535558394505
  0
LINE
  8
_0-0_FRF74-1515
  6
CONTINUOUS
 62
    7
 10
833.47737898955017
 20
725.29050235734076
 11
821.47737898955017
 21
725.29050235734076
  0
LINE
  8
_0-0_FRF74-1515
  6
CONTINUOUS
 62
    7
 10
821.47737898955017
 20
729.29050235734064
 11
833.47737898955017
 21
729.29050235734064
  0
ARC
  8
_0-0_FRF74-1515
  6
CONTINUOUS
 62
    7
 10
880.47737898955029
 20
692.29050235734064
 40
33.000000000000007
 50
270.00000000000068
 51
359.99999999999676
  0
TEXT
  8
_0-0_FRF74-1515
 62
    7
 10
703.30588235294113
 20
487.17591695501733
 40
6
 41
1
 50
0
  1
クローム
  0
TEXT
  8
_0-2_
 62
    7
 10
704.52645968509296
 20
506.99149662678974
 40
6
 41
1
 50
0
  1
タオルリング　-LANGBERGER,Lugano-
  0
LINE
  8
_0-0_FRF74-1515
  6
CONTINUOUS
 62
    4
 10
913.47739972510362
 20
707.30149614809102
 11
917.47736172467296
 21
707.30149614809102
  0
POINT
  8
_0-0_FRF74-1515
 62
    7
 10
913.47739972510362
 20
707.30149614809102
  0
POINT
  8
_0-0_FRF74-1515
 62
    7
 10
917.47736172467296
 20
707.30149614809102
  0
LINE
  8
_0-0_FRF74-1515
  6
CONTINUOUS
 62
    4
 10
913.47739972510362
 20
707.30149614809102
 11
913.47739972510362
 21
698.29050235733871
  0
LINE
  8
_0-0_FRF74-1515
  6
CONTINUOUS
 62
    4
 10
917.47736172467296
 20
707.30149614809102
 11
917.47736172467296
 21
698.25214134495468
  0
TEXT
  8
_0-0_FRF74-1515
 62
    4
 10
914.22738072488835
 20
708.30149614809102
 40
5
 41
1
 50
0
  1
4
  0
ENDSEC
  0
EOF
