  0
SECTION
  2
HEADER
  9
$ACADVER
  1
AC1009
  9
$INSBASE
 10
0
 20
0
 30
0
  9
$EXTMIN
 10
0
 20
0
  9
$EXTMAX
 10
1682
 20
1188
  9
$LIMMIN
 10
0
 20
0
  9
$LIMMAX
 10
1682
 20
1188
  9
$LTSCALE
 40
2
  0
ENDSEC
  0
SECTION
  2
TABLES
  0
TABLE
  2
LTYPE
 70
     9
  0
LTYPE
  2
CONTINUOUS
 70
    64
  3
実線
 72
    65
 73
     0
 40
0.0
  0
LTYPE
  2
DASHED1
 70
    64
  3
--  --  --  --  --  --  --  --  
 72
    65
 73
     2
 40
2.5
 49
1.25
 49
-1.25
  0
LTYPE
  2
DASHED2
 70
    64
  3
----    ----    ----    ----    
 72
    65
 73
     2
 40
5.0
 49
2.5
 49
-2.5
  0
LTYPE
  2
DASHED3
 70
    64
  3
------  ------  ------  ------  
 72
    65
 73
     2
 40
5.0
 49
3.75
 49
-1.25
  0
LTYPE
  2
CENTER1
 70
    64
  3
----- - ----- - ----- - ----- - 
 72
    65
 73
     4
 40
10.0
 49
6.25
 49
-1.25
 49
1.25
 49
-1.25
  0
LTYPE
  2
CENTER2
 70
    64
  3
----------  --  ----------  --  
 72
    65
 73
     4
 40
20.0
 49
12.5
 49
-2.5
 49
2.5
 49
-2.5
  0
LTYPE
  2
PHANTOM1
 70
    64
  3
--- - - --- - - --- - - --- - - 
 72
    65
 73
     6
 40
10.0
 49
3.25
 49
-1.25
 49
1.25
 49
-1.25
 49
1.25
 49
-1.25
  0
LTYPE
  2
PHANTOM2
 70
    64
  3
--------  -  -  --------  -  -  
 72
    65
 73
     6
 40
20.0
 49
10.0
 49
-2.5
 49
1.25
 49
-2.5
 49
1.25
 49
-2.5
  0
LTYPE
  2
DOT
 70
    64
  3
-   -   -   -   -   -   -   -   
 72
    65
 73
     2
 40
2.5
 49
0.625
 49
-1.875
  0
LTYPE
  2
DUMMY
 70
    64
  3
ダミー
 72
    65
 73
     0
 40
0.0
  0
LTYPE
  2
RAND1
 70
    64
  3
ランダム線1
 72
    65
 73
     4
 40
10.0
 49
1.0
 49
-2.0
 49
3.0
 49
-4.0
  0
LTYPE
  2
RAND2
 70
    64
  3
ランダム線2
 72
    65
 73
     4
 40
14.0
 49
2.0
 49
-3.0
 49
4.0
 49
-5.0
  0
LTYPE
  2
RAND3
 70
    64
  3
ランダム線3
 72
    65
 73
     4
 40
18.0
 49
3.0
 49
-4.0
 49
5.0
 49
-6.0
  0
LTYPE
  2
RAND4
 70
    64
  3
ランダム線4
 72
    65
 73
     4
 40
22.0
 49
4.0
 49
-5.0
 49
6.0
 49
-7.0
  0
LTYPE
  2
RAND5
 70
    64
  3
ランダム線5
 72
    65
 73
     4
 40
26.0
 49
5.0
 49
-6.0
 49
7.0
 49
-8.0
  0
LTYPE
  2
LONG1
 70
    64
  3
----------  --  ----------  --  
 72
    65
 73
     4
 40
40.0
 49
32.5
 49
-2.5
 49
2.5
 49
-2.5
  0
LTYPE
  2
LONG2
 70
    64
  3
--------  -  -  --------  -  -  
 72
    65
 73
     6
 40
40.0
 49
30.0
 49
-2.5
 49
1.25
 49
-2.5
 49
1.25
 49
-2.5
  0
LTYPE
  2
LONG3
 70
    64
  3
+++++++++++++++..+++++++++++++++
 72
    65
 73
     2
 40
40.0
 49
37.5
 49
-2.5
  0
LTYPE
  2
LONG4
 70
    64
  3
+++++++++++++++..+++++++++++++++
 72
    65
 73
     2
 40
80.0
 49
75.0
 49
-5.0
  0
LTYPE
  2
LONG5
 70
    64
  3
----------  --  ----------  --  
 72
    65
 73
     4
 40
60.0
 49
37.5
 49
-7.5
 49
7.5
 49
-7.5
  0
LTYPE
  2
dashed
 70
   64
  3
-------   -------------   ------
 72
   65
 73
    2
 40
7.5
 49
6
 49
-1.5
  0
LTYPE
  2
dashed_spaced
 70
   64
  3
----        --------        ----
 72
   65
 73
    2
 40
12
 49
6
 49
-6
  0
LTYPE
  2
long_dashed_dotted
 70
   64
  3
------------- --- --------------
 72
   65
 73
    4
 40
15.25
 49
12
 49
-1.5
 49
0.25
 49
-1.5
  0
LTYPE
  2
long_dashed_double-dotted
 70
   64
  3
----------- --- --- ------------
 72
   65
 73
    6
 40
17
 49
12
 49
-1.5
 49
0.25
 49
-1.5
 49
0.25
 49
-1.5
  0
LTYPE
  2
long_dashed_triplicate-dotted
 70
   64
  3
--------- --- --- --- ----------
 72
   65
 73
    8
 40
18.75
 49
12
 49
-1.5
 49
0.25
 49
-1.5
 49
0.25
 49
-1.5
 49
0.25
 49
-1.5
  0
LTYPE
  2
dotted
 70
   64
  3
   -       -       -       -    
 72
   65
 73
    2
 40
1.75
 49
0.25
 49
-1.5
  0
LTYPE
  2
chain
 70
   64
  3
-------------- -- --------------
 72
   65
 73
    4
 40
18.5
 49
12
 49
-1.5
 49
3.5
 49
-1.5
  0
LTYPE
  2
chain_double_dash
 70
   64
  3
------------ -- -- -------------
 72
   65
 73
    6
 40
23.5
 49
12
 49
-1.5
 49
3.5
 49
-1.5
 49
3.5
 49
-1.5
  0
LTYPE
  2
dashed_dotted
 70
   64
  3
-----------     -     ----------
 72
   65
 73
    4
 40
9.25
 49
6
 49
-1.5
 49
0.25
 49
-1.5
  0
LTYPE
  2
double-dashed_dotted
 70
   64
  3
------   -----------   -   -----
 72
   65
 73
    6
 40
16.75
 49
6
 49
-1.5
 49
6
 49
-1.5
 49
0.25
 49
-1.5
  0
LTYPE
  2
dashed_double-dotted
 70
   64
  3
---------    -    -    ---------
 72
   65
 73
    6
 40
11
 49
6
 49
-1.5
 49
0.25
 49
-1.5
 49
0.25
 49
-1.5
  0
LTYPE
  2
double-dashed_double-dotted
 70
   64
  3
-----   ---------   -   -   ----
 72
   65
 73
    8
 40
18.5
 49
6
 49
-1.5
 49
6
 49
-1.5
 49
0.25
 49
-1.5
 49
0.25
 49
-1.5
  0
LTYPE
  2
dashed_triplicate-dotted
 70
   64
  3
-------    -    -    -    ------
 72
   65
 73
    8
 40
12.75
 49
6
 49
-1.5
 49
0.25
 49
-1.5
 49
0.25
 49
-1.5
 49
0.25
 49
-1.5
  0
LTYPE
  2
double-dashed_triplicate-dotted
 70
   64
  3
-----  ---------  -  -  -  -----
 72
   65
 73
   10
 40
20.25
 49
6
 49
-1.5
 49
6
 49
-1.5
 49
0.25
 49
-1.5
 49
0.25
 49
-1.5
 49
0.25
 49
-1.5
  0
LTYPE
  2
undefined
 70
   64
  3
--------------------------------
 72
   65
 73
    0
 40
0
  0
ENDTAB
  0
TABLE
  2
STYLE
  5
3
100
AcDbSymbolTable
 70
     1
  0
STYLE
  5
10
100
AcDbSymbolTableRecord
100
AcDbTextStyleTableRecord
  2
STANDARD
 70
     0
 40
0.0
 41
1.0
 50
0.0
 71
     0
 42
0.2
  3
txt
  4
bigfont.shx
  0
STYLE
  5
26
100
AcDbSymbolTableRecord
100
AcDbTextStyleTableRecord
  2
TATEGAKI
 70
    68
 40
0.0
 41
1.0
 50
0.0
 71
     0
 42
1.0
  3
txt
  4
bigfont.shx
  0
ENDTAB
  0
TABLE
  2
LAYER
 70
    4
  0
LAYER
  2
_0-0_FRF74-1516
 70
   64
 62
    7
  6
CONTINUOUS
  0
LAYER
  2
_0-1_
 70
   64
 62
    7
  6
CONTINUOUS
  0
LAYER
  2
_0-2_FRF74-1516
 70
   64
 62
    7
  6
CONTINUOUS
  0
LAYER
  2
ADD_LINE
 70
   64
 62
    7
  6
CONTINUOUS
  0
ENDTAB
  0
ENDSEC
  0
SECTION
  2
BLOCKS
  0
ENDSEC
  0
SECTION
  2
ENTITIES
  0
LINE
  8
_0-0_FRF74-1516
  6
CONTINUOUS
 62
    7
 10
1011.9859581215702
 20
797.7571637784182
 11
1011.9829371999836
 21
797.75176890208149
  0
ARC
  8
_0-0_FRF74-1516
  6
CONTINUOUS
 62
    7
 10
535.72817483022095
 20
1064.4359712097564
 40
545.8379452185053
 50
330.71338521836276
 51
330.75286475726057
  0
ARC
  8
_0-0_FRF74-1516
  6
CONTINUOUS
 62
    7
 10
863.18062033707201
 20
880.77880442433525
 40
170.39812450143589
 50
330.58692007938657
 51
330.71338521834537
  0
LINE
  8
_0-0_FRF74-1516
  6
CONTINUOUS
 62
    7
 10
1011.6147198693146
 20
797.09583764101001
 11
1011.6119049910002
 21
797.09084470225605
  0
ARC
  8
_0-0_FRF74-1516
  6
CONTINUOUS
 62
    7
 10
920.95373353739956
 20
848.20136967122141
 40
104.07300232968043
 50
330.37354854745286
 51
330.58692007938686
  0
LINE
  8
_0-0_FRF74-1516
  6
CONTINUOUS
 62
    7
 10
1011.4209393650481
 20
796.75358562125916
 11
1011.3770267342957
 21
796.67636843731111
  0
ARC
  8
_0-0_FRF74-1516
  6
CONTINUOUS
 62
    7
 10
964.05901899009984
 20
823.5856403864841
 40
54.434389623787688
 50
329.81892088031128
 51
330.37354854745115
  0
LINE
  8
_0-0_FRF74-1516
  6
CONTINUOUS
 62
    7
 10
1011.1143300020651
 20
796.2195942840317
 11
1011.0692749046016
 21
796.14212304043724
  0
ARC
  8
_0-0_FRF74-1516
  6
CONTINUOUS
 62
    7
 10
942.76010599388246
 20
835.86881542496849
 40
79.021216423744931
 50
329.56681998265589
 51
329.81892088031333
  0
ARC
  8
_0-0_FRF74-1516
  6
CONTINUOUS
 62
    7
 10
934.95334003751134
 20
840.45509692835424
 40
88.075473584100621
 50
329.34063526798946
 51
329.56681998266095
  0
LINE
  8
_0-0_FRF74-1516
  6
CONTINUOUS
 62
    7
 10
1010.7171079925749
 20
795.54250946876891
 11
1010.662551839849
 21
795.45047781507355
  0
ARC
  8
_0-0_FRF74-1516
  6
CONTINUOUS
 62
    7
 10
951.62882320720291
 20
830.44553642742073
 40
68.626782261406632
 50
328.87170800746827
 51
329.340635267984
  0
LINE
  8
_0-0_FRF74-1516
  6
CONTINUOUS
 62
    7
 10
1010.3741669944158
 20
794.96850404199313
 11
1010.3010251024235
 21
794.84739059756362
  0
ARC
  8
_0-0_FRF74-1516
  6
CONTINUOUS
 62
    7
 10
941.01632744507788
 20
836.68926782799963
 40
80.938940069886513
 50
328.27380326397702
 51
328.87170800746719
  0
LINE
  8
_0-0_FRF74-1516
  6
CONTINUOUS
 62
    7
 10
1009.8606235961723
 20
794.12666796500889
 11
1009.684119488104
 21
793.84117551090912
  0
ARC
  8
_0-0_FRF74-1516
  6
CONTINUOUS
 62
    7
 10
955.66140832929534
 20
827.24041360493845
 40
63.513482239676584
 50
326.90633721702864
 51
328.2738032639773
  0
LINE
  8
_0-0_FRF74-1516
  6
CONTINUOUS
 62
    7
 10
1008.8716771606662
 20
792.56146152874442
 11
1008.6590434745435
 21
792.23520323880723
  0
ARC
  8
_0-0_FRF74-1516
  6
CONTINUOUS
 62
    7
 10
942.4992867142397
 20
835.35377949209396
 40
78.970406056275735
 50
325.87425372742405
 51
326.90633721702727
  0
LINE
  8
_0-0_FRF74-1516
  6
CONTINUOUS
 62
    7
 10
1007.8716461850844
 20
791.05051042639479
 11
1007.7494111136117
 21
790.87014461590786
  0
ARC
  8
_0-0_FRF74-1516
  6
CONTINUOUS
 62
    7
 10
949.41990217306875
 20
830.40042851541398
 40
70.462578425859732
 50
325.07187438573146
 51
325.87425372742325
  0
LINE
  8
_0-0_FRF74-1516
  6
CONTINUOUS
 62
    7
 10
1007.1901211365143
 20
790.05719166788288
 11
1007.1156066375116
 21
789.9504892994139
  0
ARC
  8
_0-0_FRF74-1516
  6
CONTINUOUS
 62
    7
 10
935.17870839500847
 20
840.18688057413351
 40
87.741736574215224
 50
324.5974724731559
 51
325.07187438573305
  0
LINE
  8
_0-0_FRF74-1516
  6
CONTINUOUS
 62
    7
 10
1006.6971944812846
 20
789.35658955602003
 11
1006.6966754718147
 21
789.35585929500451
  0
LINE
  8
_0-2_FRF74-1516
  6
CONTINUOUS
 62
    7
 10
1079.8988725370491
 20
503.2673488237719
 11
689.8988725370491
 21
503.2673488237719
  0
LINE
  8
_0-2_FRF74-1516
  6
CONTINUOUS
 62
    7
 10
1079.8988725371457
 20
1029.267348823772
 11
689.89887253714551
 21
1029.267348823772
  0
LINE
  8
_0-2_FRF74-1516
  6
CONTINUOUS
 62
    7
 10
689.89887253714551
 20
1029.267348823772
 11
689.89887253714551
 21
469.2673488237719
  0
LINE
  8
_0-2_FRF74-1516
  6
CONTINUOUS
 62
    7
 10
689.89887253714551
 20
469.2673488237719
 11
1079.8988725371457
 21
469.2673488237719
  0
LINE
  8
_0-2_FRF74-1516
  6
CONTINUOUS
 62
    7
 10
1079.8988725371457
 20
469.2673488237719
 11
1079.8988725371457
 21
1029.267348823772
  0
LINE
  8
_0-2_FRF74-1516
  6
CONTINUOUS
 62
    7
 10
1079.8988725370491
 20
520.26734882377195
 11
689.8988725370491
 21
520.26734882377195
  0
LINE
  8
_0-2_FRF74-1516
  6
CONTINUOUS
 62
    7
 10
1079.8988725371457
 20
486.2673488237719
 11
929.29887253714571
 21
486.2673488237719
  0
LINE
  8
_0-2_FRF74-1516
  6
CONTINUOUS
 62
    7
 10
1029.6988725371975
 20
486.2673488237719
 11
1029.6988725371975
 21
503.2673488237719
  0
LINE
  8
_0-2_FRF74-1516
  6
CONTINUOUS
 62
    7
 10
979.49887253719749
 20
486.2673488237719
 11
979.49887253719749
 21
503.2673488237719
  0
LINE
  8
_0-2_FRF74-1516
  6
CONTINUOUS
 62
    7
 10
929.29887253719744
 20
469.2673488237719
 11
929.29887253719744
 21
520.26734882377195
  0
TEXT
  8
_0-2_FRF74-1516
 62
    7
 10
936.36516934588531
 20
473.92519932464324
 40
6
 41
1
 50
0
  1
大洋金物株式会社 ティーフォルム事業部
  0
TEXT
  8
_0-2_FRF74-1516
 62
    7
 10
692.03092613020874
 20
496.95829989926438
 40
4.4000000000000004
 41
1
 50
0
  1
仕様
  0
TEXT
  8
_0-2_FRF74-1516
 62
    7
 10
692.11008412622641
 20
513.7277384202182
 40
4.4000000000000004
 41
1
 50
0
  1
品名
  0
TEXT
  8
_0-2_FRF74-1516
 62
    7
 10
931.58014201817321
 20
514.02354576782386
 40
4.4000000000000004
 41
1
 50
0
  1
品番
  0
TEXT
  8
_0-2_FRF74-1516
 62
    7
 10
931.40046929208268
 20
496.85593532261146
 40
4.4000000000000004
 41
1
 50
0
  1
重量
  0
TEXT
  8
_0-2_FRF74-1516
 62
    7
 10
981.63419090952073
 20
497.28379304790997
 40
4.4000000000000004
 41
1
 50
0
  1
容量
  0
TEXT
  8
_0-2_FRF74-1516
 62
    7
 10
1031.8476186341097
 20
497.19837872271296
 40
4.4000000000000004
 41
1
 50
0
  1
縮尺
  0
TEXT
  8
_0-2_FRF74-1516
 62
    7
 10
942.89541103866486
 20
507.16508785728229
 40
6
 41
1
 50
0
  1
FRF74-1516
  0
TEXT
  8
_0-2_FRF74-1516
 62
    4
 10
690.59866426069993
 20
460.90948008418826
 40
5
 41
1
 50
0
  1
120911S
  0
LINE
  8
_0-1_
  6
CONTINUOUS
 62
    4
 10
977.52936031654713
 20
933.098013386601
 11
1007.5293595541494
 21
933.098013386601
  0
LINE
  8
_0-1_
  6
CONTINUOUS
 62
    4
 10
977.52936031654713
 20
933.098013386601
 11
1007.5293595541494
 21
933.098013386601
  0
LINE
  8
_0-1_
  6
CONTINUOUS
 62
    4
 10
762.26484720485087
 20
758.73650962703425
 11
897.26484720485075
 21
758.73650962703425
  0
POINT
  8
_0-1_
 62
    7
 10
762.26484720485087
 20
758.73650962703425
  0
POINT
  8
_0-1_
 62
    7
 10
897.26484720485075
 20
758.73650962703425
  0
LINE
  8
_0-1_
  6
CONTINUOUS
 62
    4
 10
762.26484720485087
 20
758.73650962703425
 11
762.26484720485087
 21
816.09801305222345
  0
LINE
  8
_0-1_
  6
CONTINUOUS
 62
    4
 10
897.26484720485075
 20
758.73650962703425
 11
897.26484720485075
 21
816.09801305222345
  0
TEXT
  8
_0-1_
 62
    4
 10
826.01484720485087
 20
759.73650962703425
 40
5
 41
1
 50
0
  1
135
  0
TEXT
  8
_0-1_
 62
    4
 10
826.01484720485087
 20
774.66072012531151
 40
5
 41
1
 50
0
  1
125
  0
LINE
  8
_0-1_
  6
CONTINUOUS
 62
    4
 10
946.52935955414955
 20
903.09801305222402
 11
946.52935955414955
 21
808.09801301477376
  0
POINT
  8
_0-1_
 62
    7
 10
946.52935955414955
 20
903.09801305222402
  0
POINT
  8
_0-1_
 62
    7
 10
946.52935955414955
 20
808.09801301477376
  0
LINE
  8
_0-1_
  6
CONTINUOUS
 62
    4
 10
946.52935955414955
 20
903.09801305222402
 11
970.52935955414955
 21
903.09801305222402
  0
LINE
  8
_0-1_
  6
CONTINUOUS
 62
    4
 10
946.52935955414955
 20
808.09801301477376
 11
988.02935955414978
 21
808.09801301477376
  0
TEXT
  8
_0-1_
 62
    4
 10
945.52935955414955
 20
853.09801303349889
 40
5
 41
1
 50
90
  1
95
  0
LINE
  8
_0-1_
  6
CONTINUOUS
 62
    4
 10
961.52935955414955
 20
903.09801305222402
 11
961.52935955414955
 21
881.09801305222391
  0
POINT
  8
_0-1_
 62
    7
 10
961.52935955414955
 20
903.09801305222402
  0
POINT
  8
_0-1_
 62
    7
 10
961.52935955414955
 20
881.09801305222391
  0
LINE
  8
_0-1_
  6
CONTINUOUS
 62
    4
 10
961.52935955414955
 20
903.09801305222402
 11
970.52935955414955
 21
903.09801305222402
  0
LINE
  8
_0-1_
  6
CONTINUOUS
 62
    4
 10
961.52935955414955
 20
881.09801305222391
 11
970.52935955414955
 21
881.09801305222391
  0
TEXT
  8
_0-1_
 62
    4
 10
960.52935955414955
 20
889.59801305222391
 40
5
 41
1
 50
90
  1
22
  0
LINE
  8
_0-1_
  6
CONTINUOUS
 62
    4
 10
994.02935945973024
 20
778.09801085340371
 11
1007.0293597279511
 21
778.09801085340371
  0
POINT
  8
_0-1_
 62
    7
 10
994.02935945973024
 20
778.09801085340371
  0
POINT
  8
_0-1_
 62
    7
 10
1007.0293597279511
 20
778.09801085340371
  0
LINE
  8
_0-1_
  6
CONTINUOUS
 62
    4
 10
994.02935945973024
 20
778.09801085340371
 11
994.02935945973024
 21
802.09801085340371
  0
LINE
  8
_0-1_
  6
CONTINUOUS
 62
    4
 10
1007.0293597279511
 20
778.09801085340371
 11
1007.0293597279511
 21
802.09801085340371
  0
TEXT
  8
_0-1_
 62
    4
 10
998.0293595938407
 20
779.09801085340371
 40
5
 41
1
 50
0
  1
13
  0
LINE
  8
_0-1_
  6
CONTINUOUS
 62
    4
 10
767.26484720485087
 20
773.10072012531145
 11
892.26484720485087
 21
773.10072012531145
  0
POINT
  8
_0-1_
 62
    7
 10
767.26484720485087
 20
773.10072012531145
  0
POINT
  8
_0-1_
 62
    7
 10
892.26484720485087
 20
773.10072012531145
  0
LINE
  8
_0-1_
  6
CONTINUOUS
 62
    4
 10
767.26484720485087
 20
773.10072012531145
 11
767.26484720485087
 21
790.61562585729166
  0
LINE
  8
_0-1_
  6
CONTINUOUS
 62
    4
 10
892.26484720485087
 20
773.10072012531145
 11
892.26484720485087
 21
790.61562586687489
  0
LINE
  8
_0-1_
  6
CONTINUOUS
 62
    4
 10
912.26484913064451
 20
788.10106064630065
 11
912.26484913064451
 21
903.098013386601
  0
POINT
  8
_0-1_
 62
    7
 10
912.26484913064451
 20
788.10106064630065
  0
POINT
  8
_0-1_
 62
    7
 10
912.26484913064451
 20
903.098013386601
  0
LINE
  8
_0-1_
  6
CONTINUOUS
 62
    4
 10
912.26484913064451
 20
788.10106064630065
 11
888.27144361221895
 21
788.10106064630065
  0
LINE
  8
_0-1_
  6
CONTINUOUS
 62
    4
 10
912.26484913064451
 20
903.098013386601
 11
845.76484715624065
 21
903.098013386601
  0
TEXT
  8
_0-1_
 62
    4
 10
911.26484913064451
 20
841.84953701645077
 40
5
 41
1
 50
90
  1
115
  0
POINT
  8
_0-1_
 62
    7
 10
977.52936031654713
 20
933.098013386601
  0
POINT
  8
_0-1_
 62
    7
 10
1007.5293595541494
 20
933.098013386601
  0
LINE
  8
_0-1_
  6
CONTINUOUS
 62
    4
 10
977.52936031654713
 20
933.098013386601
 11
977.52936031654713
 21
909.098013386601
  0
LINE
  8
_0-1_
  6
CONTINUOUS
 62
    4
 10
1007.5293595541494
 20
933.098013386601
 11
1007.5293595541494
 21
908.59801305222391
  0
TEXT
  8
_0-1_
 62
    4
 10
990.02935993534834
 20
934.098013386601
 40
5
 41
1
 50
0
  1
30
  0
TEXT
  8
_0-1_
 62
    4
 10
827.26484737975807
 20
709.2133674470449
 40
5
 41
1
 50
0
  1
42
  0
LINE
  8
_0-1_
  6
CONTINUOUS
 62
    4
 10
808.76484673155755
 20
707.2133674470449
 11
850.76484802795858
 21
707.2133674470449
  0
POINT
  8
_0-1_
 62
    7
 10
808.76484673155755
 20
707.2133674470449
  0
POINT
  8
_0-1_
 62
    7
 10
850.76484802795858
 20
707.2133674470449
  0
LINE
  8
_0-1_
  6
CONTINUOUS
 62
    4
 10
808.76484673155755
 20
707.2133674470449
 11
808.76484673155755
 21
688.5218848149467
  0
LINE
  8
_0-1_
  6
CONTINUOUS
 62
    4
 10
850.76484802795858
 20
707.2133674470449
 11
850.76484802795858
 21
688.5218848149467
  0
LINE
  8
_0-0_FRF74-1516
  6
CONTINUOUS
 62
    7
 10
808.51484808756322
 20
898.09801256703713
 11
807.51484792365045
 21
898.09801256703713
  0
LINE
  8
_0-0_FRF74-1516
  6
CONTINUOUS
 62
    7
 10
766.26484442187757
 20
886.09801292839029
 11
767.26484644843549
 21
886.09801292839029
  0
LINE
  8
_0-0_FRF74-1516
  6
CONTINUOUS
 62
    7
 10
767.26484644843549
 20
898.09801256703713
 11
766.26484442187757
 21
898.09801256703713
  0
LINE
  8
_0-0_FRF74-1516
  6
CONTINUOUS
 62
    7
 10
852.01484683586568
 20
898.09801256703713
 11
851.01484667195291
 21
898.09801256703713
  0
LINE
  8
_0-0_FRF74-1516
  6
CONTINUOUS
 62
    7
 10
893.26484847499341
 20
898.09801256703713
 11
892.26484644843549
 21
898.09801256703713
  0
LINE
  8
_0-0_FRF74-1516
  6
CONTINUOUS
 62
    7
 10
892.26484644843549
 20
886.09801292839029
 11
893.26484847499341
 21
886.09801292839029
  0
LINE
  8
_0-0_FRF74-1516
  6
CONTINUOUS
 62
    7
 10
807.51484792365045
 20
898.29801222729066
 11
767.26484644843549
 21
898.29801222729066
  0
LINE
  8
_0-0_FRF74-1516
  6
CONTINUOUS
 62
    7
 10
892.26484644843549
 20
898.29801222729066
 11
852.01484683586568
 21
898.29801222729066
  0
LINE
  8
_0-0_FRF74-1516
  6
CONTINUOUS
 62
    7
 10
809.51789553894014
 20
896.09801317053416
 11
808.51484808756322
 21
896.09801317053416
  0
LINE
  8
_0-0_FRF74-1516
  6
CONTINUOUS
 62
    7
 10
851.01484667195291
 20
896.09801317053416
 11
850.01179735793085
 21
896.09801317053416
  0
LINE
  8
_0-0_FRF74-1516
  6
CONTINUOUS
 62
    7
 10
897.26484913064451
 20
832.09801478731026
 11
893.26484847499341
 21
832.09801478731026
  0
LINE
  8
_0-0_FRF74-1516
  6
CONTINUOUS
 62
    7
 10
766.26484442187757
 20
898.59801358031609
 11
762.26484376622648
 21
898.59801358031609
  0
LINE
  8
_0-0_FRF74-1516
  6
CONTINUOUS
 62
    7
 10
808.51484808756322
 20
898.09801256703713
 11
808.51484808756322
 21
890.85658187466242
  0
LINE
  8
_0-0_FRF74-1516
  6
CONTINUOUS
 62
    7
 10
851.01484667195291
 20
890.85582843469956
 11
851.01484667195291
 21
898.09801256703713
  0
LINE
  8
_0-0_FRF74-1516
  6
CONTINUOUS
 62
    7
 10
893.26484847499341
 20
898.09801256703713
 11
893.26484847499341
 21
886.09801292839029
  0
LINE
  8
_0-0_FRF74-1516
  6
CONTINUOUS
 62
    7
 10
820.51484726054878
 20
883.9742507734386
 11
820.48745433122622
 21
883.9756111457416
  0
ARC
  8
_0-0_FRF74-1516
  6
CONTINUOUS
 62
    7
 10
825.87514705036403
 20
992.4640635653484
 40
108.62215032504697
 50
266.98340910333536
 51
267.15694481186688
  0
LINE
  8
_0-0_FRF74-1516
  6
CONTINUOUS
 62
    7
 10
820.1588930314183
 20
883.99242680611064
 11
820.12237179363615
 21
883.99435140758715
  0
ARC
  8
_0-0_FRF74-1516
  6
CONTINUOUS
 62
    7
 10
822.22749145677244
 20
923.94110231784475
 40
40.002180404101793
 50
266.61695523862716
 51
266.98340910333729
  0
ARC
  8
_0-0_FRF74-1516
  6
CONTINUOUS
 62
    7
 10
822.0562009270958
 20
921.04347098070525
 40
37.099490649489702
 50
266.22182998962955
 51
266.6169552386279
  0
LINE
  8
_0-0_FRF74-1516
  6
CONTINUOUS
 62
    7
 10
819.61157717921606
 20
884.02461063651208
 11
819.48483770479493
 21
884.03298016291251
  0
ARC
  8
_0-0_FRF74-1516
  6
CONTINUOUS
 62
    7
 10
820.5420776408173
 20
900.04273118322112
 40
16.044621653831193
 50
264.40119171441324
 51
266.22182998962677
  0
LINE
  8
_0-0_FRF74-1516
  6
CONTINUOUS
 62
    7
 10
818.97672905948139
 20
884.07465152931468
 11
818.82868673792768
 21
884.08916409707763
  0
ARC
  8
_0-0_FRF74-1516
  6
CONTINUOUS
 62
    7
 10
820.70515372252225
 20
903.23095438915789
 40
19.233545277203945
 50
263.72498493675783
 51
264.40119171441478
  0
LINE
  8
_0-0_FRF74-1516
  6
CONTINUOUS
 62
    7
 10
818.60291059239648
 20
884.11264280700993
 11
818.59915975930835
 21
884.11305524735849
  0
ARC
  8
_0-0_FRF74-1516
  6
CONTINUOUS
 62
    7
 10
820.3228608702459
 20
899.78881341307533
 40
15.770242217223066
 50
262.92769868678852
 51
263.72498493675596
  0
ARC
  8
_0-0_FRF74-1516
  6
CONTINUOUS
 62
    7
 10
820.00757905636226
 20
897.24756419149458
 40
13.209509855505042
 50
261.97586087207634
 51
262.92769868679886
  0
LINE
  8
_0-0_FRF74-1516
  6
CONTINUOUS
 62
    7
 10
818.16365966926787
 20
884.16738407359935
 11
818.12680746501758
 21
884.1725791468524
  0
ARC
  8
_0-0_FRF74-1516
  6
CONTINUOUS
 62
    7
 10
819.3765979113798
 20
893.03819673428438
 40
8.9532760130803943
 50
260.09534313201152
 51
261.97586087207088
  0
LINE
  8
_0-0_FRF74-1516
  6
CONTINUOUS
 62
    7
 10
817.83655236145262
 20
884.21836617635699
 11
817.79026483636176
 21
884.22644851950008
  0
ARC
  8
_0-0_FRF74-1516
  6
CONTINUOUS
 62
    7
 10
819.40411038597836
 20
893.46893118176354
 40
9.3823229117452271
 50
258.56388290991242
 51
260.09534313202062
  0
LINE
  8
_0-0_FRF74-1516
  6
CONTINUOUS
 62
    7
 10
817.54382818178692
 20
884.27288130472243
 11
817.5344806077253
 21
884.27477223897267
  0
ARC
  8
_0-0_FRF74-1516
  6
CONTINUOUS
 62
    7
 10
819.69135003247368
 20
894.9369603540606
 40
10.878158902908968
 50
257.34344130152709
 51
258.5638829099056
  0
ARC
  8
_0-0_FRF74-1516
  6
CONTINUOUS
 62
    7
 10
820.04320654317701
 20
896.50380906110468
 40
12.484028721695527
 50
256.27998022834174
 51
257.34344130154267
  0
LINE
  8
_0-0_FRF74-1516
  6
CONTINUOUS
 62
    7
 10
817.08227455411259
 20
884.37599578416734
 11
817.00040430011472
 21
884.39598390968354
  0
ARC
  8
_0-0_FRF74-1516
  6
CONTINUOUS
 62
    7
 10
819.4438003945412
 20
894.40399885370471
 40
10.301968141768358
 50
254.05409771208841
 51
256.27998022833526
  0
LINE
  8
_0-0_FRF74-1516
  6
CONTINUOUS
 62
    7
 10
816.61354454039497
 20
884.4984347913163
 11
816.5512986517997
 21
884.51621992596222
  0
ARC
  8
_0-0_FRF74-1516
  6
CONTINUOUS
 62
    7
 10
820.73333393391999
 20
899.15285369090066
 40
15.22236732804177
 50
252.4171954521164
 51
254.05409771208855
  0
LINE
  8
_0-0_FRF74-1516
  6
CONTINUOUS
 62
    7
 10
816.13490324210284
 20
884.64165449020084
 11
816.12650866735305
 21
884.64431463355913
  0
ARC
  8
_0-0_FRF74-1516
  6
CONTINUOUS
 62
    7
 10
819.95498179813183
 20
896.72577023407962
 40
12.673546304820853
 50
250.53074858643527
 51
252.41719545211703
  0
ARC
  8
_0-0_FRF74-1516
  6
CONTINUOUS
 62
    7
 10
821.63447726105733
 20
901.47662031690788
 40
17.712522542063716
 50
249.18091116356538
 51
250.530748586436
  0
LINE
  8
_0-0_FRF74-1516
  6
CONTINUOUS
 62
    7
 10
815.3391209797536
 20
884.92059591204043
 11
815.32075321769139
 21
884.92758017368715
  0
ARC
  8
_0-0_FRF74-1516
  6
CONTINUOUS
 62
    7
 10
819.69956794673647
 20
896.4433324645895
 40
12.320169205685563
 50
247.05764849482773
 51
249.18091116356652
  0
LINE
  8
_0-0_FRF74-1516
  6
CONTINUOUS
 62
    7
 10
814.89710735441463
 20
885.09771914860175
 11
814.84389546968748
 21
885.12024309440585
  0
ARC
  8
_0-0_FRF74-1516
  6
CONTINUOUS
 62
    7
 10
820.24315060444349
 20
897.87575868390059
 40
13.851178071342133
 50
244.86200500857552
 51
247.05764849482506
  0
LINE
  8
_0-0_FRF74-1516
  6
CONTINUOUS
 62
    7
 10
814.3591722894887
 20
885.33646312341671
 11
814.35581196467706
 21
885.33803993275387
  0
ARC
  8
_0-0_FRF74-1516
  6
CONTINUOUS
 62
    7
 10
820.35047315207441
 20
898.11321081037181
 40
14.111731066882649
 50
242.73702244928865
 51
244.86200500857808
  0
ARC
  8
_0-0_FRF74-1516
  6
CONTINUOUS
 62
    7
 10
819.9509190661413
 20
897.33786009664891
 40
13.239485575718513
 50
240.47207684872433
 51
242.73702244928739
  0
LINE
  8
_0-0_FRF74-1516
  6
CONTINUOUS
 62
    7
 10
813.42586944465222
 20
885.81797703531697
 11
813.42003121303003
 21
885.82128390491221
  0
ARC
  8
_0-0_FRF74-1516
  6
CONTINUOUS
 62
    7
 10
819.99006810665094
 20
897.42059136058083
 40
13.330765853268463
 50
238.19034404428442
 51
240.47207684872325
  0
LINE
  8
_0-0_FRF74-1516
  6
CONTINUOUS
 62
    7
 10
812.96343450400468
 20
886.09205489513965
 11
812.96277786861481
 21
886.09246217955001
  0
ARC
  8
_0-0_FRF74-1516
  6
CONTINUOUS
 62
    7
 10
819.86953243162793
 20
897.22772628318535
 40
13.103334127290344
 50
235.87577302526591
 51
238.19034404428353
  0
LINE
  8
_0-0_FRF74-1516
  6
CONTINUOUS
 62
    7
 10
812.51870505025272
 20
886.38048229862261
 11
812.51787076168159
 21
886.38104766907804
  0
ARC
  8
_0-0_FRF74-1516
  6
CONTINUOUS
 62
    7
 10
819.81099493269642
 20
897.14314194613189
 40
13.000474352962613
 50
233.55177374402587
 51
235.87577302526569
  0
LINE
  8
_0-0_FRF74-1516
  6
CONTINUOUS
 62
    7
 10
812.08746302817292
 20
886.68563802206631
 11
812.08594134372515
 21
886.68676188283348
  0
ARC
  8
_0-0_FRF74-1516
  6
CONTINUOUS
 62
    7
 10
819.81122849928397
 20
897.1466423808306
 40
13.003428842740798
 50
231.24496611904397
 51
233.55177374402439
  0
LINE
  8
_0-0_FRF74-1516
  6
CONTINUOUS
 62
    7
 10
811.67118621808868
 20
887.00618512641768
 11
811.66952887998252
 21
887.00751552029624
  0
ARC
  8
_0-0_FRF74-1516
  6
CONTINUOUS
 62
    7
 10
819.79613011352558
 20
897.13122859028545
 40
12.981957245827402
 50
228.95309621720713
 51
231.24496611904303
  0
LINE
  8
_0-0_FRF74-1516
  6
CONTINUOUS
 62
    7
 10
811.27118213236076
 20
887.34059654475709
 11
811.24541669295854
 21
887.36303115669989
  0
ARC
  8
_0-0_FRF74-1516
  6
CONTINUOUS
 62
    7
 10
818.54656547780587
 20
895.74816868716198
 40
11.11833193348898
 50
226.62914227085616
 51
228.95309621720958
  0
LINE
  8
_0-0_FRF74-1516
  6
CONTINUOUS
 62
    7
 10
810.91140830671145
 20
887.66598581643166
 11
810.87541620201603
 21
887.69998719708133
  0
ARC
  8
_0-0_FRF74-1516
  6
CONTINUOUS
 62
    7
 10
818.62858600798927
 20
895.90709214535127
 40
11.2901821806458
 50
224.84293172154352
 51
226.62914227085886
  0
ARC
  8
_0-0_FRF74-1516
  6
CONTINUOUS
 62
    7
 10
820.06505385413175
 20
897.33570575609724
 40
13.316108319923826
 50
223.32844256212059
 51
224.84293172153565
  0
LINE
  8
_0-0_FRF74-1516
  6
CONTINUOUS
 62
    7
 10
810.37848766313846
 20
888.19846458518305
 11
810.35776104226989
 21
888.22043727707137
  0
ARC
  8
_0-0_FRF74-1516
  6
CONTINUOUS
 62
    7
 10
817.28267080302294
 20
894.75263551153398
 40
9.5196632802261885
 50
220.84664111027612
 51
223.32844256211717
  0
LINE
  8
_0-0_FRF74-1516
  6
CONTINUOUS
 62
    7
 10
810.08139877033807
 20
888.52642718863308
 11
810.05011244433115
 21
888.56261315170968
  0
ARC
  8
_0-0_FRF74-1516
  6
CONTINUOUS
 62
    7
 10
818.71242775204189
 20
896.0520371617547
 40
11.451077612715743
 50
218.35670462923045
 51
220.84664111027408
  0
LINE
  8
_0-0_FRF74-1516
  6
CONTINUOUS
 62
    7
 10
809.73292093726548
 20
888.94600902672573
 11
809.73186574712452
 21
888.94734241394031
  0
ARC
  8
_0-0_FRF74-1516
  6
CONTINUOUS
 62
    7
 10
818.620600550463
 20
895.98153715316585
 40
11.335320993841583
 50
215.85853047374812
 51
218.35670462923258
  0
LINE
  8
_0-0_FRF74-1516
  6
CONTINUOUS
 62
    7
 10
809.43371018241976
 20
889.34146581326422
 11
809.43330397495436
 21
889.34202782280613
  0
ARC
  8
_0-0_FRF74-1516
  6
CONTINUOUS
 62
    7
 10
818.50192544597348
 20
895.89661714626118
 40
11.189393932817874
 50
213.33488490260945
 51
215.85853047374778
  0
LINE
  8
_0-0_FRF74-1516
  6
CONTINUOUS
 62
    7
 10
809.15348970743685
 20
889.74769156318303
 11
809.15278488702575
 21
889.74876312735
  0
ARC
  8
_0-0_FRF74-1516
  6
CONTINUOUS
 62
    7
 10
818.30939712701991
 20
895.77151696890769
 40
10.959795233014473
 50
210.77179214454327
 51
213.33488490260953
  0
ARC
  8
_0-0_FRF74-1516
  6
CONTINUOUS
 62
    7
 10
818.22241370286247
 20
895.71972246579162
 40
10.858558941936714
 50
208.18481129432828
 51
210.77179214454134
  0
LINE
  8
_0-0_FRF74-1516
  6
CONTINUOUS
 62
    7
 10
808.65136830895244
 20
890.59103916856725
 11
808.62439528963341
 21
890.64137567354373
  0
ARC
  8
_0-0_FRF74-1516
  6
CONTINUOUS
 62
    7
 10
815.84339138625455
 20
894.50970386338054
 40
8.1901079130446544
 50
205.37987740513174
 51
208.18481129432874
  0
LINE
  8
_0-0_FRF74-1516
  6
CONTINUOUS
 62
    7
 10
808.44374451851411
 20
890.99927741349507
 11
808.44304963433387
 21
891.00074216361054
  0
ARC
  8
_0-0_FRF74-1516
  6
CONTINUOUS
 62
    7
 10
821.76448834267899
 20
897.32049385286678
 40
14.744490180201334
 50
203.83420578999386
 51
205.37987740513165
  0
LINE
  8
_0-0_FRF74-1516
  6
CONTINUOUS
 62
    7
 10
808.27742912204917
 20
891.36237130853465
 11
808.27673806998757
 21
891.36393560332908
  0
ARC
  8
_0-0_FRF74-1516
  6
CONTINUOUS
 62
    7
 10
815.73888465884238
 20
894.66045733522469
 40
8.1578604574004938
 50
201.06495567459882
 51
203.83420578999531
  0
LINE
  8
_0-0_FRF74-1516
  6
CONTINUOUS
 62
    7
 10
808.12618506894728
 20
891.72830928363715
 11
808.09268781134074
 21
891.8152777977632
  0
ARC
  8
_0-0_FRF74-1516
  6
CONTINUOUS
 62
    7
 10
814.47025743971335
 20
894.27169659360266
 40
6.8342803326535027
 50
199.32152375147865
 51
201.06495567459928
  0
LINE
  8
_0-0_FRF74-1516
  6
CONTINUOUS
 62
    7
 10
808.0209061655554
 20
892.01044565489383
 11
808.00933539149878
 21
892.04344685132355
  0
ARC
  8
_0-0_FRF74-1516
  6
CONTINUOUS
 62
    7
 10
815.61979239726736
 20
894.71180097203251
 40
8.0646865748247336
 50
198.34089514972467
 51
199.32152375147999
  0
ARC
  8
_0-0_FRF74-1516
  6
CONTINUOUS
 62
    7
 10
815.25231028649523
 20
894.58997683458597
 40
7.6775377375512885
 50
197.31081980142926
 51
198.34089514973186
  0
LINE
  8
_0-0_FRF74-1516
  6
CONTINUOUS
 62
    7
 10
807.92252949321505
 20
892.30548581162589
 11
807.91028243858204
 21
892.34478044002276
  0
ARC
  8
_0-0_FRF74-1516
  6
CONTINUOUS
 62
    7
 10
812.62725034849905
 20
893.81492956858551
 40
4.9407615529795761
 50
194.75594438473058
 51
197.31081980143182
  0
LINE
  8
_0-0_FRF74-1516
  6
CONTINUOUS
 62
    7
 10
807.84943748809201
 20
892.55650635109077
 11
807.83887170434662
 21
892.59662110482168
  0
ARC
  8
_0-0_FRF74-1516
  6
CONTINUOUS
 62
    7
 10
814.73350455518221
 20
894.41259136340864
 40
7.1297763027946939
 50
192.95774369180904
 51
194.75594438473121
  0
ARC
  8
_0-0_FRF74-1516
  6
CONTINUOUS
 62
    7
 10
815.4035711941815
 20
894.56676800285572
 40
7.8173515618398488
 50
191.3176811256541
 51
192.95774369181203
  0
LINE
  8
_0-0_FRF74-1516
  6
CONTINUOUS
 62
    7
 10
807.73823472449783
 20
893.03262255735899
 11
807.73063898938403
 21
893.07057454264987
  0
ARC
  8
_0-0_FRF74-1516
  6
CONTINUOUS
 62
    7
 10
814.85145650664481
 20
894.49573960950875
 40
7.2620339838038177
 50
188.9416839928794
 51
191.31768112564723
  0
LINE
  8
_0-0_FRF74-1516
  6
CONTINUOUS
 62
    7
 10
807.67767766623365
 20
893.36700813976449
 11
807.67158462237705
 21
893.40573316007612
  0
ARC
  8
_0-0_FRF74-1516
  6
CONTINUOUS
 62
    7
 10
818.24510360744023
 20
895.06938406009317
 40
10.703599303253993
 50
187.49273762807042
 51
188.94168399287645
  0
LINE
  8
_0-0_FRF74-1516
  6
CONTINUOUS
 62
    7
 10
807.63289807962417
 20
893.67362911025111
 11
807.63161457319939
 21
893.68338786767322
  0
ARC
  8
_0-0_FRF74-1516
  6
CONTINUOUS
 62
    7
 10
819.16461329180902
 20
895.2002488072601
 40
11.632322491811284
 50
186.25641462068944
 51
187.49273762806547
  0
LINE
  8
_0-0_FRF74-1516
  6
CONTINUOUS
 62
    7
 10
807.60157124159798
 20
893.93257964752297
 11
807.59855601601316
 21
893.9600830224847
  0
ARC
  8
_0-0_FRF74-1516
  6
CONTINUOUS
 62
    7
 10
820.51632737583543
 20
895.37627266308664
 40
12.995168717750131
 50
185.39370044632727
 51
186.25641462067853
  0
ARC
  8
_0-0_FRF74-1516
  6
CONTINUOUS
 62
    7
 10
830.29329602880614
 20
896.29938375364372
 40
22.815619324859828
 50
184.90231517240667
 51
185.39370044633336
  0
LINE
  8
_0-0_FRF74-1516
  6
CONTINUOUS
 62
    7
 10
807.56113980087878
 20
894.34962520294584
 11
807.55929468585964
 21
894.37113732446369
  0
ARC
  8
_0-0_FRF74-1516
  6
CONTINUOUS
 62
    7
 10
829.1264511290691
 20
896.22097274120301
 40
21.646342141685174
 50
184.27009068284806
 51
184.90231517239329
  0
LINE
  8
_0-0_FRF74-1516
  6
CONTINUOUS
 62
    7
 10
807.54019625125261
 20
894.60922571860942
 11
807.537240480528
 21
894.64881258883611
  0
ARC
  8
_0-0_FRF74-1516
  6
CONTINUOUS
 62
    7
 10
896.03104224799381
 20
901.25624043236962
 40
88.740132149817242
 50
184.07773076128518
 51
184.27009068286608
  0
LINE
  8
_0-0_FRF74-1516
  6
CONTINUOUS
 62
    7
 10
807.51555604333134
 20
894.94595074652739
 11
807.51484792365045
 21
894.95585406618693
  0
LINE
  8
_0-0_FRF74-1516
  6
CONTINUOUS
 62
    7
 10
839.01484749896736
 20
883.9742507734386
 11
820.51484726054878
 21
883.9742507734386
  0
ARC
  8
_0-0_FRF74-1516
  6
CONTINUOUS
 62
    7
 10
709.46219294016805
 20
904.96611049725379
 40
142.90368912845554
 50
355.90681697041396
 51
355.98320002351238
  0
LINE
  8
_0-0_FRF74-1516
  6
CONTINUOUS
 62
    7
 10
852.0013751330074
 20
894.76582097593086
 11
852.00084856940862
 21
894.75846275883418
  0
ARC
  8
_0-0_FRF74-1516
  6
CONTINUOUS
 62
    7
 10
818.36968190735001
 20
897.1651528465452
 40
33.717169635505428
 50
355.55801156047306
 51
355.90681697040111
  0
LINE
  8
_0-0_FRF74-1516
  6
CONTINUOUS
 62
    7
 10
851.98557399894264
 20
894.55376870861255
 11
851.98442620101582
 21
894.53899330629247
  0
ARC
  8
_0-0_FRF74-1516
  6
CONTINUOUS
 62
    7
 10
830.68920587650825
 20
896.19327040885128
 40
21.359378300909729
 50
354.92789634342392
 51
355.55801156047232
  0
LINE
  8
_0-0_FRF74-1516
  6
CONTINUOUS
 62
    7
 10
851.96494573210612
 20
894.30490206599666
 11
851.96109104888137
 21
894.26147238352678
  0
ARC
  8
_0-0_FRF74-1516
  6
CONTINUOUS
 62
    7
 10
839.64922322951782
 20
895.35423538915074
 40
12.360267804054239
 50
353.43487045807092
 51
354.92789634342807
  0
LINE
  8
_0-0_FRF74-1516
  6
CONTINUOUS
 62
    7
 10
851.92843898370973
 20
893.94105434981248
 11
851.91943631621598
 21
893.8628296259858
  0
ARC
  8
_0-0_FRF74-1516
  6
CONTINUOUS
 62
    7
 10
840.62503569010823
 20
895.16267101121912
 40
11.368952156192265
 50
352.17614345770221
 51
353.43487045807035
  0
LINE
  8
_0-0_FRF74-1516
  6
CONTINUOUS
 62
    7
 10
851.88815706733601
 20
893.61503734280086
 11
851.88337241657791
 21
893.58021637493539
  0
ARC
  8
_0-0_FRF74-1516
  6
CONTINUOUS
 62
    7
 10
840.04980771002397
 20
895.20623304863443
 40
11.944755497177317
 50
351.31525455335833
 51
352.17614345770272
  0
LINE
  8
_0-0_FRF74-1516
  6
CONTINUOUS
 62
    7
 10
851.85760611924502
 20
893.4026032045299
 11
851.85753963288289
 21
893.40216793918785
  0
ARC
  8
_0-0_FRF74-1516
  6
CONTINUOUS
 62
    7
 10
842.50986028286945
 20
894.83001696442466
 40
9.4561018432300195
 50
350.23314474970601
 51
351.3152545533606
  0
ARC
  8
_0-0_FRF74-1516
  6
CONTINUOUS
 62
    7
 10
843.88370583452399
 20
894.59353101147303
 40
8.0620511964655215
 50
348.96393596121095
 51
350.23314474970971
  0
LINE
  8
_0-0_FRF74-1516
  6
CONTINUOUS
 62
    7
 10
851.79666460645728
 20
893.05023811376554
 11
851.7907331643396
 21
893.01982570338896
  0
ARC
  8
_0-0_FRF74-1516
  6
CONTINUOUS
 62
    7
 10
846.40631769838353
 20
894.06996767763894
 40
5.4858662101903217
 50
346.45178849245855
 51
348.96393596121169
  0
LINE
  8
_0-0_FRF74-1516
  6
CONTINUOUS
 62
    7
 10
851.7395294978005
 20
892.78482956106654
 11
851.72670979061843
 21
892.73162888735897
  0
ARC
  8
_0-0_FRF74-1516
  6
CONTINUOUS
 62
    7
 10
846.48004671985973
 20
893.99591145303157
 40
5.3968401666091363
 50
343.90199630856659
 51
346.45178849246378
  0
LINE
  8
_0-0_FRF74-1516
  6
CONTINUOUS
 62
    7
 10
851.6652703926801
 20
892.49946925677091
 11
851.65889894647353
 21
892.47739197655051
  0
ARC
  8
_0-0_FRF74-1516
  6
CONTINUOUS
 62
    7
 10
844.55028554617309
 20
894.52891949403693
 40
7.3987262167168995
 50
342.39777312964878
 51
343.90199630856785
  0
ARC
  8
_0-0_FRF74-1516
  6
CONTINUOUS
 62
    7
 10
843.30626244535313
 20
894.92360008344576
 40
8.7038569546239568
 50
341.11908566256687
 51
342.39777312965077
  0
LINE
  8
_0-0_FRF74-1516
  6
CONTINUOUS
 62
    7
 10
851.54179275926333
 20
892.10701237218541
 11
851.52441957432893
 21
892.05621424131073
  0
ARC
  8
_0-0_FRF74-1516
  6
CONTINUOUS
 62
    7
 10
844.65372747015874
 20
894.40602126172462
 40
7.2614050309491631
 50
338.73944287966884
 51
341.11908566256835
  0
LINE
  8
_0-0_FRF74-1516
  6
CONTINUOUS
 62
    7
 10
851.42092905816048
 20
891.77296492149208
 11
851.40092917496929
 21
891.72156334712258
  0
ARC
  8
_0-0_FRF74-1516
  6
CONTINUOUS
 62
    7
 10
842.57852830389515
 20
895.15427896044844
 40
9.4666939113875088
 50
336.24663455351401
 51
338.73944287966771
  0
LINE
  8
_0-0_FRF74-1516
  6
CONTINUOUS
 62
    7
 10
851.24327794570911
 20
891.34109036603218
 11
851.24308533421822
 21
891.34065269286043
  0
ARC
  8
_0-0_FRF74-1516
  6
CONTINUOUS
 62
    7
 10
841.66044109358813
 20
895.55778893259412
 40
10.46954195306351
 50
333.98730871906042
 51
336.24663455351788
  0
LINE
  8
_0-0_FRF74-1516
  6
CONTINUOUS
 62
    7
 10
851.06938623211079
 20
890.96615958265443
 11
851.04537972269338
 21
890.91696660280763
  0
ARC
  8
_0-0_FRF74-1516
  6
CONTINUOUS
 62
    7
 10
842.8220678784993
 20
894.92999882497566
 40
9.1502614882319939
 50
330.71728478837963
 51
333.98730871906344
  0
LINE
  8
_0-0_FRF74-1516
  6
CONTINUOUS
 62
    7
 10
850.80308029438061
 20
890.45442890366189
 11
850.76107882058352
 21
890.37953022265515
  0
ARC
  8
_0-0_FRF74-1516
  6
CONTINUOUS
 62
    7
 10
842.29735343982691
 20
895.1257945764105
 40
9.7036937625109658
 50
328.16668951392319
 51
330.71728478837809
  0
ARC
  8
_0-0_FRF74-1516
  6
CONTINUOUS
 62
    7
 10
839.7135989031699
 20
896.72987061958293
 40
12.7448855450158
 50
326.2245839292915
 51
328.16668951392188
  0
LINE
  8
_0-0_FRF74-1516
  6
CONTINUOUS
 62
    7
 10
850.30744195605132
 20
889.64449152411657
 11
850.30304431613365
 21
889.63791630683295
  0
ARC
  8
_0-0_FRF74-1516
  6
CONTINUOUS
 62
    7
 10
842.43589022525214
 20
894.8996300077149
 40
9.4645519999482079
 50
323.51384288645863
 51
326.2245839292932
  0
LINE
  8
_0-0_FRF74-1516
  6
CONTINUOUS
 62
    7
 10
850.04539522628829
 20
889.27173713391835
 11
850.02353220933787
 21
889.24217602809199
  0
ARC
  8
_0-0_FRF74-1516
  6
CONTINUOUS
 62
    7
 10
840.8780493862796
 20
896.00605851457476
 40
11.374970872833121
 50
321.00330871439667
 51
323.51384288646204
  0
LINE
  8
_0-0_FRF74-1516
  6
CONTINUOUS
 62
    7
 10
849.71847543589024
 20
888.84806790133916
 11
849.69018734071824
 21
888.81313088801176
  0
ARC
  8
_0-0_FRF74-1516
  6
CONTINUOUS
 62
    7
 10
842.36955788289674
 20
894.74055979788704
 40
9.4194495136579022
 50
318.51835785598223
 51
321.00330871438871
  0
ARC
  8
_0-0_FRF74-1516
  6
CONTINUOUS
 62
    7
 10
838.0864421234802
 20
898.52749470529079
 40
15.136612848868392
 50
316.97183501348832
 51
318.51835785598655
  0
LINE
  8
_0-0_FRF74-1516
  6
CONTINUOUS
 62
    7
 10
849.15158405665625
 20
888.19890900660016
 11
849.14989202158483
 21
888.19709630844704
  0
ARC
  8
_0-0_FRF74-1516
  6
CONTINUOUS
 62
    7
 10
841.98292480678117
 20
894.88699107209891
 40
9.8040864442744926
 50
314.55537549911492
 51
316.97183501348348
  0
LINE
  8
_0-0_FRF74-1516
  6
CONTINUOUS
 62
    7
 10
848.86145501797785
 20
887.9008667430835
 11
848.82610474091996
 21
887.86606089977681
  0
ARC
  8
_0-0_FRF74-1516
  6
CONTINUOUS
 62
    7
 10
840.05611277671483
 20
896.77323326730971
 40
12.50001914547191
 50
312.20534824949061
 51
314.55537549911173
  0
LINE
  8
_0-0_FRF74-1516
  6
CONTINUOUS
 62
    7
 10
848.45349734441697
 20
887.51394544052278
 11
848.45189493356349
 21
887.51249219050806
  0
ARC
  8
_0-0_FRF74-1516
  6
CONTINUOUS
 62
    7
 10
839.78617632544217
 20
897.06765572644326
 40
12.89945073224467
 50
309.9088606763936
 51
312.20534824949175
  0
LINE
  8
_0-0_FRF74-1516
  6
CONTINUOUS
 62
    7
 10
848.06205454391909
 20
887.17292637660512
 11
848.06038339668203
 21
887.17152864145442
  0
ARC
  8
_0-0_FRF74-1516
  6
CONTINUOUS
 62
    7
 10
839.73734418284243
 20
897.12264418652876
 40
12.972959660252222
 50
307.60614597528559
 51
309.90886067639599
  0
LINE
  8
_0-0_FRF74-1516
  6
CONTINUOUS
 62
    7
 10
847.65383526754272
 20
886.84515172715942
 11
847.64035860974479
 21
886.8347710003693
  0
ARC
  8
_0-0_FRF74-1516
  6
CONTINUOUS
 62
    7
 10
840.17654605706218
 20
896.52457882148792
 40
12.231143586427024
 50
305.28523740776933
 51
307.60614597528439
  0
ARC
  8
_0-0_FRF74-1516
  6
CONTINUOUS
 62
    7
 10
839.23256072251991
 20
897.85854577460395
 40
13.865333337905161
 50
303.23781263299747
 51
305.28523740776961
  0
LINE
  8
_0-0_FRF74-1516
  6
CONTINUOUS
 62
    7
 10
846.83236249383629
 20
886.26154264414299
 11
846.83169465979609
 21
886.26110499604852
  0
ARC
  8
_0-0_FRF74-1516
  6
CONTINUOUS
 62
    7
 10
840.04455820998692
 20
896.61801232386597
 40
12.382679459039993
 50
300.9379129644189
 51
303.23781263299583
  0
LINE
  8
_0-0_FRF74-1516
  6
CONTINUOUS
 62
    7
 10
846.41060425182434
 20
885.99707976695117
 11
846.39555089712951
 21
885.98805698589513
  0
ARC
  8
_0-0_FRF74-1516
  6
CONTINUOUS
 62
    7
 10
839.45619353711436
 20
897.56548605641524
 40
13.497834806105772
 50
298.67903847289318
 51
300.93791296442407
  0
LINE
  8
_0-0_FRF74-1516
  6
CONTINUOUS
 62
    7
 10
845.93383906142037
 20
885.72354141398591
 11
845.93220684417224
 21
885.72264857711912
  0
ARC
  8
_0-0_FRF74-1516
  6
CONTINUOUS
 62
    7
 10
839.3298657405237
 20
897.79255230471199
 40
13.757670007755337
 50
296.44732521334726
 51
298.67903847289091
  0
LINE
  8
_0-0_FRF74-1516
  6
CONTINUOUS
 62
    7
 10
845.45718620607454
 20
885.47470233181775
 11
845.45431344542601
 21
885.4732733222786
  0
ARC
  8
_0-0_FRF74-1516
  6
CONTINUOUS
 62
    7
 10
839.23520726363358
 20
897.97564158317141
 40
13.963756436983306
 50
294.22222019041249
 51
296.44732521334606
  0
LINE
  8
_0-0_FRF74-1516
  6
CONTINUOUS
 62
    7
 10
844.96421169518828
 20
885.24123927860228
 11
844.95794636351616
 21
885.23842060584025
  0
ARC
  8
_0-0_FRF74-1516
  6
CONTINUOUS
 62
    7
 10
839.18753335303722
 20
898.06486569186973
 40
14.064684847391048
 50
292.02323229271059
 51
294.22222019041374
  0
ARC
  8
_0-0_FRF74-1516
  6
CONTINUOUS
 62
    7
 10
838.95182990817943
 20
898.6475718136453
 40
14.693256671666269
 50
289.91829461229861
 51
292.02323229271167
  0
LINE
  8
_0-0_FRF74-1516
  6
CONTINUOUS
 62
    7
 10
843.95752518228585
 20
884.83327463853539
 11
843.90889074877202
 21
884.81565165338361
  0
ARC
  8
_0-0_FRF74-1516
  6
CONTINUOUS
 62
    7
 10
839.70062918220196
 20
896.42925829298656
 40
12.352543243887215
 50
287.39161733031733
 51
289.91829461229906
  0
LINE
  8
_0-0_FRF74-1516
  6
CONTINUOUS
 62
    7
 10
843.39281891832616
 20
884.64142305726318
 11
843.3140762415461
 21
884.61675924943177
  0
ARC
  8
_0-0_FRF74-1516
  6
CONTINUOUS
 62
    7
 10
839.25414338563985
 20
897.57866613771694
 40
13.582859970383289
 50
285.78967060047353
 51
287.39161733031659
  0
LINE
  8
_0-0_FRF74-1516
  6
CONTINUOUS
 62
    7
 10
842.95013156673781
 20
884.50832733796778
 11
842.92515080248529
 21
884.5012633581548
  0
ARC
  8
_0-0_FRF74-1516
  6
CONTINUOUS
 62
    7
 10
839.18647783465235
 20
897.72255086143696
 40
13.739727755849058
 50
284.42248846203927
 51
285.78967060047688
  0
ARC
  8
_0-0_FRF74-1516
  6
CONTINUOUS
 62
    7
 10
839.64075004891322
 20
895.95615595010213
 40
11.915854342632358
 50
282.84606631760704
 51
284.42248846203711
  0
LINE
  8
_0-0_FRF74-1516
  6
CONTINUOUS
 62
    7
 10
842.29003119479353
 20
884.3385445723311
 11
842.25507286494042
 21
884.33057267164008
  0
ARC
  8
_0-0_FRF74-1516
  6
CONTINUOUS
 62
    7
 10
840.2934923784187
 20
892.93248334996201
 40
8.8227357051502029
 50
280.62156740223332
 51
282.84606631760909
  0
LINE
  8
_0-0_FRF74-1516
  6
CONTINUOUS
 62
    7
 10
841.91971081287204
 20
884.26091607948683
 11
841.88470177814065
 21
884.25435067603939
  0
ARC
  8
_0-0_FRF74-1516
  6
CONTINUOUS
 62
    7
 10
839.73978574139778
 20
895.69179555311234
 40
11.636829899966658
 50
279.28561488667253
 51
280.62156740223082
  0
ARC
  8
_0-0_FRF74-1516
  6
CONTINUOUS
 62
    7
 10
839.52332950905816
 20
897.01569910576814
 40
12.978311885404135
 50
278.08774027909413
 51
279.28561488667907
  0
LINE
  8
_0-0_FRF74-1516
  6
CONTINUOUS
 62
    7
 10
841.34924030288369
 20
884.16647231316256
 11
841.34011927682093
 21
884.16517619004094
  0
ARC
  8
_0-0_FRF74-1516
  6
CONTINUOUS
 62
    7
 10
839.39600714868698
 20
897.84620470967116
 40
13.818470006541558
 50
276.88630184662463
 51
278.08774027910084
  0
LINE
  8
_0-0_FRF74-1516
  6
CONTINUOUS
 62
    7
 10
841.05283464240745
 20
884.12742065357702
 11
841.03754941685042
 21
884.12557464580789
  0
ARC
  8
_0-0_FRF74-1516
  6
CONTINUOUS
 62
    7
 10
839.09707278082215
 20
900.19301681252864
 40
16.184194368453657
 50
275.75147030973233
 51
276.88630184661957
  0
LINE
  8
_0-0_FRF74-1516
  6
CONTINUOUS
 62
    7
 10
840.71894906785121
 20
884.09029453753851
 11
840.71267164373569
 21
884.08966227144447
  0
ARC
  8
_0-0_FRF74-1516
  6
CONTINUOUS
 62
    7
 10
838.74622721808873
 20
903.61341307083285
 40
19.622531665301825
 50
274.77863685219313
 51
275.75147030973289
  0
LINE
  8
_0-0_FRF74-1516
  6
CONTINUOUS
 62
    7
 10
840.38090749070727
 20
884.05908952431037
 11
840.33885613026962
 21
884.05557416213583
  0
ARC
  8
_0-0_FRF74-1516
  6
CONTINUOUS
 62
    7
 10
838.76876671709897
 20
902.83725085844776
 40
18.847189718632912
 50
273.92068099450864
 51
274.7786368521854
  0
ARC
  8
_0-0_FRF74-1516
  6
CONTINUOUS
 62
    7
 10
837.06602554468361
 20
927.68180226628556
 40
43.750022130969739
 50
273.55107425814231
 51
273.92068099450927
  0
LINE
  8
_0-0_FRF74-1516
  6
CONTINUOUS
 62
    7
 10
839.77582607318152
 20
884.0157809504376
 11
839.76849376829398
 21
884.01532592652984
  0
ARC
  8
_0-0_FRF74-1516
  6
CONTINUOUS
 62
    7
 10
837.53336896513474
 20
920.03262173505436
 40
36.086581720141695
 50
273.07960038713406
 51
273.55104958323216
  0
LINE
  8
_0-0_FRF74-1516
  6
CONTINUOUS
 62
    7
 10
839.4720588657143
 20
883.99815404488515
 11
839.42265005947354
 21
883.99549580238022
  0
ARC
  8
_0-0_FRF74-1516
  6
CONTINUOUS
 62
    7
 10
834.05202055902612
 20
983.81949300373753
 40
99.968365388695304
 50
272.96612496769922
 51
273.07960038713395
  0
ARC
  8
_0-0_FRF74-1516
  6
CONTINUOUS
 62
    7
 10
825.29322922827657
 20
1152.8594094559778
 40
269.23504781543863
 50
272.92398997510384
 51
272.96612448232747
  0
LINE
  8
_0-0_FRF74-1516
  6
CONTINUOUS
 62
    7
 10
839.02720611078348
 20
883.97488247241881
 11
839.01484749896736
 21
883.9742507734386
  0
LINE
  8
_0-0_FRF74-1516
  6
CONTINUOUS
 62
    7
 10
852.01484683586568
 20
895.89804703789332
 11
852.01484683586568
 21
894.95585406618693
  0
LINE
  8
_0-0_FRF74-1516
  6
CONTINUOUS
 62
    7
 10
807.51484792365045
 20
894.95585406618693
 11
807.51484792365045
 21
895.89804703789332
  0
LINE
  8
_0-0_FRF74-1516
  6
CONTINUOUS
 62
    7
 10
767.26484644843549
 20
898.29801222729066
 11
767.26484644843549
 21
895.89804703789332
  0
LINE
  8
_0-0_FRF74-1516
  6
CONTINUOUS
 62
    7
 10
807.51484792365045
 20
895.89804703789332
 11
807.51484792365045
 21
898.29801222729066
  0
LINE
  8
_0-0_FRF74-1516
  6
CONTINUOUS
 62
    7
 10
852.01484683586568
 20
898.29801222729066
 11
852.01484683586568
 21
895.89804703789332
  0
LINE
  8
_0-0_FRF74-1516
  6
CONTINUOUS
 62
    7
 10
892.26484644843549
 20
895.89804703789332
 11
892.26484644843549
 21
898.29801222729066
  0
LINE
  8
_0-0_FRF74-1516
  6
CONTINUOUS
 62
    7
 10
893.26484847499341
 20
825.59801279055466
 11
893.26484847499341
 21
822.09801314818253
  0
LINE
  8
_0-0_FRF74-1516
  6
CONTINUOUS
 62
    7
 10
897.26484913064451
 20
825.59801279055466
 11
897.26484913064451
 21
822.09801314818253
  0
ARC
  8
_0-0_FRF74-1516
  6
CONTINUOUS
 62
    7
 10
883.26484720485087
 20
822.09801305222334
 40
14.000000037449562
 50
310.00520075623285
 51
0.0000000000005724
  0
ARC
  8
_0-0_FRF74-1516
  6
CONTINUOUS
 62
    7
 10
883.26484720485087
 20
822.09801308967303
 40
10.000000056174411
 50
334.1580665722841
 51
359.99999978543104
  0
LINE
  8
_0-0_FRF74-1516
  6
CONTINUOUS
 62
    7
 10
893.26484847499341
 20
825.59801279055466
 11
893.26484847499341
 21
832.09801478731026
  0
LINE
  8
_0-0_FRF74-1516
  6
CONTINUOUS
 62
    7
 10
897.26484913064451
 20
832.09801478731026
 11
897.26484913064451
 21
825.59801279055466
  0
ARC
  8
_0-0_FRF74-1516
  6
CONTINUOUS
 62
    7
 10
776.26484720485087
 20
822.09801308967303
 40
10.000000056174429
 50
180.0000002145716
 51
205.84193342771766
  0
ARC
  8
_0-0_FRF74-1516
  6
CONTINUOUS
 62
    7
 10
776.26484720485087
 20
822.09801305222334
 40
14.000000037449638
 50
179.9999999999998
 51
229.99479924376888
  0
LINE
  8
_0-0_FRF74-1516
  6
CONTINUOUS
 62
    7
 10
762.26484376622648
 20
822.09801314818253
 11
762.26484376622648
 21
892.09801344620564
  0
LINE
  8
_0-0_FRF74-1516
  6
CONTINUOUS
 62
    7
 10
766.26484442187757
 20
822.09801314818253
 11
766.26484442187757
 21
892.09801344620564
  0
LINE
  8
_0-0_FRF74-1516
  6
CONTINUOUS
 62
    7
 10
766.26484442187757
 20
898.59801358031609
 11
766.26484442187757
 21
892.09801344620564
  0
LINE
  8
_0-0_FRF74-1516
  6
CONTINUOUS
 62
    7
 10
762.26484376622648
 20
892.09801344620564
 11
762.26484376622648
 21
898.59801358031609
  0
LINE
  8
_0-0_FRF74-1516
  6
CONTINUOUS
 62
    7
 10
819.76484760327548
 20
903.098013386601
 11
839.76484715624065
 21
903.098013386601
  0
ARC
  8
_0-0_FRF74-1516
  6
CONTINUOUS
 62
    7
 10
839.76484720485087
 20
892.09801305222391
 40
11.000000000000016
 50
349.33143884831583
 51
89.999999999999957
  0
ARC
  8
_0-0_FRF74-1516
  6
CONTINUOUS
 62
    7
 10
819.76484720485087
 20
892.09801305222391
 40
11
 50
90
 51
190.51467803352028
  0
LINE
  8
_0-0_FRF74-1516
  6
CONTINUOUS
 62
    7
 10
882.26484853459806
 20
788.10072012531145
 11
882.2714436122933
 21
788.1010606463044
  0
ARC
  8
_0-0_FRF74-1516
  6
CONTINUOUS
 62
    7
 10
873.99698041434999
 20
948.35763454885455
 40
160.47004773538777
 50
272.95570523121825
 51
273.03109535273376
  0
ARC
  8
_0-0_FRF74-1516
  6
CONTINUOUS
 62
    7
 10
879.52807264644662
 20
843.90280653366847
 40
55.868881026014613
 50
273.03109535273148
 51
273.24762051823734
  0
ARC
  8
_0-0_FRF74-1516
  6
CONTINUOUS
 62
    7
 10
880.80090566211481
 20
821.47089524692888
 40
33.400887171159496
 50
273.24763528655586
 51
273.60978637983357
  0
LINE
  8
_0-0_FRF74-1516
  6
CONTINUOUS
 62
    7
 10
882.90385845565174
 20
788.13627580454306
 11
882.93026909947866
 21
788.13794195037417
  0
ARC
  8
_0-0_FRF74-1516
  6
CONTINUOUS
 62
    7
 10
881.62096996878154
 20
808.89208745100996
 40
20.795403811304229
 50
273.60978637983351
 51
274.33727685017203
  0
LINE
  8
_0-0_FRF74-1516
  6
CONTINUOUS
 62
    7
 10
883.19367402364117
 20
788.15623874325183
 11
883.27198465860124
 21
788.16217818922667
  0
ARC
  8
_0-0_FRF74-1516
  6
CONTINUOUS
 62
    7
 10
882.07045417290658
 20
804.00416339434832
 40
15.887484720601513
 50
274.33727685017266
 51
275.2381290708264
  0
LINE
  8
_0-0_FRF74-1516
  6
CONTINUOUS
 62
    7
 10
883.5209068418684
 20
788.18302696859018
 11
883.5703517435785
 21
788.18755998617644
  0
ARC
  8
_0-0_FRF74-1516
  6
CONTINUOUS
 62
    7
 10
881.81420349877067
 20
807.34313917846305
 40
19.235910970102335
 50
275.23812907082635
 51
275.68639467746374
  0
ARC
  8
_0-0_FRF74-1516
  6
CONTINUOUS
 62
    7
 10
882.2423779012754
 20
803.04305321242236
 40
14.914560181945919
 50
275.68639467745953
 51
276.26453898846495
  0
LINE
  8
_0-0_FRF74-1516
  6
CONTINUOUS
 62
    7
 10
883.86984152892262
 20
788.21755262857789
 11
883.90630817199292
 21
788.22155574030307
  0
ARC
  8
_0-0_FRF74-1516
  6
CONTINUOUS
 62
    7
 10
882.9562421298773
 20
796.8762527933128
 40
8.7066874621612609
 50
276.26453898846353
 51
277.7376602976546
  0
LINE
  8
_0-0_FRF74-1516
  6
CONTINUOUS
 62
    7
 10
884.12848898866014
 20
788.24884044279725
 11
884.18609665209203
 21
788.25666786540739
  0
ARC
  8
_0-0_FRF74-1516
  6
CONTINUOUS
 62
    7
 10
883.20923317072334
 20
795.44611264897412
 40
7.2555067746634903
 50
277.73766029765352
 51
279.37659538643322
  0
LINE
  8
_0-0_FRF74-1516
  6
CONTINUOUS
 62
    7
 10
884.39132171036806
 20
788.28754818103585
 11
884.41423332633792
 21
788.29133155950296
  0
ARC
  8
_0-0_FRF74-1516
  6
CONTINUOUS
 62
    7
 10
883.1206532136498
 20
796.12507355136972
 40
7.9398276494568245
 50
279.37659538643447
 51
280.53918566192016
  0
ARC
  8
_0-0_FRF74-1516
  6
CONTINUOUS
 62
    7
 10
883.04352394016507
 20
796.53964331856059
 40
8.361511199879363
 50
280.53918566191896
 51
281.64314849019365
  0
LINE
  8
_0-0_FRF74-1516
  6
CONTINUOUS
 62
    7
 10
884.73100705342222
 20
788.35018239074725
 11
884.75139452339579
 21
788.35438334018772
  0
ARC
  8
_0-0_FRF74-1516
  6
CONTINUOUS
 62
    7
 10
883.08511052654694
 20
796.44096363223798
 40
8.2564691713788019
 50
281.64314849019422
 51
283.05002260335164
  0
LINE
  8
_0-0_FRF74-1516
  6
CONTINUOUS
 62
    7
 10
884.9494348983884
 20
788.39773183062448
 11
884.98255340860533
 21
788.4054083028783
  0
ARC
  8
_0-0_FRF74-1516
  6
CONTINUOUS
 62
    7
 10
882.70847680434042
 20
798.21642914184451
 40
10.071124778528668
 50
283.0500226033509
 51
284.59018597737219
  0
LINE
  8
_0-0_FRF74-1516
  6
CONTINUOUS
 62
    7
 10
885.24542937737704
 20
788.47007464660601
 11
885.28434502590608
 21
788.480204296078
  0
ARC
  8
_0-0_FRF74-1516
  6
CONTINUOUS
 62
    7
 10
882.95012332123554
 20
797.44771612345482
 40
9.2663293347850573
 50
284.59018597737099
 51
286.76124051100601
  0
LINE
  8
_0-0_FRF74-1516
  6
CONTINUOUS
 62
    7
 10
885.62238557706382
 20
788.57506861683237
 11
885.63149904190846
 21
788.57781340840734
  0
ARC
  8
_0-0_FRF74-1516
  6
CONTINUOUS
 62
    7
 10
882.07589056207291
 20
800.38341394193787
 40
12.329418300113565
 50
286.76124051100561
 51
288.48147564694193
  0
ARC
  8
_0-0_FRF74-1516
  6
CONTINUOUS
 62
    7
 10
882.53581858267376
 20
799.00737093174951
 40
10.878546786162248
 50
288.48145010412094
 51
290.43110022487008
  0
LINE
  8
_0-0_FRF74-1516
  6
CONTINUOUS
 62
    7
 10
886.33330989557373
 20
788.81316473866264
 11
886.36939898527987
 21
788.82660845385283
  0
ARC
  8
_0-0_FRF74-1516
  6
CONTINUOUS
 62
    7
 10
882.72945880084933
 20
798.59787524899707
 40
10.427215319926962
 50
290.43110022486991
 51
292.88818984501722
  0
LINE
  8
_0-0_FRF74-1516
  6
CONTINUOUS
 62
    7
 10
886.78495800567168
 20
788.99164052732772
 11
886.81834764349196
 21
789.00573675270141
  0
ARC
  8
_0-0_FRF74-1516
  6
CONTINUOUS
 62
    7
 10
882.8520405043339
 20
798.4007028056302
 40
10.197890931845688
 50
292.88818984501734
 51
295.18864811580551
  0
LINE
  8
_0-0_FRF74-1516
  6
CONTINUOUS
 62
    7
 10
887.19226300583694
 20
789.17251511273696
 11
887.21174936003979
 21
789.1816799797507
  0
ARC
  8
_0-0_FRF74-1516
  6
CONTINUOUS
 62
    7
 10
882.8945800592428
 20
798.36085192219082
 40
10.143724578310632
 50
295.18864811580988
 51
297.25821122601576
  0
LINE
  8
_0-0_FRF74-1516
  6
CONTINUOUS
 62
    7
 10
887.54041928620234
 20
789.34357260978913
 11
887.54185308886633
 21
789.34431132669351
  0
ARC
  8
_0-0_FRF74-1516
  6
CONTINUOUS
 62
    7
 10
882.70864533467511
 20
798.72526106802388
 40
10.552824988814095
 50
297.25821122601531
 51
299.23005104873744
  0
ARC
  8
_0-0_FRF74-1516
  6
CONTINUOUS
 62
    7
 10
883.13968341302245
 20
797.95495821490999
 40
9.6701244107579143
 50
299.23005104873471
 51
301.38184224079055
  0
LINE
  8
_0-0_FRF74-1516
  6
CONTINUOUS
 62
    7
 10
888.17529534013261
 20
789.69941955052946
 11
888.2200604567895
 21
789.72672482575376
  0
ARC
  8
_0-0_FRF74-1516
  6
CONTINUOUS
 62
    7
 10
884.06719445427973
 20
796.53506239186652
 40
7.9749455452023952
 50
301.38184224079197
 51
304.70644237516325
  0
LINE
  8
_0-0_FRF74-1516
  6
CONTINUOUS
 62
    7
 10
888.60790484818153
 20
789.97901895335463
 11
888.64709320857355
 21
790.00616078013184
  0
ARC
  8
_0-0_FRF74-1516
  6
CONTINUOUS
 62
    7
 10
883.27897151378409
 20
797.75685086191368
 40
9.428145484341087
 50
304.70644237516279
 51
306.93972652512804
  0
ARC
  8
_0-0_FRF74-1516
  6
CONTINUOUS
 62
    7
 10
883.28805029183479
 20
797.74477650995527
 40
9.4130387247245668
 50
306.93972652513071
 51
309.17659390947335
  0
LINE
  8
_0-0_FRF74-1516
  6
CONTINUOUS
 62
    7
 10
889.23438616235444
 20
790.44776426190901
 11
889.2687323002948
 21
790.47575293249179
  0
ARC
  8
_0-0_FRF74-1516
  6
CONTINUOUS
 62
    7
 10
884.43513379122351
 20
796.40727585532147
 40
7.6515775321793136
 50
309.17659390947279
 51
312.59128230945998
  0
LINE
  8
_0-0_FRF74-1516
  6
CONTINUOUS
 62
    7
 10
889.61344572439452
 20
790.77418396420785
 11
889.65519942781782
 21
790.81256673957716
  0
ARC
  8
_0-0_FRF74-1516
  6
CONTINUOUS
 62
    7
 10
884.03684405472029
 20
796.92434843639944
 40
8.3017945414244902
 50
312.59128230945896
 51
315.2305039304415
  0
LINE
  8
_0-0_FRF74-1516
  6
CONTINUOUS
 62
    7
 10
889.93066804751004
 20
791.07775700634022
 11
889.93951640590899
 21
791.08667684752504
  0
ARC
  8
_0-0_FRF74-1516
  6
CONTINUOUS
 62
    7
 10
883.90863320539256
 20
797.06922910544154
 40
8.4948504222836974
 50
315.23050393044184
 51
317.64036278517574
  0
LINE
  8
_0-0_FRF74-1516
  6
CONTINUOUS
 62
    7
 10
890.18573454653927
 20
791.34555175168134
 11
890.1865453379786
 21
791.346440938775
  0
ARC
  8
_0-0_FRF74-1516
  6
CONTINUOUS
 62
    7
 10
884.03688529245073
 20
796.95391292671059
 40
8.3223831184969992
 50
317.64036278517455
 51
320.08358534624847
  0
LINE
  8
_0-0_FRF74-1516
  6
CONTINUOUS
 62
    7
 10
890.41999794510787
 20
791.61369442607474
 11
890.42059530838992
 21
791.61440844875449
  0
ARC
  8
_0-0_FRF74-1516
  6
CONTINUOUS
 62
    7
 10
884.10158078731888
 20
796.90100138349874
 40
8.238811162734244
 50
320.08358534624546
 51
322.5386411760395
  0
LINE
  8
_0-0_FRF74-1516
  6
CONTINUOUS
 62
    7
 10
890.64125016883827
 20
791.88994024282078
 11
890.6433448392429
 21
791.89267388576093
  0
ARC
  8
_0-0_FRF74-1516
  6
CONTINUOUS
 62
    7
 10
884.25904292327061
 20
796.78468376807814
 40
8.0430760062911997
 50
322.53864117604417
 51
325.00438107320701
  0
LINE
  8
_0-0_FRF74-1516
  6
CONTINUOUS
 62
    7
 10
890.84789781045129
 20
792.17186869280658
 11
890.85085571056629
 21
792.1760936995131
  0
ARC
  8
_0-0_FRF74-1516
  6
CONTINUOUS
 62
    7
 10
884.35241014103053
 20
796.72561379097988
 40
7.9327125173472997
 50
325.00438107320582
 51
327.42994661272894
  0
LINE
  8
_0-0_FRF74-1516
  6
CONTINUOUS
 62
    7
 10
891.03757573675591
 20
792.45519357270996
 11
891.05001359781784
 21
792.47466452793344
  0
ARC
  8
_0-0_FRF74-1516
  6
CONTINUOUS
 62
    7
 10
885.4793808222073
 20
796.03313177797952
 40
6.6101920312769913
 50
327.42994661272991
 51
329.94030501783806
  0
LINE
  8
_0-0_FRF74-1516
  6
CONTINUOUS
 62
    7
 10
891.20052844522354
 20
792.72207325146383
 11
891.22142147540967
 21
792.75817412646484
  0
ARC
  8
_0-0_FRF74-1516
  6
CONTINUOUS
 62
    7
 10
886.05526195400194
 20
795.74803868858203
 40
5.9689609062579345
 50
329.94030501783885
 51
331.9198327596423
  0
ARC
  8
_0-0_FRF74-1516
  6
CONTINUOUS
 62
    7
 10
883.68393131299229
 20
797.01315667781114
 40
8.6566611379918825
 50
331.91983275964157
 51
333.28483250519633
  0
LINE
  8
_0-0_FRF74-1516
  6
CONTINUOUS
 62
    7
 10
891.41651475503897
 20
793.12150723704644
 11
891.42338996683247
 21
793.13516806382029
  0
ARC
  8
_0-0_FRF74-1516
  6
CONTINUOUS
 62
    7
 10
886.82198451182524
 20
795.45096033427183
 40
5.1512936240572378
 50
333.28483250519218
 51
335.91204727725568
  0
ARC
  8
_0-0_FRF74-1516
  6
CONTINUOUS
 62
    7
 10
882.42183780976723
 20
797.41813085350259
 40
9.9711536688472027
 50
335.91204727725972
 51
337.26949233758597
  0
LINE
  8
_0-0_FRF74-1516
  6
CONTINUOUS
 62
    7
 10
891.6185566964773
 20
793.56530498064058
 11
891.62044841828651
 21
793.5698205321512
  0
ARC
  8
_0-0_FRF74-1516
  6
CONTINUOUS
 62
    7
 10
886.52518704540637
 20
795.70440299446818
 40
5.5243217453724238
 50
337.26949233758262
 51
339.82086687430723
  0
LINE
  8
_0-0_FRF74-1516
  6
CONTINUOUS
 62
    7
 10
891.71041883225791
 20
793.79875295759905
 11
891.73273090802434
 21
793.85946362443519
  0
ARC
  8
_0-0_FRF74-1516
  6
CONTINUOUS
 62
    7
 10
885.28384121354998
 20
796.22952679407024
 40
6.8706169824520362
 50
339.82086687431035
 51
342.15492640851789
  0
ARC
  8
_0-0_FRF74-1516
  6
CONTINUOUS
 62
    7
 10
881.94836119741353
 20
797.30332745130477
 40
10.374682448381911
 50
342.15492640851232
 51
343.70077364840381
  0
LINE
  8
_0-0_FRF74-1516
  6
CONTINUOUS
 62
    7
 10
891.90607563059916
 20
794.39163392830278
 11
891.90757772495988
 21
794.39677094790238
  0
ARC
  8
_0-0_FRF74-1516
  6
CONTINUOUS
 62
    7
 10
885.10485202422296
 20
796.38592744505695
 40
7.0875821356537347
 50
343.70077364841376
 51
346.04989957414904
  0
LINE
  8
_0-0_FRF74-1516
  6
CONTINUOUS
 62
    7
 10
891.98339337326684
 20
794.67727609409826
 11
891.99040274697495
 21
794.7054938266715
  0
ARC
  8
_0-0_FRF74-1516
  6
CONTINUOUS
 62
    7
 10
883.88045041774103
 20
796.72003154628385
 40
8.3564160383616084
 50
346.04989957414335
 51
348.44097687195205
  0
LINE
  8
_0-0_FRF74-1516
  6
CONTINUOUS
 62
    7
 10
892.06738836332306
 20
795.04559549752719
 11
892.08137739238202
 21
795.1139930412312
  0
ARC
  8
_0-0_FRF74-1516
  6
CONTINUOUS
 62
    7
 10
887.04885610339579
 20
796.14327103483822
 40
5.1366996906791371
 50
348.44097687195131
 51
351.044314899678
  0
LINE
  8
_0-0_FRF74-1516
  6
CONTINUOUS
 62
    7
 10
892.12293448321043
 20
795.34363842687344
 11
892.1301496908286
 21
795.38942261403179
  0
ARC
  8
_0-0_FRF74-1516
  6
CONTINUOUS
 62
    7
 10
879.43196066411917
 20
797.39055173498593
 40
12.854902656837718
 50
351.04431489968385
 51
351.67158964775041
  0
ARC
  8
_0-0_FRF74-1516
  6
CONTINUOUS
 62
    7
 10
884.77866263812939
 20
796.6078444675012
 40
7.4512138551524982
 50
351.67158964775007
 51
352.75374844930741
  0
LINE
  8
_0-0_FRF74-1516
  6
CONTINUOUS
 62
    7
 10
892.17036516710925
 20
795.66799254390367
 11
892.17333144695272
 21
795.69132159997105
  0
ARC
  8
_0-0_FRF74-1516
  6
CONTINUOUS
 62
    7
 10
880.034707637476
 20
797.23474260378453
 40
12.236353067111398
 50
352.75374844930332
 51
353.63335677331708
  0
ARC
  8
_0-0_FRF74-1516
  6
CONTINUOUS
 62
    7
 10
876.44928333991606
 20
797.63491107608843
 40
15.84403960978049
 50
353.63295350933868
 51
354.31288839744315
  0
ARC
  8
_0-0_FRF74-1516
  6
CONTINUOUS
 62
    7
 10
869.94949743819541
 20
798.2823155949792
 40
22.375987969175892
 50
354.3125921566027
 51
354.79442392201025
  0
LINE
  8
_0-0_FRF74-1516
  6
CONTINUOUS
 62
    7
 10
892.23319728859121
 20
796.25215339107103
 11
892.23372753686294
 21
796.25797337288145
  0
ARC
  8
_0-0_FRF74-1516
  6
CONTINUOUS
 62
    7
 10
856.3989545715624
 20
799.52281629711501
 40
35.98319264315699
 50
354.79425469294875
 51
355.07537510481836
  0
LINE
  8
_0-0_FRF74-1516
  6
CONTINUOUS
 62
    7
 10
892.2493150149985
 20
796.43383444701215
 11
892.24981910973827
 21
796.43968491133887
  0
ARC
  8
_0-0_FRF74-1516
  6
CONTINUOUS
 62
    7
 10
775.53173648965776
 20
806.49648864588903
 40
117.15054465030538
 50
355.07537510481467
 51
355.15597849308966
  0
LINE
  8
_0-0_FRF74-1516
  6
CONTINUOUS
 62
    7
 10
892.26385146473467
 20
796.60389316701571
 11
892.26484644843549
 21
796.61562361108645
  0
LINE
  8
_0-0_FRF74-1516
  6
CONTINUOUS
 62
    7
 10
777.26484808756322
 20
788.10072012531145
 11
882.26484853459806
 21
788.10072012531145
  0
LINE
  8
_0-0_FRF74-1516
  6
CONTINUOUS
 62
    7
 10
767.26484644843549
 20
796.61562361108645
 11
767.26539331873778
 21
796.60963396116949
  0
ARC
  8
_0-0_FRF74-1516
  6
CONTINUOUS
 62
    7
 10
898.97894927044092
 20
808.63541729631697
 40
132.26140890776244
 50
185.21678679241469
 51
185.294755521377
  0
ARC
  8
_0-0_FRF74-1516
  6
CONTINUOUS
 62
    7
 10
805.43612027190022
 20
799.96634732531038
 40
38.317736256474042
 50
185.29475552137495
 51
185.56387988994533
  0
LINE
  8
_0-0_FRF74-1516
  6
CONTINUOUS
 62
    7
 10
767.29890960282864
 20
796.25123303318423
 11
767.29948736353026
 21
796.24530207659495
  0
ARC
  8
_0-0_FRF74-1516
  6
CONTINUOUS
 62
    7
 10
791.26814514388957
 20
798.5801949940568
 40
24.082115370705996
 50
185.56387988995002
 51
186.02028864841654
  0
ARC
  8
_0-0_FRF74-1516
  6
CONTINUOUS
 62
    7
 10
784.26448098158596
 20
797.84161946704648
 40
17.039615423643237
 50
186.02044498631352
 51
186.66498726604368
  0
ARC
  8
_0-0_FRF74-1516
  6
CONTINUOUS
 62
    7
 10
780.41276436475721
 20
797.391596816983
 40
13.161698292412735
 50
186.66526405529524
 51
187.49896421426612
  0
ARC
  8
_0-0_FRF74-1516
  6
CONTINUOUS
 62
    7
 10
778.02374346643307
 20
797.07719284818631
 40
10.752077844733963
 50
187.49934810666423
 51
188.51940803712276
  0
LINE
  8
_0-0_FRF74-1516
  6
CONTINUOUS
 62
    7
 10
767.39030686001047
 20
795.48433255412101
 11
767.39333100344493
 21
795.46414431939695
  0
ARC
  8
_0-0_FRF74-1516
  6
CONTINUOUS
 62
    7
 10
774.87685151581866
 20
796.58515562789717
 40
7.5670169560338936
 50
188.51940803714854
 51
190.27785813547675
  0
LINE
  8
_0-0_FRF74-1516
  6
CONTINUOUS
 62
    7
 10
767.43125444243026
 20
795.23503347281087
 11
767.43827271809675
 21
795.19632938032123
  0
ARC
  8
_0-0_FRF74-1516
  6
CONTINUOUS
 62
    7
 10
775.08136538907672
 20
796.58226373141986
 40
7.7677332345248393
 50
190.27785813545782
 51
192.57098237996462
  0
LINE
  8
_0-0_FRF74-1516
  6
CONTINUOUS
 62
    7
 10
767.49984712173045
 20
794.89162469110511
 11
767.50409557789271
 21
794.87257287268972
  0
ARC
  8
_0-0_FRF74-1516
  6
CONTINUOUS
 62
    7
 10
775.93614592532663
 20
796.75287613182559
 40
8.6391558272772713
 50
192.57098237997957
 51
194.87413655233755
  0
LINE
  8
_0-0_FRF74-1516
  6
CONTINUOUS
 62
    7
 10
767.58647048918669
 20
794.53523470023651
 11
767.58832600735479
 21
794.52824846059991
  0
ARC
  8
_0-0_FRF74-1516
  6
CONTINUOUS
 62
    7
 10
775.67024227089564
 20
796.67477409381036
 40
8.3621135357584588
 50
194.87413655233902
 51
197.15455887836131
  0
LINE
  8
_0-0_FRF74-1516
  6
CONTINUOUS
 62
    7
 10
767.68013753452283
 20
794.20836595915216
 11
767.6938579121952
 21
794.16391781892548
  0
ARC
  8
_0-0_FRF74-1516
  6
CONTINUOUS
 62
    7
 10
773.44758560525997
 20
795.93999476096701
 40
6.0216137097950444
 50
197.15455887834483
 51
199.4362278656676
  0
ARC
  8
_0-0_FRF74-1516
  6
CONTINUOUS
 62
    7
 10
778.28891646037891
 20
797.64833802904514
 40
11.155512926795089
 50
199.43622786565925
 51
200.66796110089962
  0
LINE
  8
_0-0_FRF74-1516
  6
CONTINUOUS
 62
    7
 10
767.85135514214198
 20
793.71098074427425
 11
767.85141833926036
 21
793.71081321469774
  0
ARC
  8
_0-0_FRF74-1516
  6
CONTINUOUS
 62
    7
 10
772.64895495595181
 20
795.52058612723431
 40
5.1275369899636658
 50
200.66796110089862
 51
203.35262650438241
  0
LINE
  8
_0-0_FRF74-1516
  6
CONTINUOUS
 62
    7
 10
767.94145203830249
 20
793.48808720625811
 11
767.95042623945517
 21
793.46730063953316
  0
ARC
  8
_0-0_FRF74-1516
  6
CONTINUOUS
 62
    7
 10
775.01763827739092
 20
796.51843377063437
 40
7.6977204010568645
 50
203.35134512734581
 51
204.80368899125767
  0
ARC
  8
_0-0_FRF74-1516
  6
CONTINUOUS
 62
    7
 10
772.85118316606963
 20
795.51722169821176
 40
5.3111007490522608
 50
204.80368899125088
 51
206.90854046093366
  0
LINE
  8
_0-0_FRF74-1516
  6
CONTINUOUS
 62
    7
 10
768.115114869384
 20
793.11358939361276
 11
768.12453125252921
 21
793.09503554342587
  0
ARC
  8
_0-0_FRF74-1516
  6
CONTINUOUS
 62
    7
 10
773.99565756039044
 20
796.07472839705827
 40
6.5839724805657731
 50
206.90854046092213
 51
208.96856310605955
  0
LINE
  8
_0-0_FRF74-1516
  6
CONTINUOUS
 62
    7
 10
768.23543498124207
 20
792.88591522229922
 11
768.2372076152642
 21
792.88271316374028
  0
ARC
  8
_0-0_FRF74-1516
  6
CONTINUOUS
 62
    7
 10
774.70693966988813
 20
796.46430511257199
 40
7.3949465005883877
 50
208.96856310607168
 51
210.85941203014562
  0
LINE
  8
_0-0_FRF74-1516
  6
CONTINUOUS
 62
    7
 10
768.35890698727019
 20
792.67119098207456
 11
768.37256285268586
 21
792.64833696899063
  0
ARC
  8
_0-0_FRF74-1516
  6
CONTINUOUS
 62
    7
 10
774.33987251887027
 20
796.21395922513329
 40
6.9514348681145384
 50
210.8594120301519
 51
213.30957961843379
  0
LINE
  8
_0-0_FRF74-1516
  6
CONTINUOUS
 62
    7
 10
768.53045026771167
 20
792.39649149987588
 11
768.54483977724408
 21
792.37459354477119
  0
ARC
  8
_0-0_FRF74-1516
  6
CONTINUOUS
 62
    7
 10
775.44687786396833
 20
796.91003725938913
 40
8.2588364458354331
 50
213.3095796184455
 51
215.14492780405689
  0
ARC
  8
_0-0_FRF74-1516
  6
CONTINUOUS
 62
    7
 10
775.39304999467731
 20
796.87214330732036
 40
8.1930079480870219
 50
215.14492780405527
 51
216.99501994013207
  0
LINE
  8
_0-0_FRF74-1516
  6
CONTINUOUS
 62
    7
 10
768.84939437134176
 20
791.94203678508313
 11
768.85954283480373
 21
791.92856688342852
  0
ARC
  8
_0-0_FRF74-1516
  6
CONTINUOUS
 62
    7
 10
774.7585315718178
 20
796.3729699084364
 40
7.3858504160400305
 50
216.99501994013733
 51
219.30882323980157
  0
LINE
  8
_0-0_FRF74-1516
  6
CONTINUOUS
 62
    7
 10
769.04378399997938
 20
791.69403343117096
 11
769.04388119378802
 21
791.6939147208434
  0
ARC
  8
_0-0_FRF74-1516
  6
CONTINUOUS
 62
    7
 10
776.27107204176207
 20
797.61116066419629
 40
9.340561391434953
 50
219.30882323980285
 51
221.14038895169011
  0
LINE
  8
_0-0_FRF74-1516
  6
CONTINUOUS
 62
    7
 10
769.23669705097655
 20
791.46594662429698
 11
769.26186892329474
 21
791.43713259309197
  0
ARC
  8
_0-0_FRF74-1516
  6
CONTINUOUS
 62
    7
 10
774.21348300318334
 20
795.76285142436689
 40
6.5749772169489136
 50
221.14038895168665
 51
224.4085097897146
  0
LINE
  8
_0-0_FRF74-1516
  6
CONTINUOUS
 62
    7
 10
769.51652471416151
 20
791.16188323988808
 11
769.51722780227124
 21
791.16116548323487
  0
ARC
  8
_0-0_FRF74-1516
  6
CONTINUOUS
 62
    7
 10
778.17022095738082
 20
799.63732042381048
 40
12.112782220407297
 50
224.40850978971304
 51
226.19233096128224
  0
LINE
  8
_0-0_FRF74-1516
  6
CONTINUOUS
 62
    7
 10
769.78527131536202
 20
790.89591821250451
 11
769.7958864568742
 21
790.88573592997477
  0
ARC
  8
_0-0_FRF74-1516
  6
CONTINUOUS
 62
    7
 10
774.47477156844377
 20
795.76352511260188
 40
6.7590526849124597
 50
226.19233096127689
 51
229.63768234908449
  0
LINE
  8
_0-0_FRF74-1516
  6
CONTINUOUS
 62
    7
 10
770.09748122514952
 20
790.61336759579467
 11
770.15509222552703
 21
790.56440208846857
  0
ARC
  8
_0-0_FRF74-1516
  6
CONTINUOUS
 62
    7
 10
775.97628985641893
 20
797.41340738268775
 40
8.9886158766599866
 50
229.6376823490827
 51
232.07886870492945
  0
LINE
  8
_0-0_FRF74-1516
  6
CONTINUOUS
 62
    7
 10
770.45210063893512
 20
790.32267054738077
 11
770.4573391385112
 21
790.31858938296216
  0
ARC
  8
_0-0_FRF74-1516
  6
CONTINUOUS
 62
    7
 10
776.27478231105533
 20
797.78574102583264
 40
9.4657804075207004
 50
232.07886870492834
 51
234.31667202394618
  0
ARC
  8
_0-0_FRF74-1516
  6
CONTINUOUS
 62
    7
 10
776.29213429500874
 20
797.80990370036568
 40
9.4955281164696537
 50
234.3166720239459
 51
236.54746649870168
  0
LINE
  8
_0-0_FRF74-1516
  6
CONTINUOUS
 62
    7
 10
771.05776272537685
 20
789.8873783150043
 11
771.05852686763899
 21
789.88687345016172
  0
ARC
  8
_0-0_FRF74-1516
  6
CONTINUOUS
 62
    7
 10
776.37170343892149
 20
797.92867478254834
 40
9.6384860817039932
 50
236.54746649868923
 51
238.75606662990685
  0
LINE
  8
_0-0_FRF74-1516
  6
CONTINUOUS
 62
    7
 10
771.37238711772625
 20
789.68808922884932
 11
771.37305325405225
 21
789.68768510390157
  0
ARC
  8
_0-0_FRF74-1516
  6
CONTINUOUS
 62
    7
 10
776.51013637203698
 20
798.15535752357698
 40
9.9040950706268536
 50
238.756066629907
 51
240.91446191399473
  0
LINE
  8
_0-0_FRF74-1516
  6
CONTINUOUS
 62
    7
 10
771.69560900109752
 20
789.50021885556657
 11
771.69690784510749
 21
789.49949635760595
  0
ARC
  8
_0-0_FRF74-1516
  6
CONTINUOUS
 62
    7
 10
776.62969792998831
 20
798.3672374493965
 40
10.147376512800177
 50
240.91446191399444
 51
243.02766075715414
  0
LINE
  8
_0-0_FRF74-1516
  6
CONTINUOUS
 62
    7
 10
772.02725085058796
 20
789.32363578999946
 11
772.03045662815111
 21
789.32200431372053
  0
ARC
  8
_0-0_FRF74-1516
  6
CONTINUOUS
 62
    7
 10
776.70774150756938
 20
798.51265888665512
 40
10.312377287620814
 50
243.02766075715451
 51
245.0670977499137
  0
LINE
  8
_0-0_FRF74-1516
  6
CONTINUOUS
 62
    7
 10
772.3604906322272
 20
789.16137367289582
 11
772.36238033295058
 21
789.1604951836897
  0
ARC
  8
_0-0_FRF74-1516
  6
CONTINUOUS
 62
    7
 10
776.69952686061629
 20
798.49004513539217
 40
10.288408152078489
 50
245.06709774992362
 51
247.08808183504328
  0
ARC
  8
_0-0_FRF74-1516
  6
CONTINUOUS
 62
    7
 10
776.56483435329199
 20
798.17136825681837
 40
9.942435574455935
 50
247.0880818350436
 51
249.17937589957299
  0
LINE
  8
_0-0_FRF74-1516
  6
CONTINUOUS
 62
    7
 10
773.03086087256304
 20
788.87819567746146
 11
773.08452907298818
 21
788.85778693163854
  0
ARC
  8
_0-0_FRF74-1516
  6
CONTINUOUS
 62
    7
 10
775.56660248019466
 20
795.38481285687203
 40
6.9830334259139795
 50
249.17937589957515
 51
251.62266987603323
  0
LINE
  8
_0-0_FRF74-1516
  6
CONTINUOUS
 62
    7
 10
773.36503655933666
 20
788.7579083514828
 11
773.37509272493071
 21
788.75456752901459
  0
ARC
  8
_0-0_FRF74-1516
  6
CONTINUOUS
 62
    7
 10
778.02249541863841
 20
802.74365300562829
 40
14.740856972017882
 50
251.62266987602922
 51
252.69787503233607
  0
ARC
  8
_0-0_FRF74-1516
  6
CONTINUOUS
 62
    7
 10
776.00855933855132
 20
796.27849321057988
 40
7.9692818443103892
 50
252.69787503233385
 51
254.68655100479606
  0
LINE
  8
_0-0_FRF74-1516
  6
CONTINUOUS
 62
    7
 10
773.90387636640548
 20
788.5921571067646
 11
773.99315786741658
 21
788.56770992512077
  0
ARC
  8
_0-0_FRF74-1516
  6
CONTINUOUS
 62
    7
 10
776.33417426226981
 20
797.11713949409659
 40
8.8641470946645313
 50
254.68655100479646
 51
256.48590136403249
  0
ARC
  8
_0-0_FRF74-1516
  6
CONTINUOUS
 62
    7
 10
778.75442805034504
 20
807.18730512496984
 40
19.221070587281122
 50
256.48590136403266
 51
257.31575828227898
  0
LINE
  8
_0-0_FRF74-1516
  6
CONTINUOUS
 62
    7
 10
774.53390590877632
 20
788.43532529952813
 11
774.62434411056347
 21
788.41497030572805
  0
ARC
  8
_0-0_FRF74-1516
  6
CONTINUOUS
 62
    7
 10
776.4361667936721
 20
796.46498432326064
 40
8.2513894052757344
 50
257.31575828228017
 51
260.53542526277482
  0
LINE
  8
_0-0_FRF74-1516
  6
CONTINUOUS
 62
    7
 10
775.07932675083737
 20
788.32591728731245
 11
775.21983205883021
 21
788.3024940586705
  0
ARC
  8
_0-0_FRF74-1516
  6
CONTINUOUS
 62
    7
 10
777.31908114749535
 20
800.89493570131549
 40
12.766222356659869
 50
260.5354252627759
 51
262.29282254795817
  0
LINE
  8
_0-0_FRF74-1516
  6
CONTINUOUS
 62
    7
 10
775.60699891821378
 20
788.2440381956103
 11
775.65259924370491
 21
788.2378669728264
  0
ARC
  8
_0-0_FRF74-1516
  6
CONTINUOUS
 62
    7
 10
777.02220379930202
 20
798.35813255346443
 40
10.21252133713117
 50
262.29282254796419
 51
263.97338756239105
  0
LINE
  8
_0-0_FRF74-1516
  6
CONTINUOUS
 62
    7
 10
775.94998728096027
 20
788.20205339863537
 11
775.99217331332079
 21
788.19759965619687
  0
ARC
  8
_0-0_FRF74-1516
  6
CONTINUOUS
 62
    7
 10
777.64837949437231
 20
803.88525302076573
 40
15.77483714657679
 50
263.9733875624031
 51
264.7532889712885
  0
ARC
  8
_0-0_FRF74-1516
  6
CONTINUOUS
 62
    7
 10
777.97264927639719
 20
807.41648021389437
 40
19.320921801661392
 50
264.7532889712819
 51
265.39028272560068
  0
ARC
  8
_0-0_FRF74-1516
  6
CONTINUOUS
 62
    7
 10
778.42916441787168
 20
813.0771743747373
 40
24.999994300695139
 50
265.39005375723315
 51
265.88268323432095
  0
ARC
  8
_0-0_FRF74-1516
  6
CONTINUOUS
 62
    7
 10
779.16745968192913
 20
823.33210171972053
 40
35.281463784242163
 50
265.88252523297837
 51
266.23179643156544
  0
LINE
  8
_0-0_FRF74-1516
  6
CONTINUOUS
 62
    7
 10
776.84875631170462
 20
788.12691316121823
 11
776.85543395497427
 21
788.12647334442477
  0
ARC
  8
_0-0_FRF74-1516
  6
CONTINUOUS
 62
    7
 10
780.58164746653063
 20
844.70076733327915
 40
56.696872995527983
 50
266.23170926712044
 51
266.43558367884407
  0
LINE
  8
_0-0_FRF74-1516
  6
CONTINUOUS
 62
    7
 10
777.05676428399806
 20
788.11357261556464
 11
777.06346602685176
 21
788.11315515608828
  0
ARC
  8
_0-0_FRF74-1516
  6
CONTINUOUS
 62
    7
 10
788.5368078420795
 20
972.30201865580102
 40
184.54586153507984
 50
266.43558367883719
 51
266.49404936946496
  0
LINE
  8
_0-0_FRF74-1516
  6
CONTINUOUS
 62
    7
 10
777.25142174680138
 20
788.10154343815839
 11
777.26484808756322
 21
788.10072012531145
  0
LINE
  8
_0-0_FRF74-1516
  6
CONTINUOUS
 62
    7
 10
767.26484644843549
 20
895.89804703789332
 11
767.26484644843549
 21
796.61562361108645
  0
LINE
  8
_0-0_FRF74-1516
  6
CONTINUOUS
 62
    7
 10
892.26484644843549
 20
796.61562361108645
 11
892.26484644843549
 21
895.89804703789332
  0
LINE
  8
_0-0_FRF74-1516
  6
CONTINUOUS
 62
    7
 10
808.51484808756322
 20
665.52188558980708
 11
807.51484792365045
 21
665.52188558980708
  0
LINE
  8
_0-0_FRF74-1516
  6
CONTINUOUS
 62
    7
 10
807.72511075867624
 20
653.52188548549896
 11
808.51484808756322
 21
653.52188548549896
  0
LINE
  8
_0-0_FRF74-1516
  6
CONTINUOUS
 62
    7
 10
766.26484442187757
 20
653.52188548549896
 11
767.26484644843549
 21
653.52188548549896
  0
LINE
  8
_0-0_FRF74-1516
  6
CONTINUOUS
 62
    7
 10
767.26484644843549
 20
665.52188558980708
 11
766.26484442187757
 21
665.52188558980708
  0
LINE
  8
_0-0_FRF74-1516
  6
CONTINUOUS
 62
    7
 10
851.01484667195291
 20
653.52188548549896
 11
851.80686015321226
 21
653.52188548549896
  0
LINE
  8
_0-0_FRF74-1516
  6
CONTINUOUS
 62
    7
 10
852.01484683586568
 20
665.52188558980708
 11
851.01484667195291
 21
665.52188558980708
  0
LINE
  8
_0-0_FRF74-1516
  6
CONTINUOUS
 62
    7
 10
893.26484847499341
 20
665.52188558980708
 11
892.26484644843549
 21
665.52188558980708
  0
LINE
  8
_0-0_FRF74-1516
  6
CONTINUOUS
 62
    7
 10
892.26484644843549
 20
653.52188548549896
 11
893.26484847499341
 21
653.52188548549896
  0
LINE
  8
_0-0_FRF74-1516
  6
CONTINUOUS
 62
    7
 10
807.51484792365045
 20
665.7218857157219
 11
767.26484644843549
 21
665.7218857157219
  0
LINE
  8
_0-0_FRF74-1516
  6
CONTINUOUS
 62
    7
 10
892.26484644843549
 20
665.7218857157219
 11
852.01484683586568
 21
665.7218857157219
  0
LINE
  8
_0-0_FRF74-1516
  6
CONTINUOUS
 62
    7
 10
767.26484644843549
 20
635.74726446077113
 11
892.26484644843549
 21
635.74726446077113
  0
LINE
  8
_0-0_FRF74-1516
  6
CONTINUOUS
 62
    7
 10
850.72816136909933
 20
655.52188534766321
 11
851.01484667195291
 21
655.52188534766321
  0
LINE
  8
_0-0_FRF74-1516
  6
CONTINUOUS
 62
    7
 10
851.01484667195291
 20
663.52188549481218
 11
850.72816695703477
 21
663.52188549481218
  0
LINE
  8
_0-0_FRF74-1516
  6
CONTINUOUS
 62
    7
 10
808.51484808756322
 20
655.52188534766321
 11
808.80149986280412
 21
655.52188534766321
  0
LINE
  8
_0-0_FRF74-1516
  6
CONTINUOUS
 62
    7
 10
808.80151290132017
 20
663.52188549481218
 11
808.51484808756322
 21
663.52188549481218
  0
LINE
  8
_0-0_FRF74-1516
  6
CONTINUOUS
 62
    7
 10
850.76484802795858
 20
653.02188540354257
 11
850.76484802795858
 21
655.42537564888482
  0
LINE
  8
_0-0_FRF74-1516
  6
CONTINUOUS
 62
    7
 10
808.76484673155755
 20
655.42537564888482
 11
808.76484673155755
 21
653.02188540354257
  0
ARC
  8
_0-0_FRF74-1516
  6
CONTINUOUS
 62
    7
 10
850.26484720485087
 20
653.02188557734428
 40
0.5
 50
270
 51
0
  0
ARC
  8
_0-0_FRF74-1516
  6
CONTINUOUS
 62
    7
 10
809.26484720485087
 20
653.02188557734428
 40
0.5
 50
180
 51
270
  0
LINE
  8
_0-0_FRF74-1516
  6
CONTINUOUS
 62
    7
 10
808.51484808756322
 20
665.52188558980708
 11
808.51484808756322
 21
653.52188548549896
  0
LINE
  8
_0-0_FRF74-1516
  6
CONTINUOUS
 62
    7
 10
851.01484667195291
 20
653.52188548549896
 11
851.01484667195291
 21
665.52188558980708
  0
LINE
  8
_0-0_FRF74-1516
  6
CONTINUOUS
 62
    7
 10
893.26484847499341
 20
664.50480962648874
 11
893.26484847499341
 21
653.52188548549896
  0
LINE
  8
_0-0_FRF74-1516
  6
CONTINUOUS
 62
    7
 10
893.26484847499341
 20
665.52188558980708
 11
893.26484847499341
 21
664.50480962648874
  0
LINE
  8
_0-0_FRF74-1516
  6
CONTINUOUS
 62
    7
 10
767.26484644843549
 20
665.7218857157219
 11
767.26484644843549
 21
654.62293228611236
  0
LINE
  8
_0-0_FRF74-1516
  6
CONTINUOUS
 62
    7
 10
807.51484792365045
 20
654.62293228611236
 11
807.51484792365045
 21
665.7218857157219
  0
LINE
  8
_0-0_FRF74-1516
  6
CONTINUOUS
 62
    7
 10
852.01484683586568
 20
665.7218857157219
 11
852.01484683586568
 21
654.62293228611236
  0
LINE
  8
_0-0_FRF74-1516
  6
CONTINUOUS
 62
    7
 10
892.26484644843549
 20
654.62293228611236
 11
892.26484644843549
 21
665.7218857157219
  0
LINE
  8
_0-0_FRF74-1516
  6
CONTINUOUS
 62
    7
 10
820.51484726054878
 20
646.80411791905647
 11
820.43588901129056
 21
646.80623517200206
  0
ARC
  8
_0-0_FRF74-1516
  6
CONTINUOUS
 62
    7
 10
823.28473432645899
 20
753.04759804891057
 40
106.27955168127467
 50
268.23703768247901
 51
268.46399082687736
  0
ARC
  8
_0-0_FRF74-1516
  6
CONTINUOUS
 62
    7
 10
822.77745362731753
 20
736.56632124417547
 40
89.790469874757235
 50
267.96840710479694
 51
268.23703768247833
  0
LINE
  8
_0-0_FRF74-1516
  6
CONTINUOUS
 62
    7
 10
819.59433159051616
 20
646.83229082968603
 11
819.50575361321319
 21
646.83543294322112
  0
ARC
  8
_0-0_FRF74-1516
  6
CONTINUOUS
 62
    7
 10
820.50126792429603
 20
674.89955063523973
 40
28.081769007223166
 50
266.91711710384459
 51
267.96840710479898
  0
LINE
  8
_0-0_FRF74-1516
  6
CONTINUOUS
 62
    7
 10
818.99101640447589
 20
646.85842207517771
 11
818.88808569646449
 21
646.86396576283209
  0
ARC
  8
_0-0_FRF74-1516
  6
CONTINUOUS
 62
    7
 10
822.12742161587346
 20
707.00933477807939
 40
60.232538641327821
 50
266.62307690873541
 51
266.91711710384629
  0
ARC
  8
_0-0_FRF74-1516
  6
CONTINUOUS
 62
    7
 10
819.71099622634767
 20
666.05766922110365
 40
19.209642308261085
 50
265.7011209529461
 51
266.62307690873138
  0
LINE
  8
_0-0_FRF74-1516
  6
CONTINUOUS
 62
    7
 10
818.27105646925042
 20
646.90207131586283
 11
818.24174519194014
 21
646.90427466517826
  0
ARC
  8
_0-0_FRF74-1516
  6
CONTINUOUS
 62
    7
 10
820.01363179137024
 20
670.47577969870213
 40
23.638008200072235
 50
264.80939175332429
 51
265.70112095294894
  0
LINE
  8
_0-0_FRF74-1516
  6
CONTINUOUS
 62
    7
 10
817.87511687143763
 20
646.93470526264662
 11
817.81694571159051
 21
646.93998963883689
  0
ARC
  8
_0-0_FRF74-1516
  6
CONTINUOUS
 62
    7
 10
818.94745613550833
 20
659.38480813979868
 40
12.4960618332524
 50
263.02984869968537
 51
264.80939175331957
  0
LINE
  8
_0-0_FRF74-1516
  6
CONTINUOUS
 62
    7
 10
817.43103089157842
 20
646.98109837940683
 11
817.42512017760578
 21
646.98182099836924
  0
ARC
  8
_0-0_FRF74-1516
  6
CONTINUOUS
 62
    7
 10
821.68725984738808
 20
681.84430013071596
 40
35.122048428558919
 50
262.41608891834949
 51
263.02984869969032
  0
ARC
  8
_0-0_FRF74-1516
  6
CONTINUOUS
 62
    7
 10
819.28029031848189
 20
663.76618070346649
 40
16.884397693363393
 50
261.13941826719849
 51
262.41608891834807
  0
LINE
  8
_0-0_FRF74-1516
  6
CONTINUOUS
 62
    7
 10
816.67957549016194
 20
647.08328024073478
 11
816.56090791628174
 21
647.10177945313012
  0
ARC
  8
_0-0_FRF74-1516
  6
CONTINUOUS
 62
    7
 10
819.56134750467731
 20
666.34880894385878
 40
19.479496449872318
 50
259.32641948261232
 51
261.13941826719963
  0
LINE
  8
_0-0_FRF74-1516
  6
CONTINUOUS
 62
    7
 10
815.95348167080226
 20
647.20634081497462
 11
815.90169974672199
 21
647.21610038377446
  0
ARC
  8
_0-0_FRF74-1516
  6
CONTINUOUS
 62
    7
 10
819.92523612724779
 20
668.56401643055563
 40
21.72377417820924
 50
257.93310749805158
 51
259.32641948261141
  0
LINE
  8
_0-0_FRF74-1516
  6
CONTINUOUS
 62
    7
 10
815.38380443490121
 20
647.32024645605293
 11
815.34066474722806
 21
647.32946873369156
  0
ARC
  8
_0-0_FRF74-1516
  6
CONTINUOUS
 62
    7
 10
819.26208319118848
 20
665.67295973844625
 40
18.757963238426125
 50
256.58897496017164
 51
257.93310749805153
  0
LINE
  8
_0-0_FRF74-1516
  6
CONTINUOUS
 62
    7
 10
814.91145341380582
 20
647.42650240025864
 11
814.86369026448835
 21
647.4378909002744
  0
ARC
  8
_0-0_FRF74-1516
  6
CONTINUOUS
 62
    7
 10
819.11794712816015
 20
665.28016209794328
 40
18.342446482224336
 50
255.52111894656284
 51
256.58897496017784
  0
ARC
  8
_0-0_FRF74-1516
  6
CONTINUOUS
 62
    7
 10
819.82010367151781
 20
667.99933431532475
 40
21.150812797212343
 50
254.5950442591591
 51
255.5211189465611
  0
LINE
  8
_0-0_FRF74-1516
  6
CONTINUOUS
 62
    7
 10
814.20161223064929
 20
647.60841879120937
 11
814.17533243297146
 21
647.61565989905205
  0
ARC
  8
_0-0_FRF74-1516
  6
CONTINUOUS
 62
    7
 10
818.06317489438391
 20
661.72561593192086
 40
14.635784169433897
 50
253.04337205432819
 51
254.59504425915458
  0
LINE
  8
_0-0_FRF74-1516
  6
CONTINUOUS
 62
    7
 10
813.79468192038746
 20
647.72611072690756
 11
813.7164934705587
 21
647.74995063009374
  0
ARC
  8
_0-0_FRF74-1516
  6
CONTINUOUS
 62
    7
 10
817.79765603151145
 20
661.13506262690703
 40
13.993466726160408
 50
251.42409334316929
 51
253.04337205432554
  0
LINE
  8
_0-0_FRF74-1516
  6
CONTINUOUS
 62
    7
 10
813.33988696149027
 20
647.87062121633414
 11
813.33646142286807
 21
647.87177243406325
  0
ARC
  8
_0-0_FRF74-1516
  6
CONTINUOUS
 62
    7
 10
819.47170389771691
 20
666.12766749480102
 40
19.259255039950567
 50
250.26901410711108
 51
251.42409334317327
  0
ARC
  8
_0-0_FRF74-1516
  6
CONTINUOUS
 62
    7
 10
817.24102437360807
 20
659.90822148915936
 40
12.651877363718492
 50
248.51077913481961
 51
250.2690141071123
  0
LINE
  8
_0-0_FRF74-1516
  6
CONTINUOUS
 62
    7
 10
812.6063104756289
 20
648.13582037849164
 11
812.57208074432856
 21
648.14929638987553
  0
ARC
  8
_0-0_FRF74-1516
  6
CONTINUOUS
 62
    7
 10
817.63366628268864
 20
661.00597244910989
 40
13.817154824862744
 50
246.65882920479626
 51
248.51077913482555
  0
LINE
  8
_0-0_FRF74-1516
  6
CONTINUOUS
 62
    7
 10
812.15923541661925
 20
648.31958706371131
 11
812.15496969181049
 21
648.32142780990102
  0
ARC
  8
_0-0_FRF74-1516
  6
CONTINUOUS
 62
    7
 10
817.32156779873026
 20
660.29444497267366
 40
13.040202298218965
 50
244.73737335702276
 51
246.65882920479882
  0
LINE
  8
_0-0_FRF74-1516
  6
CONTINUOUS
 62
    7
 10
811.75642608977182
 20
648.50139304631944
 11
811.75210918360892
 21
648.50343019452259
  0
ARC
  8
_0-0_FRF74-1516
  6
CONTINUOUS
 62
    7
 10
816.99329293488165
 20
659.60998513360664
 40
12.281106209519445
 50
242.74170228968742
 51
244.73737335702714
  0
LINE
  8
_0-0_FRF74-1516
  6
CONTINUOUS
 62
    7
 10
811.3685136246512
 20
648.69268567629115
 11
811.31854181714834
 21
648.71843200577814
  0
ARC
  8
_0-0_FRF74-1516
  6
CONTINUOUS
 62
    7
 10
815.25288009142514
 20
656.35470477981255
 40
8.5902083522984221
 50
240.63839995232081
 51
242.74170228969152
  0
LINE
  8
_0-0_FRF74-1516
  6
CONTINUOUS
 62
    7
 10
811.04093127081023
 20
648.86797206998381
 11
811.03782326479882
 21
648.86972059804839
  0
ARC
  8
_0-0_FRF74-1516
  6
CONTINUOUS
 62
    7
 10
818.94803036487633
 20
662.93010185145113
 40
16.132752318099939
 50
239.54369197664772
 51
240.63839995231911
  0
LINE
  8
_0-0_FRF74-1516
  6
CONTINUOUS
 62
    7
 10
810.77064209300875
 20
649.02341215158799
 11
810.76908986106787
 21
649.02432489240141
  0
ARC
  8
_0-0_FRF74-1516
  6
CONTINUOUS
 62
    7
 10
814.57449152703623
 20
655.49589483533975
 40
7.5074828914688618
 50
237.21901796838063
 51
239.54369197664306
  0
LINE
  8
_0-0_FRF74-1516
  6
CONTINUOUS
 62
    7
 10
810.50972126330748
 20
649.18400588916813
 11
810.46545453362512
 21
649.21251305841963
  0
ARC
  8
_0-0_FRF74-1516
  6
CONTINUOUS
 62
    7
 10
815.50140626138113
 20
657.03247974325961
 40
9.301219745619143
 50
235.99111806967306
 51
237.21901796838858
  0
ARC
  8
_0-0_FRF74-1516
  6
CONTINUOUS
 62
    7
 10
815.39000477243349
 20
656.86737545834592
 40
9.1020471655872299
 50
234.73635117639969
 51
235.99111806967346
  0
LINE
  8
_0-0_FRF74-1516
  6
CONTINUOUS
 62
    7
 10
810.13503148790119
 20
649.43551711850751
 11
810.09685506876417
 21
649.46251118291116
  0
ARC
  8
_0-0_FRF74-1516
  6
CONTINUOUS
 62
    7
 10
813.80792106102251
 20
654.71089499970913
 40
6.427872391960169
 50
232.12641461162127
 51
234.73635117638946
  0
LINE
  8
_0-0_FRF74-1516
  6
CONTINUOUS
 62
    7
 10
809.86171296610996
 20
649.63694336819253
 11
809.78626370541576
 21
649.69562317141674
  0
ARC
  8
_0-0_FRF74-1516
  6
CONTINUOUS
 62
    7
 10
813.41285856178388
 20
654.35862280188189
 40
5.9072629707804865
 50
229.38897475720361
 51
232.1264146116165
  0
LINE
  8
_0-0_FRF74-1516
  6
CONTINUOUS
 62
    7
 10
809.56770112140157
 20
649.87414735155039
 11
809.56569128770548
 21
649.87587065833975
  0
ARC
  8
_0-0_FRF74-1516
  6
CONTINUOUS
 62
    7
 10
816.91817173529239
 20
658.45081682828641
 40
11.29551550614805
 50
227.98402088119144
 51
229.3889747572058
  0
LINE
  8
_0-0_FRF74-1516
  6
CONTINUOUS
 62
    7
 10
809.35765584478247
 20
650.05872114133331
 11
809.35693086187359
 21
650.05937428507798
  0
ARC
  8
_0-0_FRF74-1516
  6
CONTINUOUS
 62
    7
 10
812.94453642397423
 20
654.04157994408547
 40
5.359932423067157
 50
225.0445812325928
 51
227.98402088120164
  0
LINE
  8
_0-0_FRF74-1516
  6
CONTINUOUS
 62
    7
 10
809.15744200100994
 20
650.24858753552462
 11
809.15577265717468
 21
650.25025428358208
  0
ARC
  8
_0-0_FRF74-1516
  6
CONTINUOUS
 62
    7
 10
816.35963543807009
 20
657.46533629330645
 40
10.195736725368061
 50
223.52557097108991
 51
225.04458123260079
  0
LINE
  8
_0-0_FRF74-1516
  6
CONTINUOUS
 62
    7
 10
808.96704230303646
 20
650.44375426979695
 11
808.96605279297978
 21
650.44479606425682
  0
ARC
  8
_0-0_FRF74-1516
  6
CONTINUOUS
 62
    7
 10
812.49528393030505
 20
653.79690613686716
 40
4.8674546078583845
 50
220.37816938806213
 51
223.52557097109295
  0
LINE
  8
_0-0_FRF74-1516
  6
CONTINUOUS
 62
    7
 10
808.78732906617279
 20
650.64362449941075
 11
808.7575648669964
 21
650.67862432492655
  0
ARC
  8
_0-0_FRF74-1516
  6
CONTINUOUS
 62
    7
 10
813.47370479723099
 20
654.68927655414745
 40
6.1909051959554118
 50
218.75350160834964
 51
220.37816938806074
  0
ARC
  8
_0-0_FRF74-1516
  6
CONTINUOUS
 62
    7
 10
813.41724644590954
 20
654.64395826335146
 40
6.1185084217551342
 50
217.10961269565576
 51
218.75350160835202
  0
LINE
  8
_0-0_FRF74-1516
  6
CONTINUOUS
 62
    7
 10
808.53784173508552
 20
650.95240642502154
 11
808.50589642140562
 21
650.99463097471903
  0
ARC
  8
_0-0_FRF74-1516
  6
CONTINUOUS
 62
    7
 10
811.87975015823019
 20
653.54714643563295
 40
4.2306292931064249
 50
213.2992559153025
 51
217.10961269566377
  0
LINE
  8
_0-0_FRF74-1516
  6
CONTINUOUS
 62
    7
 10
808.34372888770088
 20
651.22448034037643
 11
808.28476547838102
 21
651.31424609274347
  0
ARC
  8
_0-0_FRF74-1516
  6
CONTINUOUS
 62
    7
 10
811.62289269645714
 20
653.50692377138125
 40
3.9938613804759311
 50
209.63503782360905
 51
213.29925591529894
  0
LINE
  8
_0-0_FRF74-1516
  6
CONTINUOUS
 62
    7
 10
808.15145750397267
 20
651.53206518635864
 11
808.12764382851572
 21
651.57392521201859
  0
ARC
  8
_0-0_FRF74-1516
  6
CONTINUOUS
 62
    7
 10
812.98143485121318
 20
654.33518974371214
 40
5.5842518841835593
 50
208.00186277024468
 51
209.63503782361056
  0
ARC
  8
_0-0_FRF74-1516
  6
CONTINUOUS
 62
    7
 10
811.78699150676448
 20
653.70004313920936
 40
4.2314377386671316
 50
205.84666079392628
 51
208.00186277026037
  0
LINE
  8
_0-0_FRF74-1516
  6
CONTINUOUS
 62
    7
 10
807.97884975765112
 20
651.85528793732578
 11
807.97383288695994
 21
651.86564430044086
  0
ARC
  8
_0-0_FRF74-1516
  6
CONTINUOUS
 62
    7
 10
811.27595709067828
 20
653.4652724664594
 40
3.6691735481307539
 50
203.00209655019526
 51
205.84666079391954
  0
LINE
  8
_0-0_FRF74-1516
  6
CONTINUOUS
 62
    7
 10
807.89851749379955
 20
652.03148855814595
 11
807.89098431252182
 21
652.04923381570552
  0
ARC
  8
_0-0_FRF74-1516
  6
CONTINUOUS
 62
    7
 10
810.7305263337272
 20
653.25467052010902
 40
3.0848138580008273
 50
199.59257079793119
 51
203.00209655019043
  0
LINE
  8
_0-0_FRF74-1516
  6
CONTINUOUS
 62
    7
 10
807.82432029568781
 20
652.22024169076542
 11
807.81971016988336
 21
652.23319374224434
  0
ARC
  8
_0-0_FRF74-1516
  6
CONTINUOUS
 62
    7
 10
811.42338743517359
 20
653.51587900477352
 40
3.8251498421734413
 50
197.25430815404138
 51
199.59257079793193
  0
ARC
  8
_0-0_FRF74-1516
  6
CONTINUOUS
 62
    7
 10
811.78503672628062
 20
653.62820390997786
 40
4.2038411334481181
 50
195.12663056865782
 51
197.2543081540384
  0
LINE
  8
_0-0_FRF74-1516
  6
CONTINUOUS
 62
    7
 10
807.72685260758942
 20
652.5311980147917
 11
807.72541152877909
 21
652.53652903732063
  0
ARC
  8
_0-0_FRF74-1516
  6
CONTINUOUS
 62
    7
 10
811.95302160875212
 20
653.67933405666815
 40
4.3793481593195906
 50
192.93975258416864
 51
195.12663056865256
  0
LINE
  8
_0-0_FRF74-1516
  6
CONTINUOUS
 62
    7
 10
807.68488232908658
 20
652.69868254368726
 11
807.68294264175108
 21
652.70712474318168
  0
ARC
  8
_0-0_FRF74-1516
  6
CONTINUOUS
 62
    7
 10
812.65359786146166
 20
653.84918694929161
 40
5.100168565435947
 50
190.86732667236944
 51
192.93975258417785
  0
LINE
  8
_0-0_FRF74-1516
  6
CONTINUOUS
 62
    7
 10
807.64489375013341
 20
652.88762440789105
 11
807.64247172117848
 21
652.90024056738389
  0
ARC
  8
_0-0_FRF74-1516
  6
CONTINUOUS
 62
    7
 10
813.04011041497711
 20
653.93647011191388
 40
5.4962055217894665
 50
189.08543915660454
 51
190.86732667236163
  0
ARC
  8
_0-0_FRF74-1516
  6
CONTINUOUS
 62
    7
 10
815.5058281410046
 20
654.33077142856666
 40
7.9932512628123682
 50
187.86015099232455
 51
189.08543915661036
  0
LINE
  8
_0-0_FRF74-1516
  6
CONTINUOUS
 62
    7
 10
807.58767494573465
 20
653.23764941950844
 11
807.58640303574589
 21
653.24686264370303
  0
ARC
  8
_0-0_FRF74-1516
  6
CONTINUOUS
 62
    7
 10
815.42426622321068
 20
654.32890040464474
 40
7.9121997612243922
 50
186.48762991502804
 51
187.86015099232313
  0
LINE
  8
_0-0_FRF74-1516
  6
CONTINUOUS
 62
    7
 10
807.56273402963745
 20
653.43491123752301
 11
807.560175309187
 21
653.45741202828856
  0
ARC
  8
_0-0_FRF74-1516
  6
CONTINUOUS
 62
    7
 10
823.27851460583167
 20
655.24485303982874
 40
15.819643978743082
 50
185.68501079897337
 51
186.487629915024
  0
LINE
  8
_0-0_FRF74-1516
  6
CONTINUOUS
 62
    7
 10
807.53667924479009
 20
653.67776814103001
 11
807.53633416507228
 21
653.68123456975286
  0
ARC
  8
_0-0_FRF74-1516
  6
CONTINUOUS
 62
    7
 10
857.49625061592985
 20
658.65469724546222
 40
50.206857925619516
 50
185.44006118018532
 51
185.68501079896743
  0
LINE
  8
_0-0_FRF74-1516
  6
CONTINUOUS
 62
    7
 10
807.51552835639563
 20
653.89486687257761
 11
807.51484792365045
 21
653.90199129015093
  0
LINE
  8
_0-0_FRF74-1516
  6
CONTINUOUS
 62
    7
 10
839.01484749896736
 20
646.80411791905647
 11
820.51484726054878
 21
646.80411791905647
  0
LINE
  8
_0-0_FRF74-1516
  6
CONTINUOUS
 62
    7
 10
852.01484683586568
 20
654.62293228611236
 11
852.01484683586568
 21
653.90199129015093
  0
LINE
  8
_0-0_FRF74-1516
  6
CONTINUOUS
 62
    7
 10
892.26484644843549
 20
635.74726446077113
 11
892.26484644843549
 21
654.62293228611236
  0
LINE
  8
_0-0_FRF74-1516
  6
CONTINUOUS
 62
    7
 10
807.51484792365045
 20
653.90199129015093
 11
807.51484792365045
 21
654.62293228611236
  0
LINE
  8
_0-0_FRF74-1516
  6
CONTINUOUS
 62
    7
 10
767.26484644843549
 20
654.62293228611236
 11
767.26484644843549
 21
635.74726446077113
  0
LINE
  8
_0-0_FRF74-1516
  6
CONTINUOUS
 62
    7
 10
852.01484683586568
 20
654.85979369386916
 11
851.97795342339487
 21
654.51112514838462
  0
ARC
  8
_0-0_FRF74-1516
  6
CONTINUOUS
 62
    7
 10
848.58986028367258
 20
654.23493286670089
 40
3.2950758304563115
 50
347.0442217355382
 51
347.50244998848132
  0
LINE
  8
_0-0_FRF74-1516
  6
CONTINUOUS
 62
    7
 10
851.80105467068029
 20
653.496180311844
 11
851.79946672600181
 21
653.48927786662728
  0
ARC
  8
_0-0_FRF74-1516
  6
CONTINUOUS
 62
    7
 10
850.67473502361304
 20
653.7480284492857
 40
1.1541114618546602
 50
345.03289987769017
 51
347.04422173554758
  0
LINE
  8
_0-0_FRF74-1516
  6
CONTINUOUS
 62
    7
 10
851.78969242758512
 20
653.44996259462937
 11
851.78472807089554
 21
653.43139271766927
  0
ARC
  8
_0-0_FRF74-1516
  6
CONTINUOUS
 62
    7
 10
850.35925997151855
 20
653.81246859179009
 40
1.4755263888452035
 50
341.96746681851658
 51
345.03289987769153
  0
LINE
  8
_0-0_FRF74-1516
  6
CONTINUOUS
 62
    7
 10
851.76230983167488
 20
653.35570912106846
 11
851.75668188755674
 21
653.33842149658767
  0
ARC
  8
_0-0_FRF74-1516
  6
CONTINUOUS
 62
    7
 10
849.58572825074452
 20
654.04517017478531
 40
2.2830973232261096
 50
339.69870571862941
 51
341.96746681852841
  0
ARC
  8
_0-0_FRF74-1516
  6
CONTINUOUS
 62
    7
 10
847.56033393962491
 20
654.7944382938731
 40
4.4426400595009037
 50
338.53266470825736
 51
339.69870571862754
  0
LINE
  8
_0-0_FRF74-1516
  6
CONTINUOUS
 62
    7
 10
851.6947718939889
 20
653.16856206863417
 11
851.67485705070283
 21
653.11792064669885
  0
ARC
  8
_0-0_FRF74-1516
  6
CONTINUOUS
 62
    7
 10
849.0422859410902
 20
654.1531846476629
 40
2.828816395395652
 50
334.49866883168966
 51
338.53266470824678
  0
LINE
  8
_0-0_FRF74-1516
  6
CONTINUOUS
 62
    7
 10
851.59550569668056
 20
652.93528847863945
 11
851.56326773912758
 21
652.86770423607607
  0
ARC
  8
_0-0_FRF74-1516
  6
CONTINUOUS
 62
    7
 10
848.00787413045214
 20
654.56364139381412
 40
3.9391657182208859
 50
332.10600485954899
 51
334.49866883168858
  0
ARC
  8
_0-0_FRF74-1516
  6
CONTINUOUS
 62
    7
 10
846.40709811246461
 20
655.41099387726081
 40
5.7503780445281265
 50
330.46683838982074
 51
332.10600485954978
  0
LINE
  8
_0-0_FRF74-1516
  6
CONTINUOUS
 62
    7
 10
851.41033267520322
 20
652.57647600552173
 11
851.40223462190636
 21
652.56218205431742
  0
ARC
  8
_0-0_FRF74-1516
  6
CONTINUOUS
 62
    7
 10
848.02570942103614
 20
654.47510876327601
 40
3.8807487713015161
 50
327.55332850230184
 51
330.46683838981374
  0
LINE
  8
_0-0_FRF74-1516
  6
CONTINUOUS
 62
    7
 10
851.30063906658813
 20
652.39303123286481
 11
851.29995051616402
 21
652.39194820201544
  0
ARC
  8
_0-0_FRF74-1516
  6
CONTINUOUS
 62
    7
 10
844.90942092251726
 20
656.45480741257404
 40
7.5726939362485872
 50
326.04059925203916
 51
327.55332850229507
  0
LINE
  8
_0-0_FRF74-1516
  6
CONTINUOUS
 62
    7
 10
851.19046774028584
 20
652.22466033178659
 11
851.18661746181999
 21
652.21894332506224
  0
ARC
  8
_0-0_FRF74-1516
  6
CONTINUOUS
 62
    7
 10
847.58436934756151
 20
654.64497831364065
 40
4.3430216718876666
 50
323.22148563654201
 51
326.04059925203387
  0
LINE
  8
_0-0_FRF74-1516
  6
CONTINUOUS
 62
    7
 10
851.06293837734484
 20
652.04471010679777
 11
851.03389462268103
 21
652.00585615118803
  0
ARC
  8
_0-0_FRF74-1516
  6
CONTINUOUS
 62
    7
 10
846.42231597278112
 20
655.45306137955095
 40
5.7575933801081263
 50
320.12984689483267
 51
323.22148563654048
  0
LINE
  8
_0-0_FRF74-1516
  6
CONTINUOUS
 62
    7
 10
850.84126426219723
 20
651.76215667390875
 11
850.80587572307047
 21
651.71978762433673
  0
ARC
  8
_0-0_FRF74-1516
  6
CONTINUOUS
 62
    7
 10
847.05838784012394
 20
654.84985834605936
 40
4.8827254843802441
 50
317.05006124662623
 51
320.1298468948263
  0
ARC
  8
_0-0_FRF74-1516
  6
CONTINUOUS
 62
    7
 10
843.4079653693027
 20
658.24797419067852
 40
9.8699868078852671
 50
315.52620075005569
 51
317.05006124662549
  0
LINE
  8
_0-0_FRF74-1516
  6
CONTINUOUS
 62
    7
 10
850.45090066884688
 20
651.33322893475884
 11
850.44126840582658
 21
651.32341810258367
  0
ARC
  8
_0-0_FRF74-1516
  6
CONTINUOUS
 62
    7
 10
846.87620894743668
 20
654.82358911488313
 40
4.9960830714867592
 50
312.20115265702918
 51
315.52620075006439
  0
LINE
  8
_0-0_FRF74-1516
  6
CONTINUOUS
 62
    7
 10
850.23225526974443
 20
651.12253532714624
 11
850.19192408393542
 21
651.08596376251319
  0
ARC
  8
_0-0_FRF74-1516
  6
CONTINUOUS
 62
    7
 10
845.11186752232447
 20
656.68825907479572
 40
7.5625847059843299
 50
309.4188903523592
 51
312.20115265702992
  0
ARC
  8
_0-0_FRF74-1516
  6
CONTINUOUS
 62
    7
 10
844.85656688755853
 20
656.99885831305323
 40
7.9646422900666085
 50
306.77702641759913
 51
309.41889035236255
  0
LINE
  8
_0-0_FRF74-1516
  6
CONTINUOUS
 62
    7
 10
849.62501802189468
 20
650.61940687988397
 11
849.62149097187694
 21
650.61677051438539
  0
ARC
  8
_0-0_FRF74-1516
  6
CONTINUOUS
 62
    7
 10
844.49826350813134
 20
657.47085790362064
 40
8.5572176310147476
 50
304.25910966574043
 51
306.77702641760453
  0
LINE
  8
_0-0_FRF74-1516
  6
CONTINUOUS
 62
    7
 10
849.31543230854186
 20
650.39831533867971
 11
849.31117043026507
 21
650.39541253719381
  0
ARC
  8
_0-0_FRF74-1516
  6
CONTINUOUS
 62
    7
 10
844.07371160739592
 20
658.08502276088052
 40
9.3038207373893602
 50
301.87970620152009
 51
304.25910966574463
  0
LINE
  8
_0-0_FRF74-1516
  6
CONTINUOUS
 62
    7
 10
848.98740917402779
 20
650.18460147229382
 11
848.98301828931676
 21
650.18187054457098
  0
ARC
  8
_0-0_FRF74-1516
  6
CONTINUOUS
 62
    7
 10
843.57929767540247
 20
658.87016867379668
 40
10.231652889711887
 50
299.65812823971828
 51
301.87970620151697
  0
LINE
  8
_0-0_FRF74-1516
  6
CONTINUOUS
 62
    7
 10
848.64216242675604
 20
649.97893021309551
 11
848.63821690373834
 21
649.97668354639097
  0
ARC
  8
_0-0_FRF74-1516
  6
CONTINUOUS
 62
    7
 10
843.09596240272936
 20
659.70981069840286
 40
11.200462004363311
 50
297.58223143426881
 51
299.65812823971964
  0
LINE
  8
_0-0_FRF74-1516
  6
CONTINUOUS
 62
    7
 10
848.28201357476757
 20
649.78231240567141
 11
848.27779753265008
 21
649.78010997666865
  0
ARC
  8
_0-0_FRF74-1516
  6
CONTINUOUS
 62
    7
 10
842.68482856244248
 20
660.48655849811826
 40
12.079293929868427
 50
295.61222603482986
 51
297.58223143427119
  0
LINE
  8
_0-0_FRF74-1516
  6
CONTINUOUS
 62
    7
 10
847.90644371104975
 20
649.59417230022791
 11
847.90214504363951
 21
649.59211159594702
  0
ARC
  8
_0-0_FRF74-1516
  6
CONTINUOUS
 62
    7
 10
842.35215549717395
 20
661.1694928877256
 40
12.838930700845051
 50
293.71622200984086
 51
295.61222603483083
  0
LINE
  8
_0-0_FRF74-1516
  6
CONTINUOUS
 62
    7
 10
847.51606342323032
 20
649.41482587958308
 11
847.51196338398813
 21
649.41302470349478
  0
ARC
  8
_0-0_FRF74-1516
  6
CONTINUOUS
 62
    7
 10
842.0505131228399
 20
661.84499098186336
 40
13.578704816789012
 50
291.88571318490199
 51
293.71622200984046
  0
LINE
  8
_0-0_FRF74-1516
  6
CONTINUOUS
 62
    7
 10
847.11206242613036
 20
649.24491387289902
 11
847.08870639621102
 21
649.23553157341439
  0
ARC
  8
_0-0_FRF74-1516
  6
CONTINUOUS
 62
    7
 10
842.0848552380819
 20
661.69197655819494
 40
13.42391701671221
 50
289.81930275706475
 51
291.88571318490654
  0
LINE
  8
_0-0_FRF74-1516
  6
CONTINUOUS
 62
    7
 10
846.63629981949794
 20
649.06320384292792
 11
846.61658295810673
 21
649.05609783160241
  0
ARC
  8
_0-0_FRF74-1516
  6
CONTINUOUS
 62
    7
 10
841.15618177033809
 20
664.20692836484716
 40
16.104770938404776
 50
288.18702251046631
 51
289.8193027570685
  0
ARC
  8
_0-0_FRF74-1516
  6
CONTINUOUS
 62
    7
 10
840.87752660164801
 20
665.05511030615889
 40
16.997553839565516
 50
286.64046577739094
 51
288.18702251046705
  0
LINE
  8
_0-0_FRF74-1516
  6
CONTINUOUS
 62
    7
 10
845.74503318070003
 20
648.76940441934471
 11
845.74044708472525
 21
648.76803371717892
  0
ARC
  8
_0-0_FRF74-1516
  6
CONTINUOUS
 62
    7
 10
840.54955232511884
 20
666.13573193626166
 40
18.126840039963898
 50
285.15999356259658
 51
286.64046577738708
  0
LINE
  8
_0-0_FRF74-1516
  6
CONTINUOUS
 62
    7
 10
845.28999829545842
 20
648.63971805204426
 11
845.28479439499824
 21
648.63830808465798
  0
ARC
  8
_0-0_FRF74-1516
  6
CONTINUOUS
 62
    7
 10
840.23115763902376
 20
667.29024492805729
 40
19.324440288698973
 50
283.7392955839062
 51
285.15999356259647
  0
LINE
  8
_0-0_FRF74-1516
  6
CONTINUOUS
 62
    7
 10
844.82079752417462
 20
648.51874530239797
 11
844.80591536109853
 21
648.51510660700376
  0
ARC
  8
_0-0_FRF74-1516
  6
CONTINUOUS
 62
    7
 10
840.14225826767313
 20
667.58933455823399
 40
19.63608589868527
 50
282.38068417870937
 51
283.73929558390819
  0
ARC
  8
_0-0_FRF74-1516
  6
CONTINUOUS
 62
    7
 10
839.43629035949414
 20
670.80543008369511
 40
22.928753679720838
 50
281.21716068927924
 51
282.38068417870943
  0
LINE
  8
_0-0_FRF74-1516
  6
CONTINUOUS
 62
    7
 10
843.89657836943684
 20
648.31468585026266
 11
843.85480965353906
 21
648.30640242038703
  0
ARC
  8
_0-0_FRF74-1516
  6
CONTINUOUS
 62
    7
 10
840.16351139137657
 20
666.91956034170482
 40
18.975650994476133
 50
279.74636469606605
 51
281.21716068927765
  0
LINE
  8
_0-0_FRF74-1516
  6
CONTINUOUS
 62
    7
 10
843.37584188853202
 20
648.21778867586511
 11
843.30275523216517
 21
648.20523486548939
  0
ARC
  8
_0-0_FRF74-1516
  6
CONTINUOUS
 62
    7
 10
839.50727830046719
 20
670.30200946649188
 40
22.420372274040449
 50
278.88051328848218
 51
279.74636469606702
  0
LINE
  8
_0-0_FRF74-1516
  6
CONTINUOUS
 62
    7
 10
842.96840903376017
 20
648.15040304723607
 11
842.95019604579738
 21
648.14755731536502
  0
ARC
  8
_0-0_FRF74-1516
  6
CONTINUOUS
 62
    7
 10
839.39220398381156
 20
670.9190865852338
 40
23.047816660188179
 50
278.12988010766901
 51
278.88051328847359
  0
ARC
  8
_0-0_FRF74-1516
  6
CONTINUOUS
 62
    7
 10
839.74657524006852
 20
668.43841906045179
 40
20.541965436398289
 50
277.28768261048219
 51
278.1298801076689
  0
LINE
  8
_0-0_FRF74-1516
  6
CONTINUOUS
 62
    7
 10
842.35235168151075
 20
648.06239704614768
 11
842.30435432030595
 21
648.05625892983664
  0
ARC
  8
_0-0_FRF74-1516
  6
CONTINUOUS
 62
    7
 10
840.46037169894191
 20
662.4753894006526
 40
14.536560646944851
 50
275.91364333672431
 51
277.2876826104773
  0
ARC
  8
_0-0_FRF74-1516
  6
CONTINUOUS
 62
    7
 10
839.15455901342466
 20
675.08211755502884
 40
27.210736814570037
 50
275.17957687384455
 51
275.91364333672561
  0
LINE
  8
_0-0_FRF74-1516
  6
CONTINUOUS
 62
    7
 10
841.61107877318079
 20
647.98249193654976
 11
841.60010218929847
 21
647.98149693405117
  0
ARC
  8
_0-0_FRF74-1516
  6
CONTINUOUS
 62
    7
 10
839.95584066657204
 20
666.1205212621619
 40
18.213396155876922
 50
274.01356640213146
 51
275.17957687385086
  0
LINE
  8
_0-0_FRF74-1516
  6
CONTINUOUS
 62
    7
 10
841.23064495505321
 20
647.95179336071044
 11
841.17196529044861
 21
647.94767611659233
  0
ARC
  8
_0-0_FRF74-1516
  6
CONTINUOUS
 62
    7
 10
839.15087467291505
 20
676.75260392073983
 40
28.875745411788579
 50
273.39341919804997
 51
274.01356640213476
  0
ARC
  8
_0-0_FRF74-1516
  6
CONTINUOUS
 62
    7
 10
838.93942005217343
 20
680.31870856972591
 40
32.448113733246124
 50
272.84154585019229
 51
273.39341919804474
  0
LINE
  8
_0-0_FRF74-1516
  6
CONTINUOUS
 62
    7
 10
840.54800294239885
 20
647.91049131034947
 11
840.50172324278924
 21
647.90819421599338
  0
ARC
  8
_0-0_FRF74-1516
  6
CONTINUOUS
 62
    7
 10
838.82260890473572
 20
681.73741284168898
 40
33.870864438117998
 50
272.15609235953116
 51
272.84154585019144
  0
LINE
  8
_0-0_FRF74-1516
  6
CONTINUOUS
 62
    7
 10
840.09689957763726
 20
647.89052759258038
 11
840.0508013247595
 21
647.88879205404419
  0
ARC
  8
_0-0_FRF74-1516
  6
CONTINUOUS
 62
    7
 10
837.72355879693157
 20
709.70350392580144
 40
61.858505167613714
 50
271.8109895676136
 51
272.15609235953002
  0
LINE
  8
_0-0_FRF74-1516
  6
CONTINUOUS
 62
    7
 10
839.67844022662507
 20
647.8758960134171
 11
839.65522782757239
 21
647.87516207773069
  0
ARC
  8
_0-0_FRF74-1516
  6
CONTINUOUS
 62
    7
 10
836.55334149223131
 20
745.97943030449005
 40
98.153294102364697
 50
271.62061067001804
 51
271.81098956761434
  0
LINE
  8
_0-0_FRF74-1516
  6
CONTINUOUS
 62
    7
 10
839.32923646626421
 20
647.86539690335803
 11
839.30596964059578
 21
647.8647386258192
  0
ARC
  8
_0-0_FRF74-1516
  6
CONTINUOUS
 62
    7
 10
828.37301365036899
 20
1034.2901687069043
 40
386.58005967721078
 50
271.57917272382565
 51
271.62061067001451
  0
LINE
  8
_0-0_FRF74-1516
  6
CONTINUOUS
 62
    7
 10
839.02649288430882
 20
647.85693266185615
 11
839.01484749896736
 21
647.85661114856487
  0
LINE
  8
_0-0_FRF74-1516
  6
CONTINUOUS
 62
    7
 10
839.01484749896736
 20
647.85661114856487
 11
820.51484726054878
 21
647.85661114856487
  0
LINE
  8
_0-0_FRF74-1516
  6
CONTINUOUS
 62
    7
 10
820.51484726054878
 20
647.85661114856487
 11
820.44171127060531
 21
647.85854972128868
  0
ARC
  8
_0-0_FRF74-1516
  6
CONTINUOUS
 62
    7
 10
823.45741535342995
 20
761.63117262415926
 40
113.81258363341885
 50
268.27812209951827
 51
268.48164995508222
  0
LINE
  8
_0-0_FRF74-1516
  6
CONTINUOUS
 62
    7
 10
820.03758448644737
 20
647.86997998732375
 11
820.03085530695137
 21
647.8701822764807
  0
ARC
  8
_0-0_FRF74-1516
  6
CONTINUOUS
 62
    7
 10
822.68756778752436
 20
736.24612601136323
 40
88.415867084113046
 50
268.02485801688937
 51
268.2781220995189
  0
ARC
  8
_0-0_FRF74-1516
  6
CONTINUOUS
 62
    7
 10
820.91629578103436
 20
684.88465077734747
 40
37.023858534773531
 50
267.42004822979453
 51
268.02485801689033
  0
LINE
  8
_0-0_FRF74-1516
  6
CONTINUOUS
 62
    7
 10
819.24972462236769
 20
647.89832031086257
 11
819.16655606835775
 21
647.90206781194399
  0
ARC
  8
_0-0_FRF74-1516
  6
CONTINUOUS
 62
    7
 10
820.90452698240858
 20
686.47297805126652
 40
38.610046096682694
 50
266.88478818651868
 51
267.42004822980073
  0
LINE
  8
_0-0_FRF74-1516
  6
CONTINUOUS
 62
    7
 10
818.80630577255738
 20
647.91998689179241
 11
818.80202158193481
 21
647.92022005605179
  0
ARC
  8
_0-0_FRF74-1516
  6
CONTINUOUS
 62
    7
 10
820.86772936938746
 20
685.87580533644825
 40
38.011756110979562
 50
266.35403758646879
 51
266.88478818651561
  0
ARC
  8
_0-0_FRF74-1516
  6
CONTINUOUS
 62
    7
 10
819.78399890045023
 20
668.86812912141272
 40
20.969587177278964
 50
265.39195700632331
 51
266.35403758647391
  0
LINE
  8
_0-0_FRF74-1516
  6
CONTINUOUS
 62
    7
 10
818.0993264217235
 20
647.96632381601091
 11
818.06849493491472
 21
647.96880881462926
  0
ARC
  8
_0-0_FRF74-1516
  6
CONTINUOUS
 62
    7
 10
819.52323088983462
 20
666.01778158796333
 40
18.107503275468289
 50
264.36469594223195
 51
265.39195700632649
  0
LINE
  8
_0-0_FRF74-1516
  6
CONTINUOUS
 62
    7
 10
817.7451444610947
 20
647.99779036923564
 11
817.71291524096682
 21
648.00097052277852
  0
ARC
  8
_0-0_FRF74-1516
  6
CONTINUOUS
 62
    7
 10
819.19862357033287
 20
663.05786011827558
 40
15.130011683106286
 50
263.38055042965556
 51
264.36469594223632
  0
ARC
  8
_0-0_FRF74-1516
  6
CONTINUOUS
 62
    7
 10
820.15230126365725
 20
671.27582150741125
 40
23.403124189054072
 50
262.74429579685545
 51
263.38055042965254
  0
LINE
  8
_0-0_FRF74-1516
  6
CONTINUOUS
 62
    7
 10
817.19653981134581
 20
648.06010062596283
 11
817.09917414992981
 21
648.07249695301482
  0
ARC
  8
_0-0_FRF74-1516
  6
CONTINUOUS
 62
    7
 10
819.07021325359312
 20
663.55381857363841
 40
15.606290855592791
 50
261.06958744109221
 51
262.74429579685682
  0
LINE
  8
_0-0_FRF74-1516
  6
CONTINUOUS
 62
    7
 10
816.64757423724438
 20
648.1367133179225
 11
816.45709310147049
 21
648.16664546301399
  0
ARC
  8
_0-0_FRF74-1516
  6
CONTINUOUS
 62
    7
 10
819.20684441358401
 20
665.66541648082955
 40
17.713501048985563
 50
259.27540465564545
 51
261.06958744109579
  0
LINE
  8
_0-0_FRF74-1516
  6
CONTINUOUS
 62
    7
 10
815.91056727048863
 20
648.26131706694662
 11
815.86076904305446
 21
648.27074868158832
  0
ARC
  8
_0-0_FRF74-1516
  6
CONTINUOUS
 62
    7
 10
820.60231694749484
 20
673.30577077535281
 40
25.480082569830476
 50
258.25597045790852
 51
259.27540465564476
  0
LINE
  8
_0-0_FRF74-1516
  6
CONTINUOUS
 62
    7
 10
815.41610783524811
 20
648.35907073688225
 11
815.37575268958187
 21
648.36746023224066
  0
ARC
  8
_0-0_FRF74-1516
  6
CONTINUOUS
 62
    7
 10
818.72196347228237
 20
664.46340138209393
 40
16.440086620872794
 50
256.96328752798752
 51
258.25597045791289
  0
ARC
  8
_0-0_FRF74-1516
  6
CONTINUOUS
 62
    7
 10
822.14504636528193
 20
679.24717797300491
 40
31.614985196557388
 50
256.29105956595288
 51
256.96328752798985
  0
LINE
  8
_0-0_FRF74-1516
  6
CONTINUOUS
 62
    7
 10
814.65261912594133
 20
648.53283567104882
 11
814.64765269133125
 21
648.53404717835019
  0
ARC
  8
_0-0_FRF74-1516
  6
CONTINUOUS
 62
    7
 10
818.07122757703974
 20
662.56859800907876
 40
14.446088813874791
 50
254.7794217772601
 51
256.29105956595691
  0
LINE
  8
_0-0_FRF74-1516
  6
CONTINUOUS
 62
    7
 10
814.27861274541101
 20
648.62924527097539
 11
814.21042732943715
 21
648.6477971381089
  0
ARC
  8
_0-0_FRF74-1516
  6
CONTINUOUS
 62
    7
 10
818.88334862101112
 20
665.82262271160027
 40
17.799180511391519
 50
253.27310223126295
 51
254.77942177726371
  0
LINE
  8
_0-0_FRF74-1516
  6
CONTINUOUS
 62
    7
 10
813.76056394397892
 20
648.77657026448333
 11
813.72881321170382
 21
648.78611219011611
  0
ARC
  8
_0-0_FRF74-1516
  6
CONTINUOUS
 62
    7
 10
817.95259948740397
 20
662.84074983745109
 40
14.675599132596874
 50
251.70504050049664
 51
253.27310223126543
  0
LINE
  8
_0-0_FRF74-1516
  6
CONTINUOUS
 62
    7
 10
813.34579785730682
 20
648.90695679170744
 11
813.34242396253001
 21
648.90807227145558
  0
ARC
  8
_0-0_FRF74-1516
  6
CONTINUOUS
 62
    7
 10
819.14157207042751
 20
666.4482522195392
 40
18.473982553539528
 50
250.48139422868485
 51
251.70504050049016
  0
ARC
  8
_0-0_FRF74-1516
  6
CONTINUOUS
 62
    7
 10
817.3886042091782
 20
661.50312768534604
 40
13.227350016258992
 50
248.77245002414364
 51
250.48139422868331
  0
LINE
  8
_0-0_FRF74-1516
  6
CONTINUOUS
 62
    7
 10
812.59934022451739
 20
649.17325587182518
 11
812.57245461756952
 21
649.18369898680714
  0
ARC
  8
_0-0_FRF74-1516
  6
CONTINUOUS
 62
    7
 10
817.61832909137013
 20
662.17420977266841
 40
13.936076193926702
 50
246.975186073923
 51
248.77245002414173
  0
LINE
  8
_0-0_FRF74-1516
  6
CONTINUOUS
 62
    7
 10
812.16751511579673
 20
649.34834345936918
 11
812.16345445180332
 21
649.35006918482929
  0
ARC
  8
_0-0_FRF74-1516
  6
CONTINUOUS
 62
    7
 10
817.30969489696372
 20
661.45926833591022
 40
13.157374160520918
 50
245.10998883467198
 51
246.9751860739209
  0
LINE
  8
_0-0_FRF74-1516
  6
CONTINUOUS
 62
    7
 10
811.77204985536264
 20
649.52398525618503
 11
811.76780711486344
 21
649.52595377178125
  0
ARC
  8
_0-0_FRF74-1516
  6
CONTINUOUS
 62
    7
 10
816.9809755512772
 20
660.76189261644606
 40
12.38642187508032
 50
243.17197858502428
 51
245.1099888346736
  0
LINE
  8
_0-0_FRF74-1516
  6
CONTINUOUS
 62
    7
 10
811.39080970038162
 20
649.70868074717714
 11
811.34163317029402
 21
649.73355179483383
  0
ARC
  8
_0-0_FRF74-1516
  6
CONTINUOUS
 62
    7
 10
815.25960888215616
 20
657.48040882859027
 40
8.6812630175684671
 50
241.13419721413212
 51
243.1719785850313
  0
LINE
  8
_0-0_FRF74-1516
  6
CONTINUOUS
 62
    7
 10
811.06864432090401
 20
649.87776825925312
 11
811.06562560538111
 21
649.87943232973782
  0
ARC
  8
_0-0_FRF74-1516
  6
CONTINUOUS
 62
    7
 10
818.94492137985094
 20
664.17290888800085
 40
16.321359441639419
 50
240.07442695021899
 51
241.13419721412379
  0
LINE
  8
_0-0_FRF74-1516
  6
CONTINUOUS
 62
    7
 10
810.80260946378667
 20
650.0276082307256
 11
810.80111713882752
 21
650.02846724218045
  0
ARC
  8
_0-0_FRF74-1516
  6
CONTINUOUS
 62
    7
 10
814.5873159368075
 20
656.60607331988399
 40
7.5894797615690415
 50
237.82158921758807
 51
240.07442695022945
  0
LINE
  8
_0-0_FRF74-1516
  6
CONTINUOUS
 62
    7
 10
810.54548240212387
 20
650.18238398047993
 11
810.50190117040961
 21
650.20980561850115
  0
ARC
  8
_0-0_FRF74-1516
  6
CONTINUOUS
 62
    7
 10
815.51618362036606
 20
658.17900881357139
 40
9.4154781106569381
 50
236.63213369927723
 51
237.82158921758466
  0
ARC
  8
_0-0_FRF74-1516
  6
CONTINUOUS
 62
    7
 10
815.39273558574132
 20
657.99156137284069
 40
9.1910322145278389
 50
235.4136337255089
 51
236.63213369929284
  0
LINE
  8
_0-0_FRF74-1516
  6
CONTINUOUS
 62
    7
 10
810.17546580986993
 20
650.42484681140331
 11
810.13783715122543
 21
650.45079187142358
  0
ARC
  8
_0-0_FRF74-1516
  6
CONTINUOUS
 62
    7
 10
813.82000854715432
 20
655.79112141469216
 40
6.486717646059784
 50
232.88006150476187
 51
235.41363372551399
  0
LINE
  8
_0-0_FRF74-1516
  6
CONTINUOUS
 62
    7
 10
809.90536847692454
 20
650.61878162111179
 11
809.83086261772701
 21
650.67517072807721
  0
ARC
  8
_0-0_FRF74-1516
  6
CONTINUOUS
 62
    7
 10
813.43073570994466
 20
655.43161487432781
 40
5.9651359746844319
 50
230.22550203236221
 51
232.88006150476946
  0
LINE
  8
_0-0_FRF74-1516
  6
CONTINUOUS
 62
    7
 10
809.61443452220692
 20
650.84700012050757
 11
809.61227492253613
 21
650.84879780324241
  0
ARC
  8
_0-0_FRF74-1516
  6
CONTINUOUS
 62
    7
 10
816.90297816693021
 20
659.60729563023892
 40
11.395860563525794
 50
228.86404973594685
 51
230.22550203235525
  0
LINE
  8
_0-0_FRF74-1516
  6
CONTINUOUS
 62
    7
 10
809.40623476990231
 20
651.02449443118746
 11
809.40547648382415
 21
651.02515676461655
  0
ARC
  8
_0-0_FRF74-1516
  6
CONTINUOUS
 62
    7
 10
812.97192838232445
 20
655.10828273141283
 40
5.4213925153085345
 50
226.02398156912909
 51
228.86404973595137
  0
LINE
  8
_0-0_FRF74-1516
  6
CONTINUOUS
 62
    7
 10
809.20754532157559
 20
651.20688337003105
 11
809.20597100804207
 21
651.20840239401423
  0
ARC
  8
_0-0_FRF74-1516
  6
CONTINUOUS
 62
    7
 10
816.3358667347336
 20
658.59781260703755
 40
10.268339513759091
 50
224.548694136254
 51
226.02398156912491
  0
ARC
  8
_0-0_FRF74-1516
  6
CONTINUOUS
 62
    7
 10
812.54057307347489
 20
654.86184223180612
 40
4.9427664347565194
 50
221.48442268598845
 51
224.54869413625826
  0
LINE
  8
_0-0_FRF74-1516
  6
CONTINUOUS
 62
    7
 10
808.83776957258613
 20
651.58767267871917
 11
808.79200344287381
 21
651.63943022596084
  0
ARC
  8
_0-0_FRF74-1516
  6
CONTINUOUS
 62
    7
 10
812.66777245806156
 20
655.06654292618418
 40
5.1736531502529202
 50
218.25773085247067
 51
221.48442268599044
  0
ARC
  8
_0-0_FRF74-1516
  6
CONTINUOUS
 62
    7
 10
814.08540099135303
 20
656.1844213366038
 40
6.9790126155352183
 50
215.86544804343899
 51
218.25773085247064
  0
LINE
  8
_0-0_FRF74-1516
  6
CONTINUOUS
 62
    7
 10
808.42964334891485
 20
652.09553119650434
 11
808.42084233967148
 21
652.10770476282289
  0
ARC
  8
_0-0_FRF74-1516
  6
CONTINUOUS
 62
    7
 10
812.16971602037756
 20
654.81799286189209
 40
4.625982647378498
 50
212.003756529323
 51
215.86544804344251
  0
LINE
  8
_0-0_FRF74-1516
  6
CONTINUOUS
 62
    7
 10
808.24682097478365
 20
652.3663383358421
 11
808.20729821870805
 21
652.4295787403729
  0
ARC
  8
_0-0_FRF74-1516
  6
CONTINUOUS
 62
    7
 10
811.79348446611107
 20
654.67080356095039
 40
4.2289266365633997
 50
209.79891973011141
 51
212.0037565293305
  0
LINE
  8
_0-0_FRF74-1516
  6
CONTINUOUS
 62
    7
 10
808.12372840134344
 20
652.5692063296674
 11
808.11725631416971
 21
652.58050772500792
  0
ARC
  8
_0-0_FRF74-1516
  6
CONTINUOUS
 62
    7
 10
814.59798862422019
 20
656.2918958497529
 40
7.4682188697861003
 50
208.75012196891032
 51
209.7989197301126
  0
LINE
  8
_0-0_FRF74-1516
  6
CONTINUOUS
 62
    7
 10
808.05040897039191
 20
652.69975251132621
 11
808.05023986996048
 21
652.70006073915556
  0
ARC
  8
_0-0_FRF74-1516
  6
CONTINUOUS
 62
    7
 10
810.84812501994463
 20
654.23504084395256
 40
3.191288961317114
 50
206.30866201776615
 51
208.75012196891339
  0
LINE
  8
_0-0_FRF74-1516
  6
CONTINUOUS
 62
    7
 10
807.98739156812951
 20
652.82064013966465
 11
807.97805200319658
 21
652.83953012306756
  0
ARC
  8
_0-0_FRF74-1516
  6
CONTINUOUS
 62
    7
 10
811.11974772382985
 20
654.39284388499675
 40
3.5047162002142791
 50
204.77429878331182
 51
206.3086620177329
  0
ARC
  8
_0-0_FRF74-1516
  6
CONTINUOUS
 62
    7
 10
810.83835989628369
 20
654.2629775947164
 40
3.1948059505575244
 50
203.09111601789778
 51
204.77429878334431
  0
LINE
  8
_0-0_FRF74-1516
  6
CONTINUOUS
 62
    7
 10
807.89951438655646
 20
653.00999230682453
 11
807.89544987416195
 21
653.01952551851923
  0
ARC
  8
_0-0_FRF74-1516
  6
CONTINUOUS
 62
    7
 10
810.09523637667758
 20
653.95741085990085
 40
2.3913781738211828
 50
200.34619494814052
 51
203.09111601792071
  0
LINE
  8
_0-0_FRF74-1516
  6
CONTINUOUS
 62
    7
 10
807.85305888996868
 20
653.12594848052072
 11
807.84902750656715
 21
653.13681978068689
  0
ARC
  8
_0-0_FRF74-1516
  6
CONTINUOUS
 62
    7
 10
811.19814328053417
 20
654.37876596324838
 40
3.5719751941765936
 50
198.13647156618504
 51
200.346194948147
  0
LINE
  8
_0-0_FRF74-1516
  6
CONTINUOUS
 62
    7
 10
807.80363174977003
 20
653.26687646544622
 11
807.80192052132816
 21
653.27210071182094
  0
ARC
  8
_0-0_FRF74-1516
  6
CONTINUOUS
 62
    7
 10
813.38449270474484
 20
655.10070059289774
 40
5.8744267557041141
 50
196.86180578670121
 51
198.13647156619948
  0
LINE
  8
_0-0_FRF74-1516
  6
CONTINUOUS
 62
    7
 10
807.76262425139294
 20
653.3967390905924
 11
807.76134838199619
 21
653.40094855770883
  0
ARC
  8
_0-0_FRF74-1516
  6
CONTINUOUS
 62
    7
 10
826.7373167480705
 20
659.15247402171531
 40
19.828449777866261
 50
196.50957562228842
 51
196.86180578669857
  0
LINE
  8
_0-0_FRF74-1516
  6
CONTINUOUS
 62
    7
 10
807.72634923959538
 20
653.51771271487462
 11
807.72511075867624
 21
653.52188548549896
  0
LINE
  8
_0-0_FRF74-1516
  6
CONTINUOUS
 62
    7
 10
807.55797188414545
 20
654.48046088695412
 11
807.51484792365045
 21
654.85979369386916
  0
LINE
  8
_0-0_FRF74-1516
  6
CONTINUOUS
 62
    7
 10
852.01484683586568
 20
654.85979369386916
 11
852.01484683586568
 21
654.69000101566201
  0
LINE
  8
_0-0_FRF74-1516
  6
CONTINUOUS
 62
    7
 10
807.51484792365045
 20
654.85979369386916
 11
807.51484792365045
 21
654.69000101566201
  0
LINE
  8
_0-0_FRF74-1516
  6
CONTINUOUS
 62
    7
 10
762.26484376622648
 20
653.02188540354257
 11
762.26484376622648
 21
666.02188567176347
  0
LINE
  8
_0-0_FRF74-1516
  6
CONTINUOUS
 62
    7
 10
762.26484376622648
 20
666.02188567176347
 11
766.26484442187757
 21
666.02188567176347
  0
LINE
  8
_0-0_FRF74-1516
  6
CONTINUOUS
 62
    7
 10
766.26484442187757
 20
653.02188540354257
 11
762.26484376622648
 21
653.02188540354257
  0
LINE
  8
_0-0_FRF74-1516
  6
CONTINUOUS
 62
    7
 10
766.26484442187757
 20
666.02188567176347
 11
766.26484442187757
 21
653.02188540354257
  0
LINE
  8
_0-0_FRF74-1516
  6
CONTINUOUS
 62
    7
 10
893.26484847499341
 20
666.02188567176347
 11
897.26484913064451
 21
666.02188567176347
  0
LINE
  8
_0-0_FRF74-1516
  6
CONTINUOUS
 62
    7
 10
897.26484913064451
 20
666.02188567176347
 11
897.26484913064451
 21
653.02188540354257
  0
LINE
  8
_0-0_FRF74-1516
  6
CONTINUOUS
 62
    7
 10
897.26484913064451
 20
653.02188540354257
 11
893.26484847499341
 21
653.02188540354257
  0
LINE
  8
_0-0_FRF74-1516
  6
CONTINUOUS
 62
    7
 10
893.26484847499341
 20
653.02188540354257
 11
893.26484847499341
 21
653.52188548549896
  0
LINE
  8
_0-0_FRF74-1516
  6
CONTINUOUS
 62
    7
 10
893.26484847499341
 20
665.52188558980708
 11
893.26484847499341
 21
666.02188567176347
  0
LINE
  8
_0-0_FRF74-1516
  6
CONTINUOUS
 62
    7
 10
893.26484847499341
 20
666.02188567176347
 11
883.26484683586568
 21
666.02188567176347
  0
LINE
  8
_0-0_FRF74-1516
  6
CONTINUOUS
 62
    7
 10
892.26484644843549
 20
653.02188540354257
 11
893.26484847499341
 21
653.02188540354257
  0
LINE
  8
_0-0_FRF74-1516
  6
CONTINUOUS
 62
    7
 10
766.26484442187757
 20
653.02188540354257
 11
767.26484644843549
 21
653.02188540354257
  0
LINE
  8
_0-0_FRF74-1516
  6
CONTINUOUS
 62
    7
 10
776.2648460610053
 20
666.02188567176347
 11
766.26484442187757
 21
666.02188567176347
  0
LINE
  8
_0-0_FRF74-1516
  6
CONTINUOUS
 62
    7
 10
807.9008066250226
 20
653.02188540354257
 11
808.76484673155755
 21
653.02188540354257
  0
LINE
  8
_0-0_FRF74-1516
  6
CONTINUOUS
 62
    7
 10
850.76484802795858
 20
653.02188540354257
 11
851.62866275443048
 21
653.02188540354257
  0
LINE
  8
_0-0_FRF74-1516
  6
CONTINUOUS
 62
    7
 10
883.26484683586568
 20
666.02188567176347
 11
850.76484802795858
 21
666.02188567176347
  0
LINE
  8
_0-0_FRF74-1516
  6
CONTINUOUS
 62
    7
 10
808.76484673155755
 20
666.02188567176347
 11
776.2648460610053
 21
666.02188567176347
  0
ARC
  8
_0-0_FRF74-1516
  6
CONTINUOUS
 62
    7
 10
861.26105889447228
 20
659.52197275311244
 40
11.268528189613427
 50
158.66394378080921
 51
201.31795788569943
  0
LINE
  8
_0-0_FRF74-1516
  6
CONTINUOUS
 62
    7
 10
839.76484715624065
 20
652.52188532158618
 11
819.76484760327548
 21
652.52188532158618
  0
LINE
  8
_0-0_FRF74-1516
  6
CONTINUOUS
 62
    7
 10
850.26484701467962
 20
652.52188532158618
 11
839.76484715624065
 21
652.52188532158618
  0
LINE
  8
_0-0_FRF74-1516
  6
CONTINUOUS
 62
    7
 10
819.76484760327548
 20
652.52188532158618
 11
809.26484774483652
 21
652.52188532158618
  0
LINE
  8
_0-0_FRF74-1516
  6
CONTINUOUS
 62
    8
 10
883.26484683586568
 20
666.02188567176347
 11
883.26484683586568
 21
665.7218857157219
  0
LINE
  8
_0-0_FRF74-1516
  6
CONTINUOUS
 62
    7
 10
839.76484715624065
 20
682.5218848149467
 11
819.76484760327548
 21
682.5218848149467
  0
LINE
  8
_0-0_FRF74-1516
  6
CONTINUOUS
 62
    7
 10
850.76484802795858
 20
682.5218848149467
 11
839.76484715624065
 21
682.5218848149467
  0
LINE
  8
_0-0_FRF74-1516
  6
CONTINUOUS
 62
    7
 10
819.76484760327548
 20
682.5218848149467
 11
808.76484673155755
 21
682.5218848149467
  0
LINE
  8
_0-0_FRF74-1516
  6
CONTINUOUS
 62
    7
 10
808.76484673155755
 20
682.5218848149467
 11
808.76484673155755
 21
663.62188555776959
  0
LINE
  8
_0-0_FRF74-1516
  6
CONTINUOUS
 62
    7
 10
839.01484749896736
 20
646.80411791905647
 11
839.09380574822558
 21
646.80623517200206
  0
ARC
  8
_0-0_FRF74-1516
  6
CONTINUOUS
 62
    7
 10
836.24496043305714
 20
753.04759804891057
 40
106.27955168127467
 50
271.53600917312264
 51
271.76296231752099
  0
ARC
  8
_0-0_FRF74-1516
  6
CONTINUOUS
 62
    7
 10
836.75224113219861
 20
736.56632124417547
 40
89.790469874757235
 50
271.76296231752167
 51
272.03159289520306
  0
LINE
  8
_0-0_FRF74-1516
  6
CONTINUOUS
 62
    7
 10
839.93536316900008
 20
646.83229082968603
 11
840.02394114630295
 21
646.83543294322112
  0
ARC
  8
_0-0_FRF74-1516
  6
CONTINUOUS
 62
    7
 10
839.0284268352201
 20
674.89955063523973
 40
28.081769007223166
 50
272.03159289520102
 51
273.08288289615541
  0
LINE
  8
_0-0_FRF74-1516
  6
CONTINUOUS
 62
    7
 10
840.53867835504036
 20
646.85842207517771
 11
840.64160906305165
 21
646.86396576283209
  0
ARC
  8
_0-0_FRF74-1516
  6
CONTINUOUS
 62
    7
 10
837.40227314364267
 20
707.00933477807939
 40
60.232538641327821
 50
273.08288289615371
 51
273.37692309126459
  0
ARC
  8
_0-0_FRF74-1516
  6
CONTINUOUS
 62
    7
 10
839.81869853316846
 20
666.05766922110365
 40
19.209642308261085
 50
273.37692309126862
 51
274.2988790470539
  0
LINE
  8
_0-0_FRF74-1516
  6
CONTINUOUS
 62
    7
 10
841.25863829026571
 20
646.90207131586283
 11
841.28794956757599
 21
646.90427466517826
  0
ARC
  8
_0-0_FRF74-1516
  6
CONTINUOUS
 62
    7
 10
839.51606296814589
 20
670.47577969870213
 40
23.638008200072235
 50
274.29887904705106
 51
275.19060824667571
  0
LINE
  8
_0-0_FRF74-1516
  6
CONTINUOUS
 62
    7
 10
841.65457788807851
 20
646.93470526264662
 11
841.71274904792563
 21
646.93998963883689
  0
ARC
  8
_0-0_FRF74-1516
  6
CONTINUOUS
 62
    7
 10
840.5822386240078
 20
659.38480813979868
 40
12.4960618332524
 50
275.19060824668043
 51
276.97015130031463
  0
LINE
  8
_0-0_FRF74-1516
  6
CONTINUOUS
 62
    7
 10
842.09866386793772
 20
646.98109837940683
 11
842.10457458191036
 21
646.98182099836924
  0
ARC
  8
_0-0_FRF74-1516
  6
CONTINUOUS
 62
    7
 10
837.84243491212806
 20
681.84430013071596
 40
35.122048428558919
 50
276.97015130030968
 51
277.58391108165046
  0
ARC
  8
_0-0_FRF74-1516
  6
CONTINUOUS
 62
    7
 10
840.24940444103424
 20
663.76618070346649
 40
16.884397693363393
 50
277.58391108165188
 51
278.86058173280151
  0
LINE
  8
_0-0_FRF74-1516
  6
CONTINUOUS
 62
    7
 10
842.8501192693542
 20
647.08328024073478
 11
842.9687868432344
 21
647.10177945313012
  0
ARC
  8
_0-0_FRF74-1516
  6
CONTINUOUS
 62
    7
 10
839.96834725483882
 20
666.34880894385878
 40
19.479496449872318
 50
278.86058173280037
 51
280.67358051738768
  0
LINE
  8
_0-0_FRF74-1516
  6
CONTINUOUS
 62
    7
 10
843.57621308871387
 20
647.20634081497462
 11
843.62799501279414
 21
647.21610038377446
  0
ARC
  8
_0-0_FRF74-1516
  6
CONTINUOUS
 62
    7
 10
839.60445863226835
 20
668.56401643055563
 40
21.72377417820924
 50
280.67358051738859
 51
282.06689250194842
  0
LINE
  8
_0-0_FRF74-1516
  6
CONTINUOUS
 62
    7
 10
844.14589032461492
 20
647.32024645605293
 11
844.18903001228819
 21
647.32946873369156
  0
ARC
  8
_0-0_FRF74-1516
  6
CONTINUOUS
 62
    7
 10
840.26761156832765
 20
665.67295973844625
 40
18.757963238426125
 50
282.06689250194847
 51
283.41102503982836
  0
LINE
  8
_0-0_FRF74-1516
  6
CONTINUOUS
 62
    7
 10
844.61824134571032
 20
647.42650240025864
 11
844.66600449502778
 21
647.4378909002744
  0
ARC
  8
_0-0_FRF74-1516
  6
CONTINUOUS
 62
    7
 10
840.41174763135609
 20
665.28016209794328
 40
18.342446482224336
 50
283.41102503982216
 51
284.47888105343719
  0
ARC
  8
_0-0_FRF74-1516
  6
CONTINUOUS
 62
    7
 10
839.70959108799832
 20
667.99933431532475
 40
21.150812797212343
 50
284.4788810534389
 51
285.40495574084093
  0
LINE
  8
_0-0_FRF74-1516
  6
CONTINUOUS
 62
    7
 10
845.32808252886684
 20
647.60841879120937
 11
845.35436232654467
 21
647.61565989905205
  0
ARC
  8
_0-0_FRF74-1516
  6
CONTINUOUS
 62
    7
 10
841.46651986513223
 20
661.72561593192086
 40
14.635784169433897
 50
285.40495574084542
 51
286.95662794567181
  0
LINE
  8
_0-0_FRF74-1516
  6
CONTINUOUS
 62
    7
 10
845.73501283912867
 20
647.72611072690756
 11
845.81320128895743
 21
647.74995063009374
  0
ARC
  8
_0-0_FRF74-1516
  6
CONTINUOUS
 62
    7
 10
841.7320387280048
 20
661.13506262690703
 40
13.993466726160408
 50
286.95662794567443
 51
288.57590665683074
  0
LINE
  8
_0-0_FRF74-1516
  6
CONTINUOUS
 62
    7
 10
846.18980779802587
 20
647.87062121633414
 11
846.19323333664806
 21
647.87177243406325
  0
ARC
  8
_0-0_FRF74-1516
  6
CONTINUOUS
 62
    7
 10
840.05799086179923
 20
666.12766749480102
 40
19.259255039950567
 50
288.57590665682676
 51
289.73098589288895
  0
ARC
  8
_0-0_FRF74-1516
  6
CONTINUOUS
 62
    7
 10
842.28867038590806
 20
659.90822148915936
 40
12.651877363718492
 50
289.7309858928877
 51
291.48922086518036
  0
LINE
  8
_0-0_FRF74-1516
  6
CONTINUOUS
 62
    7
 10
846.92338428388723
 20
648.13582037849164
 11
846.95761401518769
 21
648.14929638987553
  0
ARC
  8
_0-0_FRF74-1516
  6
CONTINUOUS
 62
    7
 10
841.8960284768275
 20
661.00597244910989
 40
13.817154824862744
 50
291.48922086517445
 51
293.34117079520371
  0
LINE
  8
_0-0_FRF74-1516
  6
CONTINUOUS
 62
    7
 10
847.37045934289688
 20
648.31958706371131
 11
847.37472506770564
 21
648.32142780990102
  0
ARC
  8
_0-0_FRF74-1516
  6
CONTINUOUS
 62
    7
 10
842.20812696078588
 20
660.29444497267366
 40
13.040202298218965
 50
293.34117079520115
 51
295.26262664297724
  0
LINE
  8
_0-0_FRF74-1516
  6
CONTINUOUS
 62
    7
 10
847.77326866974431
 20
648.50139304631944
 11
847.77758557590721
 21
648.50343019452259
  0
ARC
  8
_0-0_FRF74-1516
  6
CONTINUOUS
 62
    7
 10
842.53640182463459
 20
659.60998513360664
 40
12.281106209519445
 50
295.26262664297286
 51
297.2582977103126
  0
LINE
  8
_0-0_FRF74-1516
  6
CONTINUOUS
 62
    7
 10
848.16118113486505
 20
648.69268567629115
 11
848.21115294236779
 21
648.71843200577814
  0
ARC
  8
_0-0_FRF74-1516
  6
CONTINUOUS
 62
    7
 10
844.27681466809099
 20
656.35470477981255
 40
8.5902083522984221
 50
297.25829771030845
 51
299.36160004767919
  0
LINE
  8
_0-0_FRF74-1516
  6
CONTINUOUS
 62
    7
 10
848.4887634887059
 20
648.86797206998381
 11
848.49187149471732
 21
648.86972059804839
  0
ARC
  8
_0-0_FRF74-1516
  6
CONTINUOUS
 62
    7
 10
840.5816643946398
 20
662.93010185145113
 40
16.132752318099939
 50
299.36160004768089
 51
300.45630802335228
  0
LINE
  8
_0-0_FRF74-1516
  6
CONTINUOUS
 62
    7
 10
848.75905266650739
 20
649.02341215158799
 11
848.76060489844826
 21
649.02432489240141
  0
ARC
  8
_0-0_FRF74-1516
  6
CONTINUOUS
 62
    7
 10
844.95520323248002
 20
655.49589483533975
 40
7.5074828914688618
 50
300.45630802335694
 51
302.78098203161937
  0
LINE
  8
_0-0_FRF74-1516
  6
CONTINUOUS
 62
    7
 10
849.01997349620876
 20
649.18400588916813
 11
849.06424022589113
 21
649.21251305841963
  0
ARC
  8
_0-0_FRF74-1516
  6
CONTINUOUS
 62
    7
 10
844.02828849813511
 20
657.03247974325961
 40
9.301219745619143
 50
302.78098203161142
 51
304.00888193032694
  0
ARC
  8
_0-0_FRF74-1516
  6
CONTINUOUS
 62
    7
 10
844.13968998708265
 20
656.86737545834592
 40
9.1020471655872299
 50
304.00888193032654
 51
305.26364882360031
  0
LINE
  8
_0-0_FRF74-1516
  6
CONTINUOUS
 62
    7
 10
849.39466327161495
 20
649.43551711850751
 11
849.43283969075196
 21
649.46251118291116
  0
ARC
  8
_0-0_FRF74-1516
  6
CONTINUOUS
 62
    7
 10
845.72177369849362
 20
654.71089499970913
 40
6.427872391960169
 50
305.26364882361054
 51
307.87358538837873
  0
LINE
  8
_0-0_FRF74-1516
  6
CONTINUOUS
 62
    7
 10
849.66798179340617
 20
649.63694336819253
 11
849.74343105410037
 21
649.69562317141674
  0
ARC
  8
_0-0_FRF74-1516
  6
CONTINUOUS
 62
    7
 10
846.11683619773225
 20
654.35862280188189
 40
5.9072629707804865
 50
307.8735853883835
 51
310.61102524279642
  0
LINE
  8
_0-0_FRF74-1516
  6
CONTINUOUS
 62
    7
 10
849.96199363811456
 20
649.87414735155039
 11
849.96400347181066
 21
649.87587065833975
  0
ARC
  8
_0-0_FRF74-1516
  6
CONTINUOUS
 62
    7
 10
842.61152302422374
 20
658.45081682828641
 40
11.29551550614805
 50
310.6110252427942
 51
312.01597911880856
  0
LINE
  8
_0-0_FRF74-1516
  6
CONTINUOUS
 62
    7
 10
850.17203891473366
 20
650.05872114133331
 11
850.17276389764254
 21
650.05937428507798
  0
ARC
  8
_0-0_FRF74-1516
  6
CONTINUOUS
 62
    7
 10
846.58515833554191
 20
654.04157994408547
 40
5.359932423067157
 50
312.01597911879833
 51
314.9554187674072
  0
LINE
  8
_0-0_FRF74-1516
  6
CONTINUOUS
 62
    7
 10
850.37225275850619
 20
650.24858753552462
 11
850.37392210234145
 21
650.25025428358208
  0
ARC
  8
_0-0_FRF74-1516
  6
CONTINUOUS
 62
    7
 10
843.17005932144605
 20
657.46533629330645
 40
10.195736725368061
 50
314.95541876739924
 51
316.47442902891009
  0
LINE
  8
_0-0_FRF74-1516
  6
CONTINUOUS
 62
    7
 10
850.56265245647967
 20
650.44375426979695
 11
850.56364196653635
 21
650.44479606425682
  0
ARC
  8
_0-0_FRF74-1516
  6
CONTINUOUS
 62
    7
 10
847.03441082921108
 20
653.79690613686716
 40
4.8674546078583845
 50
316.47442902890708
 51
319.62183061193787
  0
LINE
  8
_0-0_FRF74-1516
  6
CONTINUOUS
 62
    7
 10
850.74236569334334
 20
650.64362449941075
 11
850.77212989251973
 21
650.67862432492655
  0
ARC
  8
_0-0_FRF74-1516
  6
CONTINUOUS
 62
    7
 10
846.05598996228514
 20
654.68927655414745
 40
6.1909051959554118
 50
319.62183061193923
 51
321.24649839165033
  0
ARC
  8
_0-0_FRF74-1516
  6
CONTINUOUS
 62
    7
 10
846.11244831360659
 20
654.64395826335146
 40
6.1185084217551342
 50
321.246498391648
 51
322.89038730434424
  0
LINE
  8
_0-0_FRF74-1516
  6
CONTINUOUS
 62
    7
 10
850.99185302443061
 20
650.95240642502154
 11
851.02379833811051
 21
650.99463097471903
  0
ARC
  8
_0-0_FRF74-1516
  6
CONTINUOUS
 62
    7
 10
847.64994460128594
 20
653.54714643563295
 40
4.2306292931064249
 50
322.89038730433623
 51
326.70074408469753
  0
LINE
  8
_0-0_FRF74-1516
  6
CONTINUOUS
 62
    7
 10
851.18596587181526
 20
651.22448034037643
 11
851.24492928113523
 21
651.31424609274347
  0
ARC
  8
_0-0_FRF74-1516
  6
CONTINUOUS
 62
    7
 10
847.90680206305899
 20
653.50692377138125
 40
3.9938613804759311
 50
326.70074408470106
 51
330.36496217639097
  0
LINE
  8
_0-0_FRF74-1516
  6
CONTINUOUS
 62
    7
 10
851.37823725554347
 20
651.53206518635864
 11
851.40205093100053
 21
651.57392521201859
  0
ARC
  8
_0-0_FRF74-1516
  6
CONTINUOUS
 62
    7
 10
846.54825990830295
 20
654.33518974371214
 40
5.5842518841835593
 50
330.36496217638944
 51
331.99813722975529
  0
ARC
  8
_0-0_FRF74-1516
  6
CONTINUOUS
 62
    7
 10
847.74270325275165
 20
653.70004313920936
 40
4.2314377386671316
 50
331.9981372297396
 51
334.15333920607372
  0
LINE
  8
_0-0_FRF74-1516
  6
CONTINUOUS
 62
    7
 10
851.55084500186501
 20
651.85528793732578
 11
851.55586187255619
 21
651.86564430044086
  0
ARC
  8
_0-0_FRF74-1516
  6
CONTINUOUS
 62
    7
 10
848.25373766883786
 20
653.4652724664594
 40
3.6691735481307539
 50
334.15333920608043
 51
336.99790344980471
  0
LINE
  8
_0-0_FRF74-1516
  6
CONTINUOUS
 62
    7
 10
851.63117726571659
 20
652.03148855814595
 11
851.63871044699431
 21
652.04923381570552
  0
ARC
  8
_0-0_FRF74-1516
  6
CONTINUOUS
 62
    7
 10
848.79916842578893
 20
653.25467052010902
 40
3.0848138580008273
 50
336.9979034498096
 51
340.40742920206884
  0
LINE
  8
_0-0_FRF74-1516
  6
CONTINUOUS
 62
    7
 10
851.70537446382832
 20
652.22024169076542
 11
851.70998458963277
 21
652.23319374224434
  0
ARC
  8
_0-0_FRF74-1516
  6
CONTINUOUS
 62
    7
 10
848.10630732434254
 20
653.51587900477352
 40
3.8251498421734413
 50
340.40742920206804
 51
342.74569184595862
  0
ARC
  8
_0-0_FRF74-1516
  6
CONTINUOUS
 62
    7
 10
847.74465803323562
 20
653.62820390997786
 40
4.2038411334481181
 50
342.74569184596157
 51
344.87336943134221
  0
LINE
  8
_0-0_FRF74-1516
  6
CONTINUOUS
 62
    7
 10
851.80284215192682
 20
652.5311980147917
 11
851.80428323073704
 21
652.53652903732063
  0
ARC
  8
_0-0_FRF74-1516
  6
CONTINUOUS
 62
    7
 10
847.57667315076401
 20
653.67933405666815
 40
4.3793481593195906
 50
344.8733694313475
 51
347.06024741583138
  0
LINE
  8
_0-0_FRF74-1516
  6
CONTINUOUS
 62
    7
 10
851.84481243042956
 20
652.69868254368726
 11
851.84675211776505
 21
652.70712474318168
  0
ARC
  8
_0-0_FRF74-1516
  6
CONTINUOUS
 62
    7
 10
846.87609689805447
 20
653.84918694929161
 40
5.100168565435947
 50
347.06024741582212
 51
349.13267332763053
  0
LINE
  8
_0-0_FRF74-1516
  6
CONTINUOUS
 62
    7
 10
851.88480100938273
 20
652.88762440789105
 11
851.88722303833765
 21
652.90024056738389
  0
ARC
  8
_0-0_FRF74-1516
  6
CONTINUOUS
 62
    7
 10
846.48958434453903
 20
653.93647011191388
 40
5.4962055217894665
 50
349.13267332763837
 51
350.91456084339546
  0
ARC
  8
_0-0_FRF74-1516
  6
CONTINUOUS
 62
    7
 10
844.02386661851153
 20
654.33077142856666
 40
7.9932512628123682
 50
350.91456084338961
 51
352.13984900767542
  0
LINE
  8
_0-0_FRF74-1516
  6
CONTINUOUS
 62
    7
 10
851.94201981378149
 20
653.23764941950844
 11
851.94329172377024
 21
653.24686264370303
  0
ARC
  8
_0-0_FRF74-1516
  6
CONTINUOUS
 62
    7
 10
844.10542853630545
 20
654.32890040464474
 40
7.9121997612243922
 50
352.1398490076769
 51
353.51237008497196
  0
LINE
  8
_0-0_FRF74-1516
  6
CONTINUOUS
 62
    7
 10
851.96696072987868
 20
653.43491123752301
 11
851.96951945032924
 21
653.45741202828856
  0
ARC
  8
_0-0_FRF74-1516
  6
CONTINUOUS
 62
    7
 10
836.25118015368446
 20
655.24485303982874
 40
15.819643978743082
 50
353.51237008497594
 51
354.31498920102661
  0
LINE
  8
_0-0_FRF74-1516
  6
CONTINUOUS
 62
    7
 10
851.99301551472604
 20
653.67776814103001
 11
851.99336059444386
 21
653.68123456975286
  0
ARC
  8
_0-0_FRF74-1516
  6
CONTINUOUS
 62
    7
 10
802.03344414358628
 20
658.65469724546222
 40
50.206857925619516
 50
354.31498920103257
 51
354.5599388198147
  0
LINE
  8
_0-0_FRF74-1516
  6
CONTINUOUS
 62
    7
 10
852.01416640312061
 20
653.89486687257761
 11
852.01484683586568
 21
653.90199129015093
  0
ARC
  8
_0-0_FRF74-1516
  6
CONTINUOUS
 62
    7
 10
934.35398033021568
 20
840.76691448419456
 40
89.949999907881732
 50
331.01262528992743
 51
36.511564859548152
  0
ARC
  8
_0-0_FRF74-1516
  6
CONTINUOUS
 62
    7
 10
934.35398028446878
 20
840.7669145167049
 40
88.749999943877867
 50
331.01262528593486
 51
35.027414112039317
  0
LINE
  8
_0-0_FRF74-1516
  6
CONTINUOUS
 62
    7
 10
1006.6966754718147
 20
789.35585929500451
 11
1007.6748296020947
 21
788.66072012531151
  0
LINE
  8
_0-0_FRF74-1516
  6
CONTINUOUS
 62
    7
 10
1013.0356303750001
 20
797.17562361108651
 11
1013.0325155972245
 21
797.1700610506316
  0
ARC
  8
_0-0_FRF74-1516
  6
CONTINUOUS
 62
    7
 10
538.58522307128317
 20
1062.8387031253928
 40
543.76471085115816
 50
330.71232636330745
 51
330.75318167992754
  0
ARC
  8
_0-0_FRF74-1516
  6
CONTINUOUS
 62
    7
 10
864.88629288672098
 20
879.81937738128477
 40
169.64111929547036
 50
330.58136948923186
 51
330.71232636331564
  0
LINE
  8
_0-0_FRF74-1516
  6
CONTINUOUS
 62
    7
 10
1012.6528923258165
 20
796.49386240522301
 11
1012.649991306583
 21
796.48871783759375
  0
ARC
  8
_0-0_FRF74-1516
  6
CONTINUOUS
 62
    7
 10
922.41789367263016
 20
847.37055467528114
 40
103.58953983583601
 50
330.36037762260258
 51
330.58136948923004
  0
LINE
  8
_0-0_FRF74-1516
  6
CONTINUOUS
 62
    7
 10
1012.4530675541969
 20
796.14106875636628
 11
1012.4352679008965
 21
796.10978609070651
  0
ARC
  8
_0-0_FRF74-1516
  6
CONTINUOUS
 62
    7
 10
958.10562829468699
 20
827.02303240538913
 40
62.508707693031482
 50
329.92817000896491
 51
330.36037762260162
  0
LINE
  8
_0-0_FRF74-1516
  6
CONTINUOUS
 62
    7
 10
1012.2005319429251
 20
795.70083681279539
 11
1012.160485629228
 21
795.63167494722609
  0
ARC
  8
_0-0_FRF74-1516
  6
CONTINUOUS
 62
    7
 10
950.21427243167261
 20
831.49995966792972
 40
71.581192909328138
 50
329.42280411959797
 51
329.92817000896872
  0
LINE
  8
_0-0_FRF74-1516
  6
CONTINUOUS
 62
    7
 10
1011.841711126486
 20
795.08669315365682
 11
1011.8022119654986
 21
795.0198430093202
  0
ARC
  8
_0-0_FRF74-1516
  6
CONTINUOUS
 62
    7
 10
935.44031066995115
 20
840.13913276563903
 40
88.69549186731858
 50
328.91463427960952
 51
329.42280411960081
  0
LINE
  8
_0-0_FRF74-1516
  6
CONTINUOUS
 62
    7
 10
1011.3990401215741
 20
794.34435470437177
 11
1011.3589397357667
 21
794.27784113043595
  0
ARC
  8
_0-0_FRF74-1516
  6
CONTINUOUS
 62
    7
 10
941.72232492022363
 20
836.26107786225805
 40
81.313284827563905
 50
328.25088050947687
 51
328.91463427960826
  0
LINE
  8
_0-0_FRF74-1516
  6
CONTINUOUS
 62
    7
 10
1010.8679151466582
 20
793.47395781794421
 11
1010.7636391697042
 21
793.30544392952515
  0
ARC
  8
_0-0_FRF74-1516
  6
CONTINUOUS
 62
    7
 10
948.51995283882309
 20
831.82168293071834
 40
73.196838421165111
 50
327.20331061056652
 51
328.25088050947784
  0
LINE
  8
_0-0_FRF74-1516
  6
CONTINUOUS
 62
    7
 10
1010.049061689984
 20
792.17390974184741
 11
1009.9898407304631
 21
792.08200513859833
  0
ARC
  8
_0-0_FRF74-1516
  6
CONTINUOUS
 62
    7
 10
929.23685505802518
 20
844.11714947995006
 40
96.066127962140143
 50
326.35957712967314
 51
327.20331061056709
  0
LINE
  8
_0-0_FRF74-1516
  6
CONTINUOUS
 62
    7
 10
1009.2148470719103
 20
790.89852740961464
 11
1009.1925072291142
 21
790.86495465445432
  0
ARC
  8
_0-0_FRF74-1516
  6
CONTINUOUS
 62
    7
 10
942.89545923043568
 20
834.98005998503322
 40
79.633165776999974
 50
325.39976536568861
 51
326.35957712967178
  0
LINE
  8
_0-0_FRF74-1516
  6
CONTINUOUS
 62
    7
 10
1008.444228943475
 20
789.76059646793578
 11
1008.2437599462551
 21
789.47000265917904
  0
ARC
  8
_0-0_FRF74-1516
  6
CONTINUOUS
 62
    7
 10
968.13060663407771
 20
817.14245602019025
 40
48.732224899583493
 50
324.66145531613716
 51
325.39976536568849
  0
LINE
  8
_0-0_FRF74-1516
  6
CONTINUOUS
 62
    7
 10
1007.8838539078808
 20
788.95541866520296
 11
1007.7290768603109
 21
788.73713072784835
  0
ARC
  8
_0-0_FRF74-1516
  6
CONTINUOUS
 62
    7
 10
943.51928799264556
 20
834.26507728536308
 40
78.712711198218088
 50
324.59391619763682
 51
324.6614553161275
  0
LINE
  8
_0-0_FRF74-1516
  6
CONTINUOUS
 62
    7
 10
1007.6753648298203
 20
788.66147316204183
 11
1007.6748296020947
 21
788.66072012531151
  0
LINE
  8
_0-0_FRF74-1516
  6
CONTINUOUS
 62
    7
 10
1007.0293597279511
 20
822.09801314818253
 11
1007.0293597279511
 21
808.09801085340371
  0
LINE
  8
_0-0_FRF74-1516
  6
CONTINUOUS
 62
    7
 10
1007.0293597279511
 20
808.09801085340371
 11
994.02935945973024
 21
808.09801085340371
  0
LINE
  8
_0-0_FRF74-1516
  6
CONTINUOUS
 62
    7
 10
994.02935945973024
 20
808.09801085340371
 11
994.02935945973024
 21
822.09801314818253
  0
LINE
  8
_0-0_FRF74-1516
  6
CONTINUOUS
 62
    7
 10
994.02935945973024
 20
892.09801344620564
 11
994.02935945973024
 21
822.09801314818253
  0
ARC
  8
_0-0_FRF74-1516
  6
CONTINUOUS
 62
    7
 10
1000.5293595541494
 20
892.09801305222345
 40
6.5
 50
0
 51
180
  0
LINE
  8
_0-0_FRF74-1516
  6
CONTINUOUS
 62
    7
 10
1007.0293597279511
 20
822.09801314818253
 11
1007.0293597279511
 21
892.09801344620564
  0
LINE
  8
_0-0_FRF74-1516
  6
CONTINUOUS
 62
    7
 10
1007.5293598099075
 20
902.59801237332204
 11
1007.5293598099075
 21
893.07871381240466
  0
LINE
  8
_0-0_FRF74-1516
  6
CONTINUOUS
 62
    7
 10
1007.5293598099075
 20
890.981074557179
 11
1007.5293598099075
 21
881.59801305298379
  0
ARC
  8
_0-0_FRF74-1516
  6
CONTINUOUS
 62
    7
 10
1007.0293595541494
 20
881.59801305222391
 40
0.5
 50
270
 51
0
  0
ARC
  8
_0-0_FRF74-1516
  6
CONTINUOUS
 62
    7
 10
1007.0293595541494
 20
902.59801305222391
 40
0.5
 50
0
 51
90
  0
LINE
  8
_0-0_FRF74-1516
  6
CONTINUOUS
 62
    7
 10
977.52936031654713
 20
903.098013386601
 11
977.52936031654713
 21
881.098013040149
  0
LINE
  8
_0-0_FRF74-1516
  6
CONTINUOUS
 62
    7
 10
1007.0293597279511
 20
903.098013386601
 11
977.52936031654713
 21
903.098013386601
  0
LINE
  8
_0-0_FRF74-1516
  6
CONTINUOUS
 62
    7
 10
994.02935945973024
 20
881.098013040149
 11
977.52936031654713
 21
881.098013040149
  0
LINE
  8
_0-0_FRF74-1516
  6
CONTINUOUS
 62
    7
 10
850.76484802795858
 20
663.62188555776959
 11
850.76484802795858
 21
682.5218848149467
  0
ARC
  8
_0-0_FRF74-1516
  6
CONTINUOUS
 62
    7
 10
798.26863586504385
 20
659.52197275311244
 40
11.268528189613427
 50
338.68204211430054
 51
21.336056219190795
  0
TEXT
  8
_0-2_FRF74-1516
 62
    7
 10
704.52645968509307
 20
506.99149662678974
 40
6
 41
1
 50
0
  1
ペーパーホルダー　-LANGBERGER,Lugano-
  0
TEXT
  8
_0-0_FRF74-1516
 62
    7
 10
704.88203268497148
 20
488.17744077615032
 40
6
 41
1
 50
0
  1
クローム
  0
ENDSEC
  0
EOF
