  0
SECTION
  2
HEADER
  9
$ACADVER
  1
AC1009
  9
$INSBASE
 10
0
 20
0
 30
0
  9
$EXTMIN
 10
0
 20
0
  9
$EXTMAX
 10
4205
 20
2970
  9
$LIMMIN
 10
0
 20
0
  9
$LIMMAX
 10
4205
 20
2970
  9
$LTSCALE
 40
5
  0
ENDSEC
  0
SECTION
  2
TABLES
  0
TABLE
  2
LTYPE
 70
     9
  0
LTYPE
  2
CONTINUOUS
 70
    64
  3
実線
 72
    65
 73
     0
 40
0.0
  0
LTYPE
  2
DASHED1
 70
    64
  3
--  --  --  --  --  --  --  --  
 72
    65
 73
     2
 40
2.5
 49
1.25
 49
-1.25
  0
LTYPE
  2
DASHED2
 70
    64
  3
----    ----    ----    ----    
 72
    65
 73
     2
 40
5.0
 49
2.5
 49
-2.5
  0
LTYPE
  2
DASHED3
 70
    64
  3
------  ------  ------  ------  
 72
    65
 73
     2
 40
5.0
 49
3.75
 49
-1.25
  0
LTYPE
  2
CENTER1
 70
    64
  3
----- - ----- - ----- - ----- - 
 72
    65
 73
     4
 40
10.0
 49
6.25
 49
-1.25
 49
1.25
 49
-1.25
  0
LTYPE
  2
CENTER2
 70
    64
  3
----------  --  ----------  --  
 72
    65
 73
     4
 40
20.0
 49
12.5
 49
-2.5
 49
2.5
 49
-2.5
  0
LTYPE
  2
PHANTOM1
 70
    64
  3
--- - - --- - - --- - - --- - - 
 72
    65
 73
     6
 40
10.0
 49
3.25
 49
-1.25
 49
1.25
 49
-1.25
 49
1.25
 49
-1.25
  0
LTYPE
  2
PHANTOM2
 70
    64
  3
--------  -  -  --------  -  -  
 72
    65
 73
     6
 40
20.0
 49
10.0
 49
-2.5
 49
1.25
 49
-2.5
 49
1.25
 49
-2.5
  0
LTYPE
  2
DOT
 70
    64
  3
-   -   -   -   -   -   -   -   
 72
    65
 73
     2
 40
2.5
 49
0.625
 49
-1.875
  0
LTYPE
  2
DUMMY
 70
    64
  3
ダミー
 72
    65
 73
     0
 40
0.0
  0
LTYPE
  2
RAND1
 70
    64
  3
ランダム線1
 72
    65
 73
     4
 40
10.0
 49
1.0
 49
-2.0
 49
3.0
 49
-4.0
  0
LTYPE
  2
RAND2
 70
    64
  3
ランダム線2
 72
    65
 73
     4
 40
14.0
 49
2.0
 49
-3.0
 49
4.0
 49
-5.0
  0
LTYPE
  2
RAND3
 70
    64
  3
ランダム線3
 72
    65
 73
     4
 40
18.0
 49
3.0
 49
-4.0
 49
5.0
 49
-6.0
  0
LTYPE
  2
RAND4
 70
    64
  3
ランダム線4
 72
    65
 73
     4
 40
22.0
 49
4.0
 49
-5.0
 49
6.0
 49
-7.0
  0
LTYPE
  2
RAND5
 70
    64
  3
ランダム線5
 72
    65
 73
     4
 40
26.0
 49
5.0
 49
-6.0
 49
7.0
 49
-8.0
  0
LTYPE
  2
LONG1
 70
    64
  3
----------  --  ----------  --  
 72
    65
 73
     4
 40
40.0
 49
32.5
 49
-2.5
 49
2.5
 49
-2.5
  0
LTYPE
  2
LONG2
 70
    64
  3
--------  -  -  --------  -  -  
 72
    65
 73
     6
 40
40.0
 49
30.0
 49
-2.5
 49
1.25
 49
-2.5
 49
1.25
 49
-2.5
  0
LTYPE
  2
LONG3
 70
    64
  3
+++++++++++++++..+++++++++++++++
 72
    65
 73
     2
 40
40.0
 49
37.5
 49
-2.5
  0
LTYPE
  2
LONG4
 70
    64
  3
+++++++++++++++..+++++++++++++++
 72
    65
 73
     2
 40
80.0
 49
75.0
 49
-5.0
  0
LTYPE
  2
LONG5
 70
    64
  3
----------  --  ----------  --  
 72
    65
 73
     4
 40
60.0
 49
37.5
 49
-7.5
 49
7.5
 49
-7.5
  0
LTYPE
  2
dashed
 70
   64
  3
-------   -------------   ------
 72
   65
 73
    2
 40
7.5
 49
6
 49
-1.5
  0
LTYPE
  2
dashed_spaced
 70
   64
  3
----        --------        ----
 72
   65
 73
    2
 40
12
 49
6
 49
-6
  0
LTYPE
  2
long_dashed_dotted
 70
   64
  3
------------- --- --------------
 72
   65
 73
    4
 40
15.25
 49
12
 49
-1.5
 49
0.25
 49
-1.5
  0
LTYPE
  2
long_dashed_double-dotted
 70
   64
  3
----------- --- --- ------------
 72
   65
 73
    6
 40
17
 49
12
 49
-1.5
 49
0.25
 49
-1.5
 49
0.25
 49
-1.5
  0
LTYPE
  2
long_dashed_triplicate-dotted
 70
   64
  3
--------- --- --- --- ----------
 72
   65
 73
    8
 40
18.75
 49
12
 49
-1.5
 49
0.25
 49
-1.5
 49
0.25
 49
-1.5
 49
0.25
 49
-1.5
  0
LTYPE
  2
dotted
 70
   64
  3
   -       -       -       -    
 72
   65
 73
    2
 40
1.75
 49
0.25
 49
-1.5
  0
LTYPE
  2
chain
 70
   64
  3
-------------- -- --------------
 72
   65
 73
    4
 40
18.5
 49
12
 49
-1.5
 49
3.5
 49
-1.5
  0
LTYPE
  2
chain_double_dash
 70
   64
  3
------------ -- -- -------------
 72
   65
 73
    6
 40
23.5
 49
12
 49
-1.5
 49
3.5
 49
-1.5
 49
3.5
 49
-1.5
  0
LTYPE
  2
dashed_dotted
 70
   64
  3
-----------     -     ----------
 72
   65
 73
    4
 40
9.25
 49
6
 49
-1.5
 49
0.25
 49
-1.5
  0
LTYPE
  2
double-dashed_dotted
 70
   64
  3
------   -----------   -   -----
 72
   65
 73
    6
 40
16.75
 49
6
 49
-1.5
 49
6
 49
-1.5
 49
0.25
 49
-1.5
  0
LTYPE
  2
dashed_double-dotted
 70
   64
  3
---------    -    -    ---------
 72
   65
 73
    6
 40
11
 49
6
 49
-1.5
 49
0.25
 49
-1.5
 49
0.25
 49
-1.5
  0
LTYPE
  2
double-dashed_double-dotted
 70
   64
  3
-----   ---------   -   -   ----
 72
   65
 73
    8
 40
18.5
 49
6
 49
-1.5
 49
6
 49
-1.5
 49
0.25
 49
-1.5
 49
0.25
 49
-1.5
  0
LTYPE
  2
dashed_triplicate-dotted
 70
   64
  3
-------    -    -    -    ------
 72
   65
 73
    8
 40
12.75
 49
6
 49
-1.5
 49
0.25
 49
-1.5
 49
0.25
 49
-1.5
 49
0.25
 49
-1.5
  0
LTYPE
  2
double-dashed_triplicate-dotted
 70
   64
  3
-----  ---------  -  -  -  -----
 72
   65
 73
   10
 40
20.25
 49
6
 49
-1.5
 49
6
 49
-1.5
 49
0.25
 49
-1.5
 49
0.25
 49
-1.5
 49
0.25
 49
-1.5
  0
LTYPE
  2
undefined
 70
   64
  3
--------------------------------
 72
   65
 73
    0
 40
0
  0
ENDTAB
  0
TABLE
  2
STYLE
  5
3
100
AcDbSymbolTable
 70
     1
  0
STYLE
  5
10
100
AcDbSymbolTableRecord
100
AcDbTextStyleTableRecord
  2
STANDARD
 70
     0
 40
0.0
 41
1.0
 50
0.0
 71
     0
 42
0.2
  3
txt
  4
bigfont.shx
  0
STYLE
  5
26
100
AcDbSymbolTableRecord
100
AcDbTextStyleTableRecord
  2
TATEGAKI
 70
    68
 40
0.0
 41
1.0
 50
0.0
 71
     0
 42
1.0
  3
txt
  4
bigfont.shx
  0
ENDTAB
  0
TABLE
  2
LAYER
 70
    4
  0
LAYER
  2
_0-0_
 70
   64
 62
    7
  6
CONTINUOUS
  0
LAYER
  2
_0-1_
 70
   64
 62
    7
  6
CONTINUOUS
  0
LAYER
  2
_0-2_
 70
   64
 62
    7
  6
CONTINUOUS
  0
LAYER
  2
ADD_LINE
 70
   64
 62
    7
  6
CONTINUOUS
  0
ENDTAB
  0
ENDSEC
  0
SECTION
  2
BLOCKS
  0
ENDSEC
  0
SECTION
  2
ENTITIES
  0
CIRCLE
  8
_0-0_
  6
CONTINUOUS
 62
    7
 10
1606.4530315804659
 20
1944.5409991387805
 40
5.5000000000001137
  0
LINE
  8
_0-0_
  6
CONTINUOUS
 62
    8
 10
1596.5878175690223
 20
1866.7733157344342
 11
1596.5642563488927
 21
1868.0222725187659
  0
LINE
  8
_0-0_
  6
CONTINUOUS
 62
    8
 10
1596.5642563488927
 20
1868.0222725187659
 11
1596.7827829898022
 21
1869.4091238118908
  0
LINE
  8
_0-0_
  6
CONTINUOUS
 62
    8
 10
1596.7827829898022
 20
1869.4091238118908
 11
1597.2538414043786
 21
1870.7547137731804
  0
LINE
  8
_0-0_
  6
CONTINUOUS
 62
    8
 10
1597.2538414043786
 20
1870.7547137731804
 11
1597.9652314271198
 21
1872.0241923294411
  0
LINE
  8
_0-0_
  6
CONTINUOUS
 62
    8
 10
1597.9652314271198
 20
1872.0241923294411
 11
1598.8985284301134
 21
1873.1846806528943
  0
LINE
  8
_0-0_
  6
CONTINUOUS
 62
    8
 10
1598.8985284301134
 20
1873.1846806528943
 11
1600.0295605112194
 21
1874.2061227055376
  0
LINE
  8
_0-0_
  6
CONTINUOUS
 62
    8
 10
1600.0295605112194
 20
1874.2061227055376
 11
1601.3290345336418
 21
1875.0620636747472
  0
LINE
  8
_0-0_
  6
CONTINUOUS
 62
    8
 10
1601.3290345336418
 20
1875.0620636747472
 11
1602.7632948027815
 21
1875.7303351390249
  0
LINE
  8
_0-0_
  6
CONTINUOUS
 62
    8
 10
1602.7632948027815
 20
1875.7303351390249
 11
1604.2951947310503
 21
1876.1936292184735
  0
LINE
  8
_0-0_
  6
CONTINUOUS
 62
    8
 10
1604.2951947310503
 20
1876.1936292184735
 11
1605.8850589149756
 21
1876.4399468397919
  0
LINE
  8
_0-0_
  6
CONTINUOUS
 62
    8
 10
1605.8850589149756
 20
1876.4399468397919
 11
1607.491710707312
 21
1876.462908505973
  0
LINE
  8
_0-0_
  6
CONTINUOUS
 62
    8
 10
1607.491710707312
 20
1876.462908505973
 11
1609.0735386705724
 21
1876.261919521924
  0
LINE
  8
_0-0_
  6
CONTINUOUS
 62
    8
 10
1609.0735386705724
 20
1876.261919521924
 11
1610.5895742914045
 21
1875.8421853967566
  0
LINE
  8
_0-0_
  6
CONTINUOUS
 62
    8
 10
1610.5895742914045
 20
1875.8421853967566
 11
1612.0005530435656
 21
1875.2145770238369
  0
LINE
  8
_0-0_
  6
CONTINUOUS
 62
    8
 10
1612.0005530435656
 20
1875.2145770238369
 11
1613.2699313185281
 21
1874.395349130356
  0
LINE
  8
_0-0_
  6
CONTINUOUS
 62
    8
 10
1613.2699313185281
 20
1874.395349130356
 11
1614.3648328857441
 21
1873.4057192884343
  0
LINE
  8
_0-0_
  6
CONTINUOUS
 62
    8
 10
1614.3648328857441
 20
1873.4057192884343
 11
1615.2569003697477
 21
1872.2713183911487
  0
LINE
  8
_0-0_
  6
CONTINUOUS
 62
    8
 10
1615.2569003697477
 20
1872.2713183911487
 11
1615.9230296912851
 21
1871.021526825866
  0
LINE
  8
_0-0_
  6
CONTINUOUS
 62
    8
 10
1615.9230296912851
 20
1871.021526825866
 11
1616.3459684508298
 21
1869.6887135376414
  0
LINE
  8
_0-0_
  6
CONTINUOUS
 62
    8
 10
1616.3459684508298
 20
1869.6887135376414
 11
1616.4749109915392
 21
1868.8943996757557
  0
LINE
  8
_0-2_
  6
CONTINUOUS
 62
    7
 10
2552.566283385414
 20
1056.1979530071658
 11
1577.5662833854144
 21
1056.1979530071658
  0
LINE
  8
_0-2_
  6
CONTINUOUS
 62
    7
 10
2552.5662833856559
 20
2371.1979530071658
 11
1577.5662833856554
 21
2371.1979530071658
  0
LINE
  8
_0-2_
  6
CONTINUOUS
 62
    7
 10
1577.5662833856554
 20
2371.1979530071658
 11
1577.5662833856554
 21
971.19795300716578
  0
LINE
  8
_0-2_
  6
CONTINUOUS
 62
    7
 10
1577.5662833856554
 20
971.19795300716578
 11
2552.5662833856559
 21
971.19795300716578
  0
LINE
  8
_0-2_
  6
CONTINUOUS
 62
    7
 10
2552.5662833856559
 20
971.19795300716578
 11
2552.5662833856559
 21
2371.1979530071658
  0
LINE
  8
_0-2_
  6
CONTINUOUS
 62
    7
 10
2552.566283385414
 20
1098.6979530071658
 11
1577.5662833854144
 21
1098.6979530071658
  0
LINE
  8
_0-2_
  6
CONTINUOUS
 62
    7
 10
2552.5662833856559
 20
1013.6979530071658
 11
2176.0662833856559
 21
1013.6979530071658
  0
LINE
  8
_0-2_
  6
CONTINUOUS
 62
    7
 10
2427.066283385785
 20
1013.6979530071658
 11
2427.066283385785
 21
1056.1979530071658
  0
LINE
  8
_0-2_
  6
CONTINUOUS
 62
    7
 10
2301.566283385785
 20
1013.6979530071658
 11
2301.566283385785
 21
1056.1979530071658
  0
LINE
  8
_0-2_
  6
CONTINUOUS
 62
    7
 10
2176.066283385785
 20
971.19795300716578
 11
2176.066283385785
 21
1098.6979530071658
  0
TEXT
  8
_0-2_
 62
    7
 10
2196.3388549397118
 20
983.13221232091132
 40
15
 41
1
 50
0
  1
大洋金物株式会社 ティーフォルム事業部
  0
TEXT
  8
_0-2_
 62
    7
 10
1582.8750828572131
 20
1080.7343511503877
 40
11
 41
1
 50
0
  1
品名
  0
TEXT
  8
_0-2_
 62
    7
 10
1584.6653190366922
 20
1037.1766457401898
 40
11
 41
1
 50
0
  1
仕様
  0
TEXT
  8
_0-2_
 62
    7
 10
2183.0590642652819
 20
1080.1315954814579
 40
11
 41
1
 50
0
  1
品番
  0
TEXT
  8
_0-2_
 62
    7
 10
2183.0568574992371
 20
1037.182349606808
 40
11
 41
1
 50
0
  1
重量
  0
TEXT
  8
_0-2_
 62
    7
 10
2308.1776163454042
 20
1037.5114084130682
 40
11
 41
1
 50
0
  1
容量
  0
TEXT
  8
_0-2_
 62
    7
 10
2433.6646030852935
 20
1037.4114153200876
 40
11
 41
1
 50
0
  1
縮尺
  0
TEXT
  8
_0-2_
 62
    7
 10
2211.5256034060785
 20
1065.334252852228
 40
15
 41
1
 50
0
  1
FRF74-1702
  0
TEXT
  8
_0-2_
 62
    7
 10
1578.1476923649509
 20
947.26970852156592
 40
15
 41
1
 50
0
  1
120910S
  0
LINE
  8
_0-1_
  6
CONTINUOUS
 62
    4
 10
2267.4530266849715
 20
1625.4541881460957
 11
2267.4530266849715
 21
1373.4541840929799
  0
POINT
  8
_0-1_
 62
    7
 10
2267.4530266849715
 20
1625.4541881460957
  0
POINT
  8
_0-1_
 62
    7
 10
2267.4530266849715
 20
1373.4541840929799
  0
LINE
  8
_0-1_
  6
CONTINUOUS
 62
    4
 10
2267.4530266849715
 20
1625.4541881460957
 11
2232.4530266849715
 21
1625.4541881460957
  0
LINE
  8
_0-1_
  6
CONTINUOUS
 62
    4
 10
2267.4530266849715
 20
1373.4541840929799
 11
2181.4530276386458
 21
1373.4541840929799
  0
TEXT
  8
_0-1_
 62
    4
 10
2264.9530266849715
 20
1490.0791861195378
 40
12.5
 41
1
 50
90
  1
252
  0
LINE
  8
_0-1_
  6
CONTINUOUS
 62
    4
 10
1595.4530178634841
 20
1675.4541881460957
 11
2217.4530266849715
 21
1675.4541881460957
  0
POINT
  8
_0-1_
 62
    7
 10
1595.4530178634841
 20
1675.4541881460957
  0
POINT
  8
_0-1_
 62
    7
 10
2217.4530266849715
 20
1675.4541881460957
  0
LINE
  8
_0-1_
  6
CONTINUOUS
 62
    4
 10
1595.4530178634841
 20
1675.4541881460957
 11
1595.4530178634841
 21
1640.4541881460957
  0
LINE
  8
_0-1_
  6
CONTINUOUS
 62
    4
 10
2217.4530266849715
 20
1675.4541881460957
 11
2217.4530266849715
 21
1640.4541881460957
  0
TEXT
  8
_0-1_
 62
    4
 10
1897.0780222742278
 20
1677.9541881460957
 40
12.5
 41
1
 50
0
  1
622
  0
LINE
  8
_0-1_
  6
CONTINUOUS
 62
    4
 10
1606.4530315804659
 20
1786.7434759084688
 11
2206.4530315804659
 21
1786.7434759084688
  0
POINT
  8
_0-1_
 62
    7
 10
1606.4530315804659
 20
1786.7434759084688
  0
POINT
  8
_0-1_
 62
    7
 10
2206.4530315804659
 20
1786.7434759084688
  0
LINE
  8
_0-1_
  6
CONTINUOUS
 62
    4
 10
1606.4530315804659
 20
1786.7434759084688
 11
1606.4530315804659
 21
1824.1497340543285
  0
LINE
  8
_0-1_
  6
CONTINUOUS
 62
    4
 10
2206.4530315804659
 20
1786.7434759084688
 11
2206.4530315804659
 21
1824.1497340543285
  0
LINE
  8
_0-1_
  6
CONTINUOUS
 62
    4
 10
2281.3155753524661
 20
1786.7434759084688
 11
2382.3155753524638
 21
1786.7434759084688
  0
POINT
  8
_0-1_
 62
    7
 10
2281.3155753524661
 20
1786.7434759084688
  0
POINT
  8
_0-1_
 62
    7
 10
2382.3155753524638
 20
1786.7434759084688
  0
LINE
  8
_0-1_
  6
CONTINUOUS
 62
    4
 10
2281.3155753524661
 20
1786.7434759084688
 11
2281.3155753524661
 21
1842.0409991387805
  0
LINE
  8
_0-1_
  6
CONTINUOUS
 62
    4
 10
2382.3155753524638
 20
1786.7434759084688
 11
2382.3155753524638
 21
1826.7427050609531
  0
TEXT
  8
_0-1_
 62
    4
 10
1897.0780315804657
 20
1789.2434759084688
 40
12.5
 41
1
 50
0
  1
600
  0
TEXT
  8
_0-1_
 62
    4
 10
2322.4405753524652
 20
1789.2434759084688
 40
12.5
 41
1
 50
0
  1
101
  0
LINE
  8
_0-1_
  6
CONTINUOUS
 62
    4
 10
2257.6941360149885
 20
1836.7427050609531
 11
2257.6941360149885
 21
1982.0409991387805
  0
TEXT
  8
_0-1_
 62
    4
 10
2255.1941360149885
 20
1893.7668520998668
 40
12.5
 41
1
 50
90
  1
145.3
  0
POINT
  8
_0-1_
 62
    7
 10
2257.6941360149885
 20
1836.7427050609531
  0
POINT
  8
_0-1_
 62
    7
 10
2257.6941360149885
 20
1982.0409991387805
  0
LINE
  8
_0-1_
  6
CONTINUOUS
 62
    4
 10
2257.6941360149885
 20
1836.7427050609531
 11
2177.6941360149881
 21
1836.7427050609531
  0
LINE
  8
_0-1_
  6
CONTINUOUS
 62
    4
 10
2257.6941360149885
 20
1982.0409991387805
 11
2216.6941360149885
 21
1982.0409991387805
  0
LINE
  8
_0-0_
  6
CONTINUOUS
 62
    7
 10
1596.5876881009153
 20
1866.7745777294067
 11
1596.600237455624
 21
1866.6900297631373
  0
ARC
  8
_0-0_
  6
CONTINUOUS
 62
    7
 10
1714.812713111794
 20
1884.2361678132127
 40
119.50755775779584
 50
188.44270421818112
 51
188.68838848600419
  0
LINE
  8
_0-0_
  6
CONTINUOUS
 62
    7
 10
1596.6765618354948
 20
1866.1832976021858
 11
1596.6857953353531
 21
1866.1228745158107
  0
ARC
  8
_0-0_
  6
CONTINUOUS
 62
    7
 10
1655.7476086003226
 20
1875.1483526423835
 40
59.747443807742769
 50
188.68838848601496
 51
189.06257584766465
  0
ARC
  8
_0-0_
  6
CONTINUOUS
 62
    7
 10
1641.8206098859237
 20
1872.926938043124
 40
45.644395342510997
 50
189.06257584768065
 51
189.55237709282349
  0
LINE
  8
_0-0_
  6
CONTINUOUS
 62
    7
 10
1596.8091055460191
 20
1865.352289322411
 11
1596.8252441326033
 21
1865.25638757345
  0
ARC
  8
_0-0_
  6
CONTINUOUS
 62
    7
 10
1617.8520478611424
 20
1868.7948307847732
 40
21.322454253632884
 50
189.55237709281951
 51
191.12282083273072
  0
LINE
  8
_0-0_
  6
CONTINUOUS
 62
    7
 10
1596.9301166156729
 20
1864.6814564572769
 11
1596.9307705961751
 21
1864.6781302921045
  0
ARC
  8
_0-0_
  6
CONTINUOUS
 62
    7
 10
1627.3671938671446
 20
1870.6624474719097
 40
31.019153980051136
 50
191.12343333061904
 51
192.19004383772577
  0
ARC
  8
_0-0_
  6
CONTINUOUS
 62
    7
 10
1611.5898188091383
 20
1867.2541278912836
 40
14.877834142916077
 50
192.19004383771721
 51
194.4136308162422
  0
LINE
  8
_0-0_
  6
CONTINUOUS
 62
    7
 10
1597.1802798238646
 20
1863.5507328251319
 11
1597.2036330089256
 21
1863.4598679229116
  0
ARC
  8
_0-0_
  6
CONTINUOUS
 62
    7
 10
1618.3201877430258
 20
1868.8870328514029
 40
21.802820987186688
 50
194.41363081628035
 51
196.42403831580606
  0
LINE
  8
_0-0_
  6
CONTINUOUS
 62
    7
 10
1597.4070213953137
 20
1862.7224179962625
 11
1597.4071406056473
 21
1862.7220135808043
  0
ARC
  8
_0-0_
  6
CONTINUOUS
 62
    7
 10
1620.9211860112896
 20
1869.6532946313007
 40
24.514342502697669
 50
196.42403831577485
 51
198.2140841589717
  0
LINE
  8
_0-0_
  6
CONTINUOUS
 62
    7
 10
1597.6351286034458
 20
1861.9908851709424
 11
1597.6796203841693
 21
1861.8556746780209
  0
ARC
  8
_0-0_
  6
CONTINUOUS
 62
    7
 10
1618.2435696064449
 20
1868.6223589776944
 40
21.64864947353005
 50
198.21408415895627
 51
200.81054268228428
  0
ARC
  8
_0-0_
  6
CONTINUOUS
 62
    7
 10
1632.9928486358222
 20
1874.2281902610919
 40
37.427324204455445
 50
200.81054268230275
 51
202.31255286765938
  0
LINE
  8
_0-0_
  6
CONTINUOUS
 62
    7
 10
1598.3678368861711
 20
1860.0185752613124
 11
1598.3760877376021
 21
1859.9984701544715
  0
ARC
  8
_0-0_
  6
CONTINUOUS
 62
    7
 10
1615.6522564733234
 20
1867.0883654065055
 40
18.674384082746492
 50
202.31255286762953
 51
205.45563129100259
  0
LINE
  8
_0-0_
  6
CONTINUOUS
 62
    7
 10
1598.7908116089325
 20
1859.0618905915551
 11
1598.8475323857524
 21
1858.9427356358538
  0
ARC
  8
_0-0_
  6
CONTINUOUS
 62
    7
 10
1622.7090885089597
 20
1870.3014407058386
 40
26.427145920206474
 50
205.45563129099901
 51
208.24887267687708
  0
LINE
  8
_0-0_
  6
CONTINUOUS
 62
    7
 10
1599.4294143243972
 20
1857.7934108310546
 11
1599.4588875530198
 21
1857.7385558965545
  0
ARC
  8
_0-0_
  6
CONTINUOUS
 62
    7
 10
1620.1786417757371
 20
1868.8711560679026
 40
23.521118205240544
 50
208.24887267688368
 51
211.69018283525614
  0
LINE
  8
_0-0_
  6
CONTINUOUS
 62
    7
 10
1600.1644956638572
 20
1856.5149043289152
 11
1600.1822943173788
 21
1856.4860748052295
  0
ARC
  8
_0-0_
  6
CONTINUOUS
 62
    7
 10
1625.9086799519457
 20
1872.3689256377365
 40
30.234282997718566
 50
211.69018283525725
 51
214.49604870838519
  0
LINE
  8
_0-0_
  6
CONTINUOUS
 62
    7
 10
1600.9906346141952
 20
1855.2457575625253
 11
1601.009903270925
 21
1855.2177173505811
  0
ARC
  8
_0-0_
  6
CONTINUOUS
 62
    7
 10
1622.0640560129195
 20
1869.685697932362
 40
25.546033151901106
 50
214.49604870839755
 51
217.72806401366131
  0
LINE
  8
_0-0_
  6
CONTINUOUS
 62
    7
 10
1601.8590876806707
 20
1854.0537094315073
 11
1601.9613812694854
 21
1853.9214908898623
  0
ARC
  8
_0-0_
  6
CONTINUOUS
 62
    7
 10
1623.2503041421314
 20
1870.3921030713987
 40
26.916524714606656
 50
217.72806401365423
 51
220.08430765154736
  0
ARC
  8
_0-0_
  6
CONTINUOUS
 62
    7
 10
1630.3412080199803
 20
1876.3598801497265
 40
36.184495423532667
 50
220.08430765153901
 51
221.83715460544687
  0
LINE
  8
_0-0_
  6
CONTINUOUS
 62
    7
 10
1603.3821806873452
 20
1852.2242518311209
 11
1603.4601660600651
 21
1852.1371436868058
  0
ARC
  8
_0-0_
  6
CONTINUOUS
 62
    7
 10
1622.6260120882248
 20
1869.2957648210111
 40
25.724461767009181
 50
221.83715460545224
 51
224.82307223269345
  0
LINE
  8
_0-0_
  6
CONTINUOUS
 62
    7
 10
1604.3799875143338
 20
1851.1620801305985
 11
1604.5425866902347
 21
1850.9984736374988
  0
ARC
  8
_0-0_
  6
CONTINUOUS
 62
    7
 10
1627.7213216423647
 20
1874.0344982489091
 40
32.678925684278532
 50
224.823072232692
 51
227.09955621863867
  0
ARC
  8
_0-0_
  6
CONTINUOUS
 62
    7
 10
1631.6760640179575
 20
1878.2902417966766
 40
38.488516065852103
 50
227.09955621863355
 51
229.03249076788575
  0
LINE
  8
_0-0_
  6
CONTINUOUS
 62
    7
 10
1606.441801676915
 20
1849.2282757060141
 11
1606.4957613874865
 21
1849.1814229401634
  0
ARC
  8
_0-0_
  6
CONTINUOUS
 62
    7
 10
1627.9658649381893
 20
1873.9082571515492
 40
32.747239220967174
 50
229.03249076788708
 51
231.55418305282424
  0
LINE
  8
_0-0_
  6
CONTINUOUS
 62
    7
 10
1607.6044742672484
 20
1848.2607339467527
 11
1607.6602696370537
 21
1848.2164383899003
  0
ARC
  8
_0-0_
  6
CONTINUOUS
 62
    7
 10
1633.756989194585
 20
1881.0882707336536
 40
41.971372783127585
 50
231.55418305282308
 51
233.59034810143908
  0
ARC
  8
_0-0_
  6
CONTINUOUS
 62
    7
 10
1632.2486901652073
 20
1879.0431850639243
 40
39.43024284576606
 50
233.59034810144072
 51
235.75770593626231
  0
LINE
  8
_0-0_
  6
CONTINUOUS
 62
    7
 10
1610.0615389045684
 20
1846.4475661893944
 11
1610.1008563912324
 21
1846.4208036043008
  0
ARC
  8
_0-0_
  6
CONTINUOUS
 62
    7
 10
1634.4256379733838
 20
1882.1568609441506
 40
43.22916600186015
 50
235.75770593626632
 51
237.86067461862802
  0
LINE
  8
_0-0_
  6
CONTINUOUS
 62
    7
 10
1611.4285913148649
 20
1845.5522623504996
 11
1611.4441361130966
 21
1845.5424962428528
  0
ARC
  8
_0-0_
  6
CONTINUOUS
 62
    7
 10
1635.3121642014112
 20
1883.5334435313466
 40
44.86641105216335
 50
237.86067461863109
 51
239.93286566704813
  0
LINE
  8
_0-0_
  6
CONTINUOUS
 62
    7
 10
1612.8334465636858
 20
1844.7043037769681
 11
1612.9161456180746
 21
1844.6564299535592
  0
ARC
  8
_0-0_
  6
CONTINUOUS
 62
    7
 10
1633.9636434615361
 20
1881.014674292067
 40
42.010940204298379
 50
239.93379197363686
 51
241.88524778205976
  0
ARC
  8
_0-0_
  6
CONTINUOUS
 62
    7
 10
1640.096068365908
 20
1892.4925718854693
 40
55.024347458834001
 50
241.88524778205769
 51
243.37523907692128
  0
LINE
  8
_0-0_
  6
CONTINUOUS
 62
    7
 10
1615.4371566766824
 20
1843.3029704683665
 11
1615.4734978766928
 21
1843.2847525032696
  0
ARC
  8
_0-0_
  6
CONTINUOUS
 62
    7
 10
1635.3995502455618
 20
1883.0332453075634
 40
44.463358433882576
 50
243.37523907691943
 51
245.32381955757387
  0
LINE
  8
_0-0_
  6
CONTINUOUS
 62
    7
 10
1616.8365719070036
 20
1842.6301998973208
 11
1617.1063852315706
 21
1842.5062355068019
  0
ARC
  8
_0-0_
  6
CONTINUOUS
 62
    7
 10
1635.6579552567432
 20
1882.8844502785885
 40
44.436032434899253
 50
245.32381955757364
 51
247.24368493839967
  0
ARC
  8
_0-0_
  6
CONTINUOUS
 62
    7
 10
1646.9631637892799
 20
1909.8359825976695
 40
73.662609968209523
 50
247.24368493841206
 51
248.40188824028732
  0
LINE
  8
_0-0_
  6
CONTINUOUS
 62
    7
 10
1619.8484056091797
 20
1841.3453263286333
 11
1619.9158695431513
 21
1841.3186180394277
  0
ARC
  8
_0-0_
  6
CONTINUOUS
 62
    7
 10
1636.703607737828
 20
1883.7236875808489
 40
45.607215180339331
 50
248.40188824028351
 51
250.45471566306912
  0
LINE
  8
_0-0_
  6
CONTINUOUS
 62
    7
 10
1621.4456326381401
 20
1840.7444801386091
 11
1621.7145446202505
 21
1840.6490141546781
  0
ARC
  8
_0-0_
  6
CONTINUOUS
 62
    7
 10
1641.5400356563111
 20
1896.4941630893261
 40
59.259857866467527
 50
250.45471566307134
 51
252.10790236017993
  0
ARC
  8
_0-0_
  6
CONTINUOUS
 62
    7
 10
1643.9965675503618
 20
1904.1033202536419
 40
67.255720652793173
 50
252.10790236016993
 51
253.56456846604931
  0
LINE
  8
_0-0_
  6
CONTINUOUS
 62
    7
 10
1624.9675944642281
 20
1839.5957226870473
 11
1624.9847933457199
 21
1839.5906492218223
  0
ARC
  8
_0-0_
  6
CONTINUOUS
 62
    7
 10
1642.2896868681992
 20
1898.2536733497179
 40
61.162159376974614
 50
253.56456846605028
 51
255.19993294192557
  0
LINE
  8
_0-0_
  6
CONTINUOUS
 62
    7
 10
1626.6660035008335
 20
1839.1206854521765
 11
1626.8703711755807
 21
1839.0666889274905
  0
ARC
  8
_0-0_
  6
CONTINUOUS
 62
    7
 10
1641.7589545051928
 20
1895.417448037203
 40
58.284457326148569
 50
255.19993294191525
 51
257.33150153214137
  0
LINE
  8
_0-0_
  6
CONTINUOUS
 62
    7
 10
1628.9766008386903
 20
1838.5519101381547
 11
1629.2877501585122
 21
1838.4819693480733
  0
ARC
  8
_0-0_
  6
CONTINUOUS
 62
    7
 10
1641.8937453770923
 20
1894.5629320220403
 40
57.480305234834546
 50
257.33150153212756
 51
259.14985994884648
  0
LINE
  8
_0-0_
  6
CONTINUOUS
 62
    7
 10
1631.0736037970473
 20
1838.1102082075288
 11
1631.3096653164148
 21
1838.0649629316845
  0
ARC
  8
_0-0_
  6
CONTINUOUS
 62
    7
 10
1643.0488271018999
 20
1899.3125587406012
 40
62.362455947454755
 50
259.14985994884631
 51
260.3842972994251
  0
LINE
  8
_0-0_
  6
CONTINUOUS
 62
    7
 10
1632.6318669247285
 20
1837.8262769172102
 11
1632.7039516843111
 21
1837.8140643708068
  0
ARC
  8
_0-0_
  6
CONTINUOUS
 62
    7
 10
1645.0694210674674
 20
1910.8014544001639
 40
74.027453936788362
 50
260.38429729942754
 51
261.31106176039043
  0
ARC
  8
_0-0_
  6
CONTINUOUS
 62
    7
 10
1645.8150466247364
 20
1915.6804389067388
 40
78.963084320746361
 50
261.31106176039066
 51
262.179900600471
  0
LINE
  8
_0-0_
  6
CONTINUOUS
 62
    7
 10
1635.0710830773569
 20
1837.4516978153863
 11
1635.3153811495663
 21
1837.4181458299408
  0
ARC
  8
_0-0_
  6
CONTINUOUS
 62
    7
 10
1643.9964091372028
 20
1900.6262801331045
 40
63.801477169489445
 50
262.17990060046486
 51
263.6980335863542
  0
LINE
  8
_0-0_
  6
CONTINUOUS
 62
    7
 10
1636.9930215294444
 20
1837.2103432479303
 11
1637.2355511467342
 21
1837.1835593037097
  0
ARC
  8
_0-0_
  6
CONTINUOUS
 62
    7
 10
1645.1680603659274
 20
1909.0127271519991
 40
72.265856780988372
 50
263.69803358634027
 51
264.72064942661416
  0
ARC
  8
_0-0_
  6
CONTINUOUS
 62
    7
 10
1644.4244367487936
 20
1900.9651752232367
 40
64.184021090374316
 50
264.72064942660637
 51
265.87202142662653
  0
LINE
  8
_0-0_
  6
CONTINUOUS
 62
    7
 10
1639.8041818064989
 20
1836.9476634971645
 11
1640.0074434051794
 21
1836.9329937547677
  0
ARC
  8
_0-0_
  6
CONTINUOUS
 62
    7
 10
1643.22705738166
 20
1881.5434488199326
 40
44.726486730779662
 50
265.87202142662773
 51
267.2841789175236
  0
LINE
  8
_0-0_
  6
CONTINUOUS
 62
    7
 10
1641.1078148060387
 20
1836.8671975651071
 11
1641.3102390925724
 21
1836.857595457627
  0
ARC
  8
_0-0_
  6
CONTINUOUS
 62
    7
 10
1644.9269359272653
 20
1913.1020322001013
 40
76.330168545413372
 50
267.28417891751752
 51
267.80745257027024
  0
ARC
  8
_0-0_
  6
CONTINUOUS
 62
    7
 10
1645.4047727093239
 20
1925.5827955887908
 40
88.820075781047393
 50
267.80745257027115
 51
268.25714413322038
  0
LINE
  8
_0-0_
  6
CONTINUOUS
 62
    7
 10
1642.7034093624961
 20
1836.8038087854966
 11
1642.878219497034
 21
1836.7984896699368
  0
ARC
  8
_0-0_
  6
CONTINUOUS
 62
    7
 10
1646.0729072791273
 20
1941.7903430533763
 40
105.04044605253121
 50
268.25714413321077
 51
268.82818497022225
  0
LINE
  8
_0-0_
  6
CONTINUOUS
 62
    7
 10
1643.9247666367007
 20
1836.7718646855431
 11
1644.0994612770644
 21
1836.7682913271892
  0
ARC
  8
_0-0_
  6
CONTINUOUS
 62
    7
 10
1652.9726398485791
 20
2270.5609832280034
 40
433.88343232314935
 50
268.82818497021378
 51
269.0011927710076
  0
LINE
  8
_0-0_
  6
CONTINUOUS
 62
    7
 10
1645.4093609576259
 20
1836.7434759084688
 11
1645.4530315804652
 21
1836.7427061719534
  0
LINE
  8
_0-0_
  6
CONTINUOUS
 62
    7
 10
1645.4530315804652
 20
1856.7427039499516
 11
1645.3904795686535
 21
1856.7436829696157
  0
ARC
  8
_0-0_
  6
CONTINUOUS
 62
    7
 10
1648.1267589957188
 20
2031.5714104723827
 40
174.84913934270534
 50
268.9803648070698
 51
269.10332036386018
  0
ARC
  8
_0-0_
  6
CONTINUOUS
 62
    7
 10
1647.4514755837477
 20
1993.6296002743504
 40
136.90132031723306
 50
268.8233271099603
 51
268.98036480707003
  0
LINE
  8
_0-0_
  6
CONTINUOUS
 62
    7
 10
1644.6401559648143
 20
1856.7571487488451
 11
1644.5297953056411
 21
1856.7594155241004
  0
ARC
  8
_0-0_
  6
CONTINUOUS
 62
    7
 10
1645.3076888333612
 20
1894.6320904945746
 40
37.880662979409948
 50
267.92188975907226
 51
268.82332710997252
  0
LINE
  8
_0-0_
  6
CONTINUOUS
 62
    7
 10
1643.9340634803145
 20
1856.7763408500477
 11
1643.7872022162003
 21
1856.7816698253725
  0
ARC
  8
_0-0_
  6
CONTINUOUS
 62
    7
 10
1646.9130651474138
 20
1942.9273457814882
 40
86.202369485999654
 50
267.40100279176448
 51
267.92188975909943
  0
LINE
  8
_0-0_
  6
CONTINUOUS
 62
    7
 10
1643.0041752466109
 20
1856.8136471920989
 11
1642.9150874063384
 21
1856.8176910848224
  0
ARC
  8
_0-0_
  6
CONTINUOUS
 62
    7
 10
1646.797373487236
 20
1942.3453017088705
 40
85.615678028458802
 50
266.9959060848912
 51
267.40100279176414
  0
LINE
  8
_0-0_
  6
CONTINUOUS
 62
    7
 10
1642.3104860664714
 20
1856.8472773717779
 11
1642.3003310568026
 21
1856.8478103008779
  0
ARC
  8
_0-0_
  6
CONTINUOUS
 62
    7
 10
1649.6189101716743
 20
1996.3039625482015
 40
139.64805763020638
 50
266.75589239947834
 51
266.99590608484579
  0
ARC
  8
_0-0_
  6
CONTINUOUS
 62
    7
 10
1644.8496330363123
 20
1912.1614459014938
 40
55.370485809256458
 50
266.15056662479799
 51
266.75589239949318
  0
LINE
  8
_0-0_
  6
CONTINUOUS
 62
    7
 10
1641.1323490956488
 20
1856.9158804789411
 11
1641.0351988237278
 21
1856.9224173863449
  0
ARC
  8
_0-0_
  6
CONTINUOUS
 62
    7
 10
1644.993344329489
 20
1915.7476214818716
 40
58.958218703800434
 50
265.47095670510566
 51
266.15056662479839
  0
ARC
  8
_0-0_
  6
CONTINUOUS
 62
    7
 10
1644.2745764687538
 20
1906.6736179805946
 40
49.855792281202234
 50
264.66727068894261
 51
265.47095670509526
  0
LINE
  8
_0-0_
  6
CONTINUOUS
 62
    7
 10
1639.641010823176
 20
1857.0336130108681
 11
1639.523561769872
 21
1857.0445761020046
  0
ARC
  8
_0-0_
  6
CONTINUOUS
 62
    7
 10
1642.7531580358868
 20
1891.6436703973905
 40
34.749498098569269
 50
263.12529154686831
 51
264.66727068894295
  0
LINE
  8
_0-0_
  6
CONTINUOUS
 62
    7
 10
1638.5936916433066
 20
1857.144011595723
 11
1638.2651490895755
 21
1857.1836224718372
  0
ARC
  8
_0-0_
  6
CONTINUOUS
 62
    7
 10
1642.0266830153887
 20
1888.3827294637601
 40
31.425044384511164
 50
260.76841743810593
 51
263.12529154686746
  0
LINE
  8
_0-0_
  6
CONTINUOUS
 62
    7
 10
1636.9853110837671
 20
1857.3647027113125
 11
1636.7718664073295
 21
1857.3993939574493
  0
ARC
  8
_0-0_
  6
CONTINUOUS
 62
    7
 10
1644.3629566839707
 20
1904.1050614770986
 40
47.318537911099448
 50
259.72666815285373
 51
260.76841743811019
  0
ARC
  8
_0-0_
  6
CONTINUOUS
 62
    7
 10
1645.7182398357672
 20
1911.582484866386
 40
54.917791358919494
 50
258.82906463227107
 51
259.72666815286073
  0
LINE
  8
_0-0_
  6
CONTINUOUS
 62
    7
 10
1635.0786474160382
 20
1857.7051901970742
 11
1634.923858829769
 21
1857.7357575720553
  0
ARC
  8
_0-0_
  6
CONTINUOUS
 62
    7
 10
1643.8516609221342
 20
1902.9448036617764
 40
46.082138606438015
 50
257.54960273009726
 51
258.82906463226527
  0
ARC
  8
_0-0_
  6
CONTINUOUS
 62
    7
 10
1651.1682729920062
 20
1936.0836513833469
 40
80.019080727001111
 50
256.81275374648965
 51
257.5496027300963
  0
LINE
  8
_0-0_
  6
CONTINUOUS
 62
    7
 10
1632.9131879635434
 20
1858.174697141887
 11
1632.8852039483158
 21
1858.1812541619679
  0
ARC
  8
_0-0_
  6
CONTINUOUS
 62
    7
 10
1641.2633518580906
 20
1893.9374689981564
 40
36.724654686051792
 50
255.11765721779608
 51
256.81275374648544
  0
LINE
  8
_0-0_
  6
CONTINUOUS
 62
    7
 10
1631.8311764032885
 20
1858.4447327272014
 11
1631.6527149514532
 21
1858.4921587614406
  0
ARC
  8
_0-0_
  6
CONTINUOUS
 62
    7
 10
1643.4038938355275
 20
1902.7111721803112
 40
45.753812441192075
 50
253.73229103320153
 51
255.11765721778761
  0
ARC
  8
_0-0_
  6
CONTINUOUS
 62
    7
 10
1642.1414212636566
 20
1898.3848029146388
 40
41.247005587367482
 50
252.19557165209704
 51
253.73229103320915
  0
LINE
  8
_0-0_
  6
CONTINUOUS
 62
    7
 10
1629.5293700084048
 20
1859.1132911910088
 11
1629.3725242341093
 21
1859.1636622324522
  0
ARC
  8
_0-0_
  6
CONTINUOUS
 62
    7
 10
1639.2421402341001
 20
1889.89575589487
 40
32.278025045886885
 50
249.66089174387616
 51
252.19557165210796
  0
LINE
  8
_0-0_
  6
CONTINUOUS
 62
    7
 10
1628.0230816792964
 20
1859.6302040907681
 11
1627.8673542245019
 21
1859.6879302953071
  0
ARC
  8
_0-0_
  6
CONTINUOUS
 62
    7
 10
1641.1625988421129
 20
1895.5543902800446
 40
38.251359208254286
 50
248.01933247362041
 51
249.66089174386616
  0
LINE
  8
_0-0_
  6
CONTINUOUS
 62
    7
 10
1626.8453550770764
 20
1860.0835147304979
 11
1626.8205757173371
 21
1860.0935165172659
  0
ARC
  8
_0-0_
  6
CONTINUOUS
 62
    7
 10
1640.1010761456787
 20
1892.9958673928977
 40
35.4814935532644
 50
246.33592577991624
 51
248.01933247361063
  0
LINE
  8
_0-0_
  6
CONTINUOUS
 62
    7
 10
1625.8597429046217
 20
1860.4978549569423
 11
1625.7249154874962
 21
1860.5569392526695
  0
ARC
  8
_0-0_
  6
CONTINUOUS
 62
    7
 10
1635.8693026367005
 20
1883.7059249655958
 40
25.274179119611798
 50
244.64002611523318
 51
246.33592577993332
  0
LINE
  8
_0-0_
  6
CONTINUOUS
 62
    7
 10
1625.0442713800837
 20
1860.8672991649159
 11
1625.0313122155296
 21
1860.8734415380422
  0
ARC
  8
_0-0_
  6
CONTINUOUS
 62
    7
 10
1645.0759086357398
 20
1903.163484505521
 40
46.799931408499532
 50
243.75922536927368
 51
244.64002611522295
  0
ARC
  8
_0-0_
  6
CONTINUOUS
 62
    7
 10
1634.289292967429
 20
1881.2815104048532
 40
22.403786874616152
 50
241.91941656927872
 51
243.75922536922718
  0
LINE
  8
_0-0_
  6
CONTINUOUS
 62
    7
 10
1623.7435411109639
 20
1861.5149531905813
 11
1623.6130842784767
 21
1861.5845538483225
  0
ARC
  8
_0-0_
  6
CONTINUOUS
 62
    7
 10
1634.6104972981104
 20
1882.1976876125491
 40
23.363312622706363
 50
240.70711326969911
 51
241.91941656928879
  0
ARC
  8
_0-0_
  6
CONTINUOUS
 62
    7
 10
1637.4673696294815
 20
1887.2900555108113
 40
29.202313421558976
 50
239.73719691778214
 51
240.70711326969166
  0
LINE
  8
_0-0_
  6
CONTINUOUS
 62
    7
 10
1622.7503675270677
 20
1862.0673483149426
 11
1622.6959859500855
 21
1862.0990790001765
  0
ARC
  8
_0-0_
  6
CONTINUOUS
 62
    7
 10
1631.7416330416854
 20
1877.6019447605202
 40
17.948887934605054
 50
237.7573619537738
 51
239.73719691776421
  0
LINE
  8
_0-0_
  6
CONTINUOUS
 62
    7
 10
1622.1657964413434
 20
1862.420840337832
 11
1621.984455708518
 21
1862.5352252454236
  0
ARC
  8
_0-0_
  6
CONTINUOUS
 62
    7
 10
1631.3117012194618
 20
1877.3222244380195
 40
17.482930359160875
 50
234.89236336154721
 51
237.75736195377328
  0
LINE
  8
_0-0_
  6
CONTINUOUS
 62
    7
 10
1621.2570180759108
 20
1863.019909911131
 11
1621.1690949725073
 21
1863.0817208120209
  0
ARC
  8
_0-0_
  6
CONTINUOUS
 62
    7
 10
1633.2779602998494
 20
1880.306013015248
 40
21.054711145438539
 50
233.09798604717577
 51
234.89236336154778
  0
LINE
  8
_0-0_
  6
CONTINUOUS
 62
    7
 10
1620.6356940706273
 20
1863.4693278899827
 11
1620.6236899395376
 21
1863.4783415063782
  0
ARC
  8
_0-0_
  6
CONTINUOUS
 62
    7
 10
1631.7874887918492
 20
1878.3460371133378
 40
18.592438717825232
 50
231.15851201447305
 51
233.09798604718304
  0
LINE
  8
_0-0_
  6
CONTINUOUS
 62
    7
 10
1620.1269067962403
 20
1863.8646834128108
 11
1620.1007784165763
 21
1863.8857223377477
  0
ARC
  8
_0-0_
  6
CONTINUOUS
 62
    7
 10
1632.0672685226916
 20
1878.7469853386699
 40
19.080199774696741
 50
229.47002943493914
 51
231.15851201448021
  0
LINE
  8
_0-0_
  6
CONTINUOUS
 62
    7
 10
1619.6680824301732
 20
1864.244771449562
 11
1619.6557994840969
 21
1864.2552731933183
  0
ARC
  8
_0-0_
  6
CONTINUOUS
 62
    7
 10
1631.1992723654198
 20
1877.7566362262583
 40
17.763405357900037
 50
227.76062618915969
 51
229.47002943494198
  0
LINE
  8
_0-0_
  6
CONTINUOUS
 62
    7
 10
1619.258187022745
 20
1864.6056267308606
 11
1619.2300031845098
 21
1864.6312175889443
  0
ARC
  8
_0-0_
  6
CONTINUOUS
 62
    7
 10
1629.4608019112657
 20
1875.8986465822027
 40
15.219204930136875
 50
226.05207410051429
 51
227.76062618915182
  0
LINE
  8
_0-0_
  6
CONTINUOUS
 62
    7
 10
1618.8986082284703
 20
1864.941262619202
 11
1618.8796807134711
 21
1864.9595074922511
  0
ARC
  8
_0-0_
  6
CONTINUOUS
 62
    7
 10
1630.5201713763608
 20
1877.0355335093363
 40
16.77293734675445
 50
224.68134786607905
 51
226.05207410049587
  0
ARC
  8
_0-0_
  6
CONTINUOUS
 62
    7
 10
1628.6989276858235
 20
1875.2344357829948
 40
14.211515554047159
 50
223.06359821182386
 51
224.68134786605322
  0
LINE
  8
_0-0_
  6
CONTINUOUS
 62
    7
 10
1618.3160479386647
 20
1865.5306745277412
 11
1618.3072285032886
 21
1865.5401111919928
  0
ARC
  8
_0-0_
  6
CONTINUOUS
 62
    7
 10
1627.4005348513367
 20
1874.0386468556087
 40
12.446418310710987
 50
221.26841404228273
 51
223.06359821180101
  0
LINE
  8
_0-0_
  6
CONTINUOUS
 62
    7
 10
1618.0454600375242
 20
1865.8291460185801
 11
1618.0175859840806
 21
1865.8609096861289
  0
ARC
  8
_0-0_
  6
CONTINUOUS
 62
    7
 10
1624.7044117740434
 20
1871.728901445927
 40
8.8964580838875857
 50
219.3012152437816
 51
221.26841404227471
  0
ARC
  8
_0-0_
  6
CONTINUOUS
 62
    7
 10
1626.5925693388087
 20
1873.2744073836614
 40
11.33648422984451
 50
217.757371337416
 51
219.30121524374749
  0
LINE
  8
_0-0_
  6
CONTINUOUS
 62
    7
 10
1617.6298224394234
 20
1866.3328626916586
 11
1617.6296351914459
 21
1866.3331044615102
  0
ARC
  8
_0-0_
  6
CONTINUOUS
 62
    7
 10
1622.137865317181
 20
1869.8246769951202
 40
5.702211643217411
 50
214.68248479252264
 51
217.75737133738977
  0
LINE
  8
_0-0_
  6
CONTINUOUS
 62
    7
 10
1617.4488338706781
 20
1866.5799579444547
 11
1617.4127542540109
 21
1866.6320975764193
  0
ARC
  8
_0-0_
  6
CONTINUOUS
 62
    7
 10
1621.558807667197
 20
1869.5010863320579
 40
5.0419098945709173
 50
211.82834454663259
 51
214.68248479254333
  0
ARC
  8
_0-0_
  6
CONTINUOUS
 62
    7
 10
1623.669935593311
 20
1870.8114874305625
 40
7.5266658502697092
 50
209.91621521868848
 51
211.82834454668074
  0
LINE
  8
_0-0_
  6
CONTINUOUS
 62
    7
 10
1617.1461555343062
 20
1867.057690344498
 11
1617.1389394300372
 21
1867.070231319957
  0
ARC
  8
_0-0_
  6
CONTINUOUS
 62
    7
 10
1620.7194342696209
 20
1869.1304557563872
 40
4.1309161241484995
 50
206.03205085341244
 51
209.91621521861234
  0
LINE
  8
_0-0_
  6
CONTINUOUS
 62
    7
 10
1617.0076050226746
 20
1867.3175046632068
 11
1616.9876481992148
 21
1867.3583641884704
  0
ARC
  8
_0-0_
  6
CONTINUOUS
 62
    7
 10
1622.2296045149278
 20
1869.9186679634327
 40
5.8338033422398041
 50
202.38864060527774
 51
206.03205085340397
  0
LINE
  8
_0-0_
  6
CONTINUOUS
 62
    7
 10
1616.8355441328208
 20
1867.6966477047233
 11
1616.8145957376942
 21
1867.7475009351472
  0
ARC
  8
_0-0_
  6
CONTINUOUS
 62
    7
 10
1621.2944822292491
 20
1869.592937922466
 40
4.8451027493109713
 50
199.02594005977497
 51
202.38864060531506
  0
LINE
  8
_0-0_
  6
CONTINUOUS
 62
    7
 10
1616.7140622048314
 20
1868.0134528635642
 11
1616.7114516297192
 21
1868.0210233881801
  0
ARC
  8
_0-0_
  6
CONTINUOUS
 62
    7
 10
1625.5053595640557
 20
1871.0534627971288
 40
9.3020699592360412
 50
197.37269593121479
 51
199.02594005969809
  0
LINE
  8
_0-0_
  6
CONTINUOUS
 62
    7
 10
1616.6276246712691
 20
1868.2759947595214
 11
1616.6246941795571
 21
1868.2853616102557
  0
ARC
  8
_0-0_
  6
CONTINUOUS
 62
    7
 10
1620.6144075444615
 20
1869.5335743001051
 40
4.1804123783666212
 50
193.96375281236621
 51
197.37269593129551
  0
LINE
  8
_0-0_
  6
CONTINUOUS
 62
    7
 10
1616.5575322888285
 20
1868.5248073233302
 11
1616.5445757006316
 21
1868.576913769381
  0
ARC
  8
_0-0_
  6
CONTINUOUS
 62
    7
 10
1625.3571450173313
 20
1870.7682133157255
 40
9.0809235027857991
 50
193.07154759496342
 51
193.96375281239588
  0
ARC
  8
_0-0_
  6
CONTINUOUS
 62
    7
 10
1639.0221667056164
 20
1873.9410109386015
 40
23.109446678695381
 50
192.72094699923781
 51
193.0715475949018
  0
LINE
  8
_0-0_
  6
CONTINUOUS
 62
    7
 10
1616.4799620953177
 20
1868.8522451645779
 11
1616.4797226168105
 21
1868.8533060059972
  0
LINE
  8
_0-0_
  6
CONTINUOUS
 62
    7
 10
1616.4797226168105
 20
1868.8533060059972
 11
1616.4787964383399
 21
1868.8574020433407
  0
LINE
  8
_0-0_
  6
CONTINUOUS
 62
    7
 10
2167.4530315804654
 20
1836.7427061719536
 11
2167.4697143934491
 21
1836.7429173208893
  0
ARC
  8
_0-0_
  6
CONTINUOUS
 62
    7
 10
2162.0456127189768
 20
2265.2995359012693
 40
428.59094275080537
 50
270.72513531947925
 51
270.86233011779251
  0
LINE
  8
_0-0_
  6
CONTINUOUS
 62
    7
 10
2168.4958770920343
 20
1836.7571339180561
 11
2168.6119085543528
 21
1836.758880381426
  0
ARC
  8
_0-0_
  6
CONTINUOUS
 62
    7
 10
2167.0914129547014
 20
1937.7775051685965
 40
101.03006711251696
 50
270.86233011779206
 51
271.31271593680879
  0
LINE
  8
_0-0_
  6
CONTINUOUS
 62
    7
 10
2169.405932064677
 20
1836.7739534387229
 11
2169.5384422957768
 21
1836.7769899404784
  0
ARC
  8
_0-0_
  6
CONTINUOUS
 62
    7
 10
2167.4792996793208
 20
1926.6361390335235
 40
89.882738854804586
 50
271.31271593679878
 51
271.64997886931491
  0
ARC
  8
_0-0_
  6
CONTINUOUS
 62
    7
 10
2167.9557484512657
 20
1910.0959531768751
 40
73.335692242047628
 50
271.64997886934378
 51
272.06333928371618
  0
LINE
  8
_0-0_
  6
CONTINUOUS
 62
    7
 10
2170.5961473052953
 20
1836.8078091799644
 11
2170.9752173953102
 21
1836.8214661806287
  0
ARC
  8
_0-0_
  6
CONTINUOUS
 62
    7
 10
2169.5697821254503
 20
1875.831384049457
 40
39.035226916600827
 50
272.0633392836998
 51
273.95327138524652
  0
LINE
  8
_0-0_
  6
CONTINUOUS
 62
    7
 10
2172.2609826664461
 20
1836.8890371751525
 11
2172.3973776830035
 21
1836.8984630668056
  0
ARC
  8
_0-0_
  6
CONTINUOUS
 62
    7
 10
2164.8713412248817
 20
1945.8020984059972
 40
109.16337762665921
 50
273.95327138524055
 51
274.69581055878649
  0
ARC
  8
_0-0_
  6
CONTINUOUS
 62
    7
 10
2168.7842718743254
 20
1898.1655483107243
 40
61.366390993119495
 50
274.69581055879473
 51
276.01665780923719
  0
LINE
  8
_0-0_
  6
CONTINUOUS
 62
    7
 10
2175.216549686249
 20
1837.1371963284641
 11
2175.3947181992976
 21
1837.1559749671794
  0
ARC
  8
_0-0_
  6
CONTINUOUS
 62
    7
 10
2166.5193398808769
 20
1921.3640467934765
 40
84.674504433140626
 50
276.01665780922769
 51
277.21637198444995
  0
LINE
  8
_0-0_
  6
CONTINUOUS
 62
    7
 10
2177.1558734201612
 20
1837.3602620259699
 11
2177.3480322678179
 21
1837.3845931204987
  0
ARC
  8
_0-0_
  6
CONTINUOUS
 62
    7
 10
2169.7489327748967
 20
1897.3997395845356
 40
60.494331289825176
 50
277.21637198445512
 51
279.26237125304135
  0
LINE
  8
_0-0_
  6
CONTINUOUS
 62
    7
 10
2179.4858385936768
 20
1837.6941553961256
 11
2179.8206527150801
 21
1837.7487575512041
  0
ARC
  8
_0-0_
  6
CONTINUOUS
 62
    7
 10
2169.1814575306198
 20
1902.9870761305579
 40
66.100156469060835
 50
279.2623712530409
 51
281.2652309517419
  0
LINE
  8
_0-0_
  6
CONTINUOUS
 62
    7
 10
2182.0941916772331
 20
1838.160445938227
 11
2182.2283461073457
 21
1838.1871679888027
  0
ARC
  8
_0-0_
  6
CONTINUOUS
 62
    7
 10
2169.8063014881545
 20
1900.5503579699282
 40
63.588321704092401
 50
281.26523095174161
 51
283.10075462871674
  0
LINE
  8
_0-0_
  6
CONTINUOUS
 62
    7
 10
2184.2194934498148
 20
1838.6170506577923
 11
2184.2448082820461
 21
1838.6229419552581
  0
ARC
  8
_0-0_
  6
CONTINUOUS
 62
    7
 10
2168.7652288711638
 20
1905.1385029265548
 40
68.293024754099903
 50
283.10075462871578
 51
284.7662462303748
  0
ARC
  8
_0-0_
  6
CONTINUOUS
 62
    7
 10
2169.8684203868779
 20
1900.9531085102622
 40
63.964681197925557
 50
284.7662462303694
 51
286.54442031872281
  0
LINE
  8
_0-0_
  6
CONTINUOUS
 62
    7
 10
2188.0829143383139
 20
1839.6366127620108
 11
2188.3396798032659
 21
1839.7128867393678
  0
ARC
  8
_0-0_
  6
CONTINUOUS
 62
    7
 10
2173.5757342612915
 20
1889.4136034578896
 40
51.847230690762217
 50
286.5444203187281
 51
288.9402421974562
  0
LINE
  8
_0-0_
  6
CONTINUOUS
 62
    7
 10
2190.4044032620563
 20
1840.3735052732018
 11
2190.4939394224957
 21
1840.4042306278282
  0
ARC
  8
_0-0_
  6
CONTINUOUS
 62
    7
 10
2167.5331633631376
 20
1907.31378314778
 40
70.739560753995335
 50
288.9402421974562
 51
290.54302351070112
  0
LINE
  8
_0-0_
  6
CONTINUOUS
 62
    7
 10
2192.3564272925278
 20
1841.072625069437
 11
2192.3795383321581
 21
1841.0812857186929
  0
ARC
  8
_0-0_
  6
CONTINUOUS
 62
    7
 10
2175.3620050615968
 20
1886.492764027314
 40
48.495348238661308
 50
290.54302351070152
 51
292.8225138999386
  0
LINE
  8
_0-0_
  6
CONTINUOUS
 62
    7
 10
2194.1722738033304
 20
1841.7940773502673
 11
2194.4458490178758
 21
1841.9092042967
  0
ARC
  8
_0-0_
  6
CONTINUOUS
 62
    7
 10
2176.7108257342807
 20
1884.0527940480215
 40
45.723223945795574
 50
292.82251389993479
 51
294.4965345340795
  0
ARC
  8
_0-0_
  6
CONTINUOUS
 62
    7
 10
2168.6056213259753
 20
1901.8408929644152
 40
65.270878576462167
 50
294.49653453408962
 51
295.66925344131897
  0
LINE
  8
_0-0_
  6
CONTINUOUS
 62
    7
 10
2196.8793653786202
 20
1843.0116231458226
 11
2197.0030953264286
 21
1843.0710885936646
  0
ARC
  8
_0-0_
  6
CONTINUOUS
 62
    7
 10
2180.7777599385954
 20
1876.831195909167
 40
37.456726423994049
 50
295.66925344131141
 51
298.13246252134837
  0
LINE
  8
_0-0_
  6
CONTINUOUS
 62
    7
 10
2198.4390409141961
 20
1843.799612406362
 11
2198.8993180637563
 21
1844.0457127504258
  0
ARC
  8
_0-0_
  6
CONTINUOUS
 62
    7
 10
2182.3068190479048
 20
1875.0783721322368
 40
35.190012388439655
 50
298.13246252134928
 51
300.60565140535743
  0
ARC
  8
_0-0_
  6
CONTINUOUS
 62
    7
 10
2165.229386229486
 20
1903.9482345589533
 40
68.732637035374211
 50
300.60565140535596
 51
301.87202970126037
  0
LINE
  8
_0-0_
  6
CONTINUOUS
 62
    7
 10
2201.521856210175
 20
1845.5784477121842
 11
2201.5274302694947
 21
1845.5819134843148
  0
ARC
  8
_0-0_
  6
CONTINUOUS
 62
    7
 10
2184.4804393931236
 20
1872.9988742026671
 40
32.28451072837813
 50
301.87202970126276
 51
304.59100313663902
  0
LINE
  8
_0-0_
  6
CONTINUOUS
 62
    7
 10
2202.8088237798288
 20
1846.4214409416477
 11
2203.0729326802298
 21
1846.603576266717
  0
ARC
  8
_0-0_
  6
CONTINUOUS
 62
    7
 10
2181.260631835175
 20
1878.2329309194563
 40
38.421251201697629
 50
304.59100313663492
 51
307.22484953174052
  0
LINE
  8
_0-0_
  6
CONTINUOUS
 62
    7
 10
2204.5033571208837
 20
1847.6393324845385
 11
2204.6505545731279
 21
1847.7511620868174
  0
ARC
  8
_0-0_
  6
CONTINUOUS
 62
    7
 10
2184.8079468307155
 20
1873.8693029550172
 40
32.800706767238538
 50
307.22484953173836
 51
309.66437304507946
  0
ARC
  8
_0-0_
  6
CONTINUOUS
 62
    7
 10
2176.6570389227513
 20
1883.6995498520319
 40
45.570634479656405
 50
309.66437304508202
 51
311.42041445751107
  0
LINE
  8
_0-0_
  6
CONTINUOUS
 62
    7
 10
2206.8056177003955
 20
1849.5272522329569
 11
2206.849059301378
 21
1849.5655786733982
  0
ARC
  8
_0-0_
  6
CONTINUOUS
 62
    7
 10
2187.9869994239843
 20
1870.9450250676373
 40
28.510665213960134
 50
311.42041445750976
 51
314.4595703052351
  0
LINE
  8
_0-0_
  6
CONTINUOUS
 62
    7
 10
2207.9560346449884
 20
1850.5956844570715
 11
2208.197410338817
 21
1850.8325491213279
  0
ARC
  8
_0-0_
  6
CONTINUOUS
 62
    7
 10
2188.8155403662849
 20
1870.5835420649382
 40
27.67234370071823
 50
314.45957030523493
 51
317.38809052823495
  0
LINE
  8
_0-0_
  6
CONTINUOUS
 62
    7
 10
2209.1811781550714
 20
1851.8485639932501
 11
2209.3239542651772
 21
1852.0037670862125
  0
ARC
  8
_0-0_
  6
CONTINUOUS
 62
    7
 10
2188.2879305172314
 20
1871.3554538696374
 40
28.583248179448223
 50
317.38809052823518
 51
319.37824780077864
  0
ARC
  8
_0-0_
  6
CONTINUOUS
 62
    7
 10
2183.4668926306213
 20
1875.4907590045013
 40
34.934874338359315
 50
319.37824780077756
 51
321.00662205330605
  0
LINE
  8
_0-0_
  6
CONTINUOUS
 62
    7
 10
2210.6189299340749
 20
1853.5086682188457
 11
2210.6795761840922
 21
1853.5835778013254
  0
ARC
  8
_0-0_
  6
CONTINUOUS
 62
    7
 10
2192.5037788238892
 20
1868.2985703894842
 40
23.385692560810153
 50
321.00662205330133
 51
323.91099828448608
  0
LINE
  8
_0-0_
  6
CONTINUOUS
 62
    7
 10
2211.4018264132328
 20
1854.5234328635051
 11
2211.5080657769308
 21
1854.6691821561885
  0
ARC
  8
_0-0_
  6
CONTINUOUS
 62
    7
 10
2189.4763891063171
 20
1870.728480061478
 40
27.263452204908081
 50
323.91099828448603
 51
326.66329553474753
  0
LINE
  8
_0-0_
  6
CONTINUOUS
 62
    7
 10
2212.2537896086565
 20
1855.7456281138234
 11
2212.2913491254044
 21
1855.8027272668173
  0
ARC
  8
_0-0_
  6
CONTINUOUS
 62
    7
 10
2191.0809985435571
 20
1869.7547821772525
 40
25.387768866693786
 50
326.66329553475128
 51
329.31054846319921
  0
ARC
  8
_0-0_
  6
CONTINUOUS
 62
    7
 10
2188.5417697340645
 20
1871.2618336864168
 40
28.340545051614075
 50
329.31054846319262
 51
331.68206978816062
  0
LINE
  8
_0-0_
  6
CONTINUOUS
 62
    7
 10
2213.4907719635121
 20
1857.8181072098191
 11
2213.570413478406
 21
1857.9659067307407
  0
ARC
  8
_0-0_
  6
CONTINUOUS
 62
    7
 10
2196.3017727165316
 20
1867.2710837831223
 40
19.616122800870762
 50
331.68206978815897
 51
335.82337372204955
  0
LINE
  8
_0-0_
  6
CONTINUOUS
 62
    7
 10
2214.1973117897664
 20
1859.2372830003569
 11
2214.2718408822925
 21
1859.4032988530585
  0
ARC
  8
_0-0_
  6
CONTINUOUS
 62
    7
 10
2190.6762422471247
 20
1869.9960134960379
 40
25.864220043517715
 50
335.82337372204631
 51
338.15904234721967
  0
LINE
  8
_0-0_
  6
CONTINUOUS
 62
    7
 10
2214.6839316511878
 20
1860.3737098250056
 11
2214.6972876516411
 21
1860.4070331040796
  0
ARC
  8
_0-0_
  6
CONTINUOUS
 62
    7
 10
2192.8240836855057
 20
1869.1738330771338
 40
23.564673422555504
 50
338.15904234721438
 51
340.54806751407267
  0
LINE
  8
_0-0_
  6
CONTINUOUS
 62
    7
 10
2215.0437138751699
 20
1861.3264215455356
 11
2215.0783155198965
 21
1861.424394711169
  0
ARC
  8
_0-0_
  6
CONTINUOUS
 62
    7
 10
2190.8263985871126
 20
1869.9895585315012
 40
25.7199826240956
 50
340.54806751407466
 51
342.27415308264341
  0
LINE
  8
_0-0_
  6
CONTINUOUS
 62
    7
 10
2215.3253052525988
 20
1862.1587808958147
 11
2215.3376094113883
 21
1862.1972749575546
  0
ARC
  8
_0-0_
  6
CONTINUOUS
 62
    7
 10
2192.0142686004856
 20
1869.6522972614184
 40
24.485824146485857
 50
342.27415308264597
 51
343.89813900821252
  0
ARC
  8
_0-0_
  6
CONTINUOUS
 62
    7
 10
2194.8704844161862
 20
1868.8277924265788
 40
21.512984256997619
 50
343.89813900820786
 51
345.74650401318979
  0
LINE
  8
_0-0_
  6
CONTINUOUS
 62
    7
 10
2215.7212105670096
 20
1863.5310282610544
 11
2215.758540929146
 21
1863.6779793303658
  0
ARC
  8
_0-0_
  6
CONTINUOUS
 62
    7
 10
2202.4820917745069
 20
1867.0506302212268
 40
13.698134040348089
 50
345.74650401319417
 51
348.63877315237875
  0
LINE
  8
_0-0_
  6
CONTINUOUS
 62
    7
 10
2215.911806887601
 20
1864.3521810057553
 11
2215.9417434762936
 21
1864.5011702308623
  0
ARC
  8
_0-0_
  6
CONTINUOUS
 62
    7
 10
2191.9431665776251
 20
1869.3232338755035
 40
24.478235045735687
 50
348.63877315236255
 51
349.54621187706681
  0
ARC
  8
_0-0_
  6
CONTINUOUS
 62
    7
 10
2187.996290528009
 20
1870.0514519039996
 40
28.491728791595982
 50
349.54621187707414
 51
350.32582831071585
  0
LINE
  8
_0-0_
  6
CONTINUOUS
 62
    7
 10
2216.0828476217284
 20
1865.2635588229982
 11
2216.0991854871272
 21
1865.3593993903519
  0
ARC
  8
_0-0_
  6
CONTINUOUS
 62
    7
 10
2182.8900740608451
 20
1871.0205302400161
 40
33.688180185641208
 50
350.32582831071579
 51
351.31588133589025
  0
LINE
  8
_0-0_
  6
CONTINUOUS
 62
    7
 10
2216.1920453875819
 20
1865.9340589707112
 11
2216.2067138745451
 21
1866.0300959885988
  0
ARC
  8
_0-0_
  6
CONTINUOUS
 62
    7
 10
2078.6301275589944
 20
1887.0432470347353
 40
139.1720863504174
 50
351.31588133589355
 51
351.61580662797456
  0
LINE
  8
_0-0_
  6
CONTINUOUS
 62
    7
 10
2216.314825648089
 20
1866.7505505346926
 11
2216.3183750600147
 21
1866.7745777294067
  0
LINE
  8
_0-0_
  6
CONTINUOUS
 62
    7
 10
2196.4272667225905
 20
1868.8574020433416
 11
2196.4248627361112
 21
1868.8461421336274
  0
ARC
  8
_0-0_
  6
CONTINUOUS
 62
    7
 10
2180.8198100061459
 20
1872.1778150087291
 40
15.956745120847046
 50
347.41119646324648
 51
347.94831220977846
  0
ARC
  8
_0-0_
  6
CONTINUOUS
 62
    7
 10
2188.0355803591219
 20
1870.5663796994254
 40
8.5632300202363947
 50
346.41035170256646
 51
347.4111964632375
  0
LINE
  8
_0-0_
  6
CONTINUOUS
 62
    7
 10
2196.3590696373108
 20
1868.5543074802058
 11
2196.3495481606687
 21
1868.5149192773426
  0
ARC
  8
_0-0_
  6
CONTINUOUS
 62
    7
 10
2193.0455929189388
 20
1869.313598332873
 40
3.3991187789035049
 50
342.5242930539107
 51
346.41035170258056
  0
LINE
  8
_0-0_
  6
CONTINUOUS
 62
    7
 10
2196.2878232033468
 20
1868.2928381965216
 11
2196.2739866005886
 21
1868.2488891325852
  0
ARC
  8
_0-0_
  6
CONTINUOUS
 62
    7
 10
2191.1249652161728
 20
1869.8699694721629
 40
5.398177718872903
 50
340.80833588321218
 51
342.5242930538987
  0
ARC
  8
_0-0_
  6
CONTINUOUS
 62
    7
 10
2190.3121174495764
 20
1870.1529004184254
 40
6.2588585029116706
 50
339.32831854646787
 51
340.8083358832227
  0
LINE
  8
_0-0_
  6
CONTINUOUS
 62
    7
 10
2196.1680220184257
 20
1867.9434454087007
 11
2196.140091600003
 21
1867.869419070018
  0
ARC
  8
_0-0_
  6
CONTINUOUS
 62
    7
 10
2191.3614610941231
 20
1869.6724144888638
 40
5.1074555301148461
 50
335.74057273023413
 51
339.32831854647719
  0
LINE
  8
_0-0_
  6
CONTINUOUS
 62
    7
 10
2196.0178999690056
 20
1867.5739200293556
 11
2195.9931845391743
 21
1867.5190779077795
  0
ARC
  8
_0-0_
  6
CONTINUOUS
 62
    7
 10
2189.6028725684291
 20
1870.3989684476255
 40
7.0092693345985611
 50
332.98925197408943
 51
335.74057273022356
  0
LINE
  8
_0-0_
  6
CONTINUOUS
 62
    7
 10
2195.8475802324733
 20
1867.2156552686292
 11
2195.8419095851928
 21
1867.2045311559384
  0
ARC
  8
_0-0_
  6
CONTINUOUS
 62
    7
 10
2191.8695399166704
 20
1869.2294933155695
 40
4.4587209523958684
 50
328.9857743661546
 51
332.98925197410222
  0
LINE
  8
_0-0_
  6
CONTINUOUS
 62
    7
 10
2195.6908394397615
 20
1866.9321334207862
 11
2195.6869708746121
 21
1866.9256986666182
  0
ARC
  8
_0-0_
  6
CONTINUOUS
 62
    7
 10
2189.9897263911444
 20
1870.3508740311786
 40
6.6475876062219772
 50
326.42928777814916
 51
328.98577436614386
  0
LINE
  8
_0-0_
  6
CONTINUOUS
 62
    7
 10
2195.5285230283071
 20
1866.6749860031573
 11
2195.525629446051
 21
1866.6706259781652
  0
ARC
  8
_0-0_
  6
CONTINUOUS
 62
    7
 10
2190.8266919704979
 20
1869.7891315204902
 40
5.6396001823419351
 50
323.52232081750691
 51
326.42928777815189
  0
ARC
  8
_0-0_
  6
CONTINUOUS
 62
    7
 10
2187.9520072035525
 20
1871.9145537638426
 40
9.2146851074655238
 50
321.74295115546886
 51
323.52232081749287
  0
LINE
  8
_0-0_
  6
CONTINUOUS
 62
    7
 10
2195.1877535457247
 20
1866.2089077441983
 11
2195.1776270347004
 21
1866.1960655761334
  0
ARC
  8
_0-0_
  6
CONTINUOUS
 62
    7
 10
2189.7052407957212
 20
1870.5112387850663
 40
6.9690552424028116
 50
319.12157118966758
 51
321.74295115547824
  0
LINE
  8
_0-0_
  6
CONTINUOUS
 62
    7
 10
2194.9745428919114
 20
1865.9502973920262
 11
2194.938553375418
 21
1865.908718336661
  0
ARC
  8
_0-0_
  6
CONTINUOUS
 62
    7
 10
2187.4329878689514
 20
1872.4052986753316
 40
9.9266847269703078
 50
317.79941641247967
 51
319.12157118966246
  0
ARC
  8
_0-0_
  6
CONTINUOUS
 62
    7
 10
2183.9014656618856
 20
1875.6075530165322
 40
14.693872783334394
 50
316.90619170357144
 51
317.79941641249485
  0
LINE
  8
_0-0_
  6
CONTINUOUS
 62
    7
 10
2194.6314621751421
 20
1865.5687745949158
 11
2194.590913446124
 21
1865.5254338912257
  0
ARC
  8
_0-0_
  6
CONTINUOUS
 62
    7
 10
2186.8747126965382
 20
1872.7445629455653
 40
10.566720319527716
 50
315.02059306715239
 51
316.90619170356712
  0
LINE
  8
_0-0_
  6
CONTINUOUS
 62
    7
 10
2194.3491972972006
 20
1865.2754493257589
 11
2194.2546807768531
 21
1865.1808648393251
  0
ARC
  8
_0-0_
  6
CONTINUOUS
 62
    7
 10
2183.9834825274052
 20
1875.4446824582551
 40
14.520449910182245
 50
312.59341714799046
 51
315.02059306714676
  0
LINE
  8
_0-0_
  6
CONTINUOUS
 62
    7
 10
2193.8107980523519
 20
1864.7550924208749
 11
2193.7361648111296
 21
1864.6864794612031
  0
ARC
  8
_0-0_
  6
CONTINUOUS
 62
    7
 10
2182.7310014792761
 20
1876.6572647700968
 40
16.260790905500535
 50
310.50270614724172
 51
312.59341714799666
  0
LINE
  8
_0-0_
  6
CONTINUOUS
 62
    7
 10
2193.2921243895803
 20
1864.2929611606794
 11
2193.2900549216301
 21
1864.2911934990248
  0
ARC
  8
_0-0_
  6
CONTINUOUS
 62
    7
 10
2178.5739640924889
 20
1881.5198742463876
 40
22.658128113021455
 50
309.01597168679575
 51
310.50270614723684
  0
ARC
  8
_0-0_
  6
CONTINUOUS
 62
    7
 10
2181.2524660640343
 20
1878.2140844120827
 40
18.403410820395798
 50
307.18556941616998
 51
309.01597168679507
  0
LINE
  8
_0-0_
  6
CONTINUOUS
 62
    7
 10
2192.3754596037043
 20
1863.5524151844427
 11
2192.3183495845938
 21
1863.5090889871485
  0
ARC
  8
_0-0_
  6
CONTINUOUS
 62
    7
 10
2180.6387834874063
 20
1878.9043990921664
 40
19.324281033151991
 50
305.03393342012021
 51
307.18556941617015
  0
LINE
  8
_0-0_
  6
CONTINUOUS
 62
    7
 10
2191.732108827307
 20
1863.0814420249383
 11
2191.7085646452092
 21
1863.0649354218574
  0
ARC
  8
_0-0_
  6
CONTINUOUS
 62
    7
 10
2178.8730000657056
 20
1881.3729342456736
 40
22.359215974793663
 50
303.32162461679286
 51
305.03393342012072
  0
ARC
  8
_0-0_
  6
CONTINUOUS
 62
    7
 10
2178.9126702802041
 20
1881.3125917590828
 40
22.287001422199918
 50
301.60376840416427
 51
303.32162461679047
  0
LINE
  8
_0-0_
  6
CONTINUOUS
 62
    7
 10
2190.5919933816763
 20
1862.3309204869174
 11
2190.5789224064583
 21
1862.3228779841979
  0
ARC
  8
_0-0_
  6
CONTINUOUS
 62
    7
 10
2178.2052325331442
 20
1882.4330600177163
 40
23.612022837999302
 50
299.90783358455877
 51
301.60376840417382
  0
LINE
  8
_0-0_
  6
CONTINUOUS
 62
    7
 10
2189.9783349034628
 20
1861.9654836326092
 11
2189.9072038508943
 21
1861.9245685214187
  0
ARC
  8
_0-0_
  6
CONTINUOUS
 62
    7
 10
2178.6827254005307
 20
1881.4383604548925
 40
22.511707889576002
 50
297.71143941399305
 51
299.90783358455087
  0
LINE
  8
_0-0_
  6
CONTINUOUS
 62
    7
 10
2189.1510930169161
 20
1861.508727453911
 11
2189.0907666436201
 21
1861.4770400338471
  0
ARC
  8
_0-0_
  6
CONTINUOUS
 62
    7
 10
2174.9848172289721
 20
1888.3318855328143
 40
30.334148012792888
 50
296.30370903381407
 51
297.71143941398645
  0
ARC
  8
_0-0_
  6
CONTINUOUS
 62
    7
 10
2174.2056768891653
 20
1889.9080993223292
 40
32.092416928337506
 50
294.97309779502683
 51
296.3037090338301
  0
LINE
  8
_0-0_
  6
CONTINUOUS
 62
    7
 10
2187.7548602270099
 20
1860.8161269729042
 11
2187.7079844196851
 21
1860.794295214647
  0
ARC
  8
_0-0_
  6
CONTINUOUS
 62
    7
 10
2174.5743439731095
 20
1888.994039449562
 40
31.108167517463077
 50
293.4099388404756
 51
294.97309779502007
  0
LINE
  8
_0-0_
  6
CONTINUOUS
 62
    7
 10
2186.9338392798518
 20
1860.4465183302573
 11
2186.8858916083486
 21
1860.4257596444702
  0
ARC
  8
_0-0_
  6
CONTINUOUS
 62
    7
 10
2172.4881561667062
 20
1893.6811350776616
 40
36.238305438445167
 50
291.9028564726184
 51
293.4099388404743
  0
LINE
  8
_0-0_
  6
CONTINUOUS
 62
    7
 10
2186.0062776200407
 20
1860.0585954141718
 11
2185.9941148677249
 21
1860.0537053147132
  0
ARC
  8
_0-0_
  6
CONTINUOUS
 62
    7
 10
2171.9550100700071
 20
1894.9720450803893
 40
37.63491617517542
 50
290.41178705502642
 51
291.90285647261652
  0
LINE
  8
_0-0_
  6
CONTINUOUS
 62
    7
 10
2185.0807463534275
 20
1859.7002154917418
 11
2185.0270939076195
 21
1859.6802497609347
  0
ARC
  8
_0-0_
  6
CONTINUOUS
 62
    7
 10
2172.7788178806445
 20
1892.5941446807872
 40
35.119008306443867
 50
288.62715831472758
 51
290.411787055025
  0
LINE
  8
_0-0_
  6
CONTINUOUS
 62
    7
 10
2183.9961282627651
 20
1859.3147713059889
 11
2183.8540325986337
 21
1859.266875837809
  0
ARC
  8
_0-0_
  6
CONTINUOUS
 62
    7
 10
2173.4060682043137
 20
1890.2637633483396
 40
32.710349972531063
 50
287.00295962362941
 51
288.62715831472082
  0
LINE
  8
_0-0_
  6
CONTINUOUS
 62
    7
 10
2182.9712648039576
 20
1858.9831941505831
 11
2182.8789516183483
 21
1858.9549659631896
  0
ARC
  8
_0-0_
  6
CONTINUOUS
 62
    7
 10
2170.0276247370584
 20
1900.9819975672935
 40
43.948014608877308
 50
286.04571822729031
 51
287.00295962364834
  0
ARC
  8
_0-0_
  6
CONTINUOUS
 62
    7
 10
2169.3325426392662
 20
1903.3987571064015
 40
46.462744374188617
 50
285.14028393806126
 51
286.04571822727485
  0
LINE
  8
_0-0_
  6
CONTINUOUS
 62
    7
 10
2181.4678334881851
 20
1858.5487701410375
 11
2181.4623069973509
 21
1858.5472748100867
  0
ARC
  8
_0-0_
  6
CONTINUOUS
 62
    7
 10
2168.3827618222663
 20
1906.887066407885
 40
50.078038636768213
 50
284.28711335221794
 51
285.14028393806188
  0
LINE
  8
_0-0_
  6
CONTINUOUS
 62
    7
 10
2180.7410733224874
 20
1858.35787838079
 11
2180.6955112861219
 21
1858.3462756760903
  0
ARC
  8
_0-0_
  6
CONTINUOUS
 62
    7
 10
2168.7647911982672
 20
1905.1963780085541
 40
48.345363483762291
 50
283.29193316918708
 51
284.28711335222556
  0
LINE
  8
_0-0_
  6
CONTINUOUS
 62
    7
 10
2179.8800051374556
 20
1858.1461262614789
 11
2179.6389431012894
 21
1858.0891774460083
  0
ARC
  8
_0-0_
  6
CONTINUOUS
 62
    7
 10
2170.1132318537207
 20
1898.4111284871904
 40
41.431858642107464
 50
281.44574551036288
 51
283.29193316918304
  0
LINE
  8
_0-0_
  6
CONTINUOUS
 62
    7
 10
2178.3349672054856
 20
1857.8032231195764
 11
2177.8961813661458
 21
1857.7143837417632
  0
ARC
  8
_0-0_
  6
CONTINUOUS
 62
    7
 10
2170.9511636032412
 20
1892.01646378037
 40
34.998085186221942
 50
279.98217491240848
 51
281.4457455103605
  0
LINE
  8
_0-0_
  6
CONTINUOUS
 62
    7
 10
2177.0177943082326
 20
1857.548189112332
 11
2176.8114104760884
 21
1857.5118642743423
  0
ARC
  8
_0-0_
  6
CONTINUOUS
 62
    7
 10
2166.6462761698212
 20
1915.2662683816027
 40
58.642144821358507
 50
279.51814960654815
 51
279.9821749124182
  0
ARC
  8
_0-0_
  6
CONTINUOUS
 62
    7
 10
2170.1630149732646
 20
1894.2918833229978
 40
37.374980450002582
 50
278.79008978041514
 51
279.51814960655668
  0
LINE
  8
_0-0_
  6
CONTINUOUS
 62
    7
 10
2175.8744690273834
 20
1857.3558784466477
 11
2175.5289703609033
 21
1857.3024536172443
  0
ARC
  8
_0-0_
  6
CONTINUOUS
 62
    7
 10
2171.4012289898869
 20
1883.9965798350981
 40
27.011379516061673
 50
276.29992591247117
 51
278.79008978041901
  0
LINE
  8
_0-0_
  6
CONTINUOUS
 62
    7
 10
2174.3652693959875
 20
1857.148319410413
 11
2173.9514454255827
 21
1857.1026333603713
  0
ARC
  8
_0-0_
  6
CONTINUOUS
 62
    7
 10
2169.7859895032111
 20
1894.833308408236
 40
37.959911256598076
 50
274.88856117132616
 51
276.29992591247361
  0
LINE
  8
_0-0_
  6
CONTINUOUS
 62
    7
 10
2173.0208574430308
 20
1857.0114828042185
 11
2172.9215508021744
 21
1857.0029891933582
  0
ARC
  8
_0-0_
  6
CONTINUOUS
 62
    7
 10
2168.2159821897685
 20
1912.0201332427916
 40
55.21800897643984
 50
274.1251124878487
 51
274.88856117133116
  0
ARC
  8
_0-0_
  6
CONTINUOUS
 62
    7
 10
2167.3111373803231
 20
1924.5662589028311
 40
67.796721677136958
 50
273.50330769860022
 51
274.12511248783801
  0
LINE
  8
_0-0_
  6
CONTINUOUS
 62
    7
 10
2171.4539348372332
 20
1856.8962308298489
 11
2171.4452262098389
 21
1856.895697682746
  0
ARC
  8
_0-0_
  6
CONTINUOUS
 62
    7
 10
2166.3168903221226
 20
1940.6638850243799
 40
83.925020342447695
 50
272.98908376771783
 51
273.50330769860562
  0
LINE
  8
_0-0_
  6
CONTINUOUS
 62
    7
 10
2170.6932186012627
 20
1856.8530456879698
 11
2170.6240037357484
 21
1856.8494315137691
  0
ARC
  8
_0-0_
  6
CONTINUOUS
 62
    7
 10
2165.2479133324432
 20
1959.806664223609
 40
103.09749810394392
 50
272.53606286334622
 51
272.98908376771385
  0
LINE
  8
_0-0_
  6
CONTINUOUS
 62
    7
 10
2169.8097915657982
 20
1856.8101430091683
 11
2169.7995088776261
 21
1856.8096875727051
  0
ARC
  8
_0-0_
  6
CONTINUOUS
 62
    7
 10
2165.5481427427476
 20
1952.7955731884476
 40
96.079989339357923
 50
272.06223015873223
 51
272.53606286335582
  0
LINE
  8
_0-0_
  6
CONTINUOUS
 62
    7
 10
2169.0055749554876
 20
1856.7778117380499
 11
2168.892503017772
 21
1856.7737402146784
  0
ARC
  8
_0-0_
  6
CONTINUOUS
 62
    7
 10
2167.617411671662
 20
1892.1848225339193
 40
35.434031790934995
 50
271.14334189845061
 51
272.06223015872757
  0
LINE
  8
_0-0_
  6
CONTINUOUS
 62
    7
 10
2168.3244537053529
 20
1856.7578455174767
 11
2168.2150604786566
 21
1856.7556622770198
  0
ARC
  8
_0-0_
  6
CONTINUOUS
 62
    7
 10
2165.8527670293602
 20
1975.1205002175466
 40
118.38840860079048
 50
270.97421586018299
 51
271.14334189844203
  0
ARC
  8
_0-0_
  6
CONTINUOUS
 62
    7
 10
2165.1296805818856
 20
2017.6427077354656
 40
160.91676368545762
 50
270.84978774759918
 51
270.97421586020778
  0
LINE
  8
_0-0_
  6
CONTINUOUS
 62
    7
 10
2167.5162452108411
 20
1856.74364265343
 11
2167.4604671925276
 21
1856.7428153158348
  0
LINE
  8
_0-0_
  6
CONTINUOUS
 62
    7
 10
2167.4604671925276
 20
1856.7428153158348
 11
2167.4530315804659
 21
1856.7427039499516
  0
LINE
  8
_0-0_
  6
CONTINUOUS
 62
    7
 10
2167.4530315804659
 20
1856.7427050609531
 11
1645.4530315804659
 21
1856.7427050609531
  0
LINE
  8
_0-0_
  6
CONTINUOUS
 62
    7
 10
1645.4530315804652
 20
1836.7427050609531
 11
2167.4530315804654
 21
1836.7427050609531
  0
LINE
  8
_0-0_
  6
CONTINUOUS
 62
    7
 10
2216.453031580465
 20
1869.1408566883492
 11
2216.453031580465
 21
1873.040999138781
  0
LINE
  8
_0-0_
  6
CONTINUOUS
 62
    7
 10
2196.453031580465
 20
1873.040999138781
 11
2196.453031580465
 21
1869.1408566883497
  0
LINE
  8
_0-0_
  6
CONTINUOUS
 62
    7
 10
1596.4530315804654
 20
1873.0409991387808
 11
1596.4530315804654
 21
1869.1408566883497
  0
LINE
  8
_0-0_
  6
CONTINUOUS
 62
    7
 10
1616.4530315804654
 20
1869.1408566883497
 11
1616.4530315804654
 21
1873.0409991387808
  0
LINE
  8
_0-0_
  6
CONTINUOUS
 62
    7
 10
1606.4530315804618
 20
1961.040999138781
 11
1646.4530315804618
 21
1961.040999138781
  0
LINE
  8
_0-0_
  6
CONTINUOUS
 62
    7
 10
1646.4530315804618
 20
1981.040999138781
 11
1606.4530315804618
 21
1981.040999138781
  0
LINE
  8
_0-0_
  6
CONTINUOUS
 62
    7
 10
2166.4530315804623
 20
1981.040999138781
 11
1646.4530315804618
 21
1981.040999138781
  0
LINE
  8
_0-0_
  6
CONTINUOUS
 62
    7
 10
1646.4530315804618
 20
1961.040999138781
 11
2166.4530315804623
 21
1961.040999138781
  0
LINE
  8
_0-0_
  6
CONTINUOUS
 62
    7
 10
2166.4530315804623
 20
1961.040999138781
 11
2206.4530315804618
 21
1961.040999138781
  0
LINE
  8
_0-0_
  6
CONTINUOUS
 62
    7
 10
2206.4530315804618
 20
1981.040999138781
 11
2166.4530315804623
 21
1981.040999138781
  0
CIRCLE
  8
_0-0_
  6
CONTINUOUS
 62
    7
 10
2206.4530315804659
 20
1899.5409991387805
 40
5.4999999999998295
  0
CIRCLE
  8
_0-0_
  6
CONTINUOUS
 62
    7
 10
2206.4530315804659
 20
1944.5409991387805
 40
5.5000000000001137
  0
CIRCLE
  8
_0-0_
  6
CONTINUOUS
 62
    7
 10
1606.4530315804659
 20
1899.5409991387805
 40
5.4999999999998295
  0
ARC
  8
_0-0_
  6
CONTINUOUS
 62
    7
 10
2206.453031580465
 20
1873.040999138781
 40
10
 50
0.0000000002271679
 51
179.99999999998536
  0
ARC
  8
_0-0_
  6
CONTINUOUS
 62
    7
 10
1606.4530315804652
 20
1873.0409991387808
 40
10.000000000000142
 50
0
 51
179.99999999999918
  0
CIRCLE
  8
_0-0_
  6
CONTINUOUS
 62
    7
 10
1606.4530315804659
 20
1899.5409991387805
 40
5.6999999999999318
  0
ARC
  8
_0-0_
  6
CONTINUOUS
 62
    7
 10
1606.4530315804659
 20
1971.0409991387805
 40
10.999999999999972
 50
65.380022671346765
 51
179.99999999999923
  0
LINE
  8
_0-0_
  6
CONTINUOUS
 62
    7
 10
1617.4530315804657
 20
1961.040999138781
 11
1617.4530315804657
 21
1873.0409991387805
  0
CIRCLE
  8
_0-0_
  6
CONTINUOUS
 62
    7
 10
1606.4530315804659
 20
1944.5409991387805
 40
5.6999999999999318
  0
LINE
  8
_0-0_
  6
CONTINUOUS
 62
    7
 10
1595.4530315804659
 20
1971.0409991387805
 11
1595.4530315804659
 21
1873.0409991387805
  0
ARC
  8
_0-0_
  6
CONTINUOUS
 62
    7
 10
1606.4530315804659
 20
1873.0409991387805
 40
10.999999999999943
 50
179.99999999999923
 51
203.40509198415239
  0
ARC
  8
_0-0_
  6
CONTINUOUS
 62
    7
 10
1606.4530315804659
 20
1873.0409991387805
 40
11.00000000000003
 50
336.48976905208309
 51
0.0000000000000063
  0
CIRCLE
  8
_0-0_
  6
CONTINUOUS
 62
    7
 10
2206.4530315804659
 20
1899.5409991387805
 40
5.7000000000000739
  0
LINE
  8
_0-0_
  6
CONTINUOUS
 62
    7
 10
2217.4530315804659
 20
1971.0409991387805
 11
2217.4530315804659
 21
1873.0409991387805
  0
ARC
  8
_0-0_
  6
CONTINUOUS
 62
    7
 10
2206.4530315804659
 20
1873.0409991387805
 40
11.000000000000085
 50
179.99999999999923
 51
202.86441835573339
  0
ARC
  8
_0-0_
  6
CONTINUOUS
 62
    7
 10
2206.4530315804659
 20
1873.0409991387805
 40
11.000000000000041
 50
335.43064173492945
 51
0.0000000000000095
  0
CIRCLE
  8
_0-0_
  6
CONTINUOUS
 62
    7
 10
2206.4530315804659
 20
1944.5409991387805
 40
5.7000000000000739
  0
LINE
  8
_0-0_
  6
CONTINUOUS
 62
    7
 10
2195.4530315804659
 20
1961.040999138781
 11
2195.4530315804659
 21
1873.0409991387805
  0
ARC
  8
_0-0_
  6
CONTINUOUS
 62
    7
 10
2206.4530315804659
 20
1971.0409991387805
 40
11.000000000000085
 50
0
 51
114.61997732865295
  0
ARC
  8
_0-0_
  6
CONTINUOUS
 62
    7
 10
1606.4530315804618
 20
1971.040999138781
 40
10
 50
90
 51
270.0000000000008
  0
ARC
  8
_0-0_
  6
CONTINUOUS
 62
    7
 10
2206.4530315804618
 20
1971.040999138781
 40
10
 50
270.0000000000008
 51
90
  0
LINE
  8
_0-0_
  6
CONTINUOUS
 62
    8
 10
2216.3182324538861
 20
1866.7731877888511
 11
2216.3418068120377
 21
1868.0222725187659
  0
LINE
  8
_0-0_
  6
CONTINUOUS
 62
    8
 10
2216.3418068120377
 20
1868.0222725187659
 11
2216.123280171128
 21
1869.4091238118908
  0
LINE
  8
_0-0_
  6
CONTINUOUS
 62
    8
 10
2216.123280171128
 20
1869.4091238118908
 11
2215.6522217565516
 21
1870.7547137731804
  0
LINE
  8
_0-0_
  6
CONTINUOUS
 62
    8
 10
2215.6522217565516
 20
1870.7547137731804
 11
2214.9408317338102
 21
1872.0241923294411
  0
LINE
  8
_0-0_
  6
CONTINUOUS
 62
    8
 10
2214.9408317338102
 20
1872.0241923294411
 11
2214.007534730817
 21
1873.1846806528943
  0
LINE
  8
_0-0_
  6
CONTINUOUS
 62
    8
 10
2214.007534730817
 20
1873.1846806528943
 11
2212.8765026497108
 21
1874.2061227055376
  0
LINE
  8
_0-0_
  6
CONTINUOUS
 62
    8
 10
2212.8765026497108
 20
1874.2061227055376
 11
2211.5770286272882
 21
1875.0620636747472
  0
LINE
  8
_0-0_
  6
CONTINUOUS
 62
    8
 10
2211.5770286272882
 20
1875.0620636747472
 11
2210.1427683581487
 21
1875.7303351390249
  0
LINE
  8
_0-0_
  6
CONTINUOUS
 62
    8
 10
2210.1427683581487
 20
1875.7303351390249
 11
2208.6108684298797
 21
1876.1936292184737
  0
LINE
  8
_0-0_
  6
CONTINUOUS
 62
    8
 10
2208.6108684298797
 20
1876.1936292184737
 11
2207.0210042459544
 21
1876.4399468397919
  0
LINE
  8
_0-0_
  6
CONTINUOUS
 62
    8
 10
2207.0210042459544
 20
1876.4399468397919
 11
2205.4143524536184
 21
1876.4629085059732
  0
LINE
  8
_0-0_
  6
CONTINUOUS
 62
    8
 10
2205.4143524536184
 20
1876.4629085059732
 11
2203.8325244903576
 21
1876.261919521924
  0
LINE
  8
_0-0_
  6
CONTINUOUS
 62
    8
 10
2203.8325244903576
 20
1876.261919521924
 11
2202.3164888695255
 21
1875.8421853967568
  0
LINE
  8
_0-0_
  6
CONTINUOUS
 62
    8
 10
2202.3164888695255
 20
1875.8421853967568
 11
2200.9055101173644
 21
1875.2145770238371
  0
LINE
  8
_0-0_
  6
CONTINUOUS
 62
    8
 10
2200.9055101173644
 20
1875.2145770238371
 11
2199.6361318424019
 21
1874.3953491303564
  0
LINE
  8
_0-0_
  6
CONTINUOUS
 62
    8
 10
2199.6361318424019
 20
1874.3953491303564
 11
2198.5412302751861
 21
1873.4057192884343
  0
LINE
  8
_0-0_
  6
CONTINUOUS
 62
    8
 10
2198.5412302751861
 20
1873.4057192884343
 11
2197.6491627911828
 21
1872.271318391149
  0
LINE
  8
_0-0_
  6
CONTINUOUS
 62
    8
 10
2197.6491627911828
 20
1872.271318391149
 11
2196.9830334696453
 21
1871.021526825866
  0
LINE
  8
_0-0_
  6
CONTINUOUS
 62
    8
 10
2196.9830334696453
 20
1871.021526825866
 11
2196.5600947101007
 21
1869.6887135376414
  0
LINE
  8
_0-0_
  6
CONTINUOUS
 62
    8
 10
2196.5600947101007
 20
1869.6887135376414
 11
2196.4309187403483
 21
1868.8922259524177
  0
LINE
  8
_0-0_
  6
CONTINUOUS
 62
    8
 10
2216.453031580465
 20
1869.1408566883847
 11
2216.3235342068374
 21
1870.5845523569615
  0
LINE
  8
_0-0_
  6
CONTINUOUS
 62
    8
 10
2216.3235342068374
 20
1870.5845523569615
 11
2215.9383959999236
 21
1871.9908570660598
  0
LINE
  8
_0-0_
  6
CONTINUOUS
 62
    8
 10
2215.9383959999236
 20
1871.9908570660598
 11
2215.3075918369786
 21
1873.3233482624114
  0
LINE
  8
_0-0_
  6
CONTINUOUS
 62
    8
 10
2215.3075918369786
 20
1873.3233482624114
 11
2214.4474592144761
 21
1874.5475151239568
  0
LINE
  8
_0-0_
  6
CONTINUOUS
 62
    8
 10
2214.4474592144761
 20
1874.5475151239568
 11
2213.3802751155322
 21
1875.6316523720068
  0
LINE
  8
_0-0_
  6
CONTINUOUS
 62
    8
 10
2213.3802751155322
 20
1875.6316523720068
 11
2212.1336790477435
 21
1876.5476814213082
  0
LINE
  8
_0-0_
  6
CONTINUOUS
 62
    8
 10
2212.1336790477435
 20
1876.5476814213082
 11
2210.7399571944597
 21
1877.2718776006518
  0
LINE
  8
_0-0_
  6
CONTINUOUS
 62
    8
 10
2210.7399571944597
 20
1877.2718776006518
 11
2209.2352062195914
 21
1877.785484609396
  0
LINE
  8
_0-0_
  6
CONTINUOUS
 62
    8
 10
2209.2352062195914
 20
1877.785484609396
 11
2207.6583983829787
 21
1878.0752002957984
  0
LINE
  8
_0-0_
  6
CONTINUOUS
 62
    8
 10
2207.6583983829787
 20
1878.0752002957984
 11
2206.0503721793311
 21
1878.133521175763
  0
LINE
  8
_0-0_
  6
CONTINUOUS
 62
    8
 10
2206.0503721793311
 20
1878.133521175763
 11
2204.4527746426656
 21
1877.9589367691328
  0
LINE
  8
_0-0_
  6
CONTINUOUS
 62
    8
 10
2204.4527746426656
 20
1877.9589367691328
 11
2202.9069827100025
 21
1877.5559687203347
  0
LINE
  8
_0-0_
  6
CONTINUOUS
 62
    8
 10
2202.9069827100025
 20
1877.5559687203347
 11
2201.4530315804304
 21
1876.9350536901629
  0
LINE
  8
_0-0_
  6
CONTINUOUS
 62
    8
 10
2201.4530315804304
 20
1876.9350536901629
 11
2200.1285778244805
 21
1876.1122730517473
  0
LINE
  8
_0-0_
  6
CONTINUOUS
 62
    8
 10
2200.1285778244805
 20
1876.1122730517473
 11
2198.9679240987275
 21
1875.1089363914366
  0
LINE
  8
_0-0_
  6
CONTINUOUS
 62
    8
 10
2198.9679240987275
 20
1875.1089363914366
 11
2198.0011307250056
 21
1873.9510296017036
  0
LINE
  8
_0-0_
  6
CONTINUOUS
 62
    8
 10
2198.0011307250056
 20
1873.9510296017036
 11
2197.253237143861
 21
1872.6685418601824
  0
LINE
  8
_0-0_
  6
CONTINUOUS
 62
    8
 10
2197.253237143861
 20
1872.6685418601824
 11
2196.743613406195
 21
1871.2946889257187
  0
LINE
  8
_0-0_
  6
CONTINUOUS
 62
    8
 10
2196.743613406195
 20
1871.2946889257187
 11
2196.4854584991194
 21
1869.8650528676626
  0
LINE
  8
_0-0_
  6
CONTINUOUS
 62
    8
 10
2196.4854584991194
 20
1869.8650528676626
 11
2196.4531709313369
 21
1869.1883693190412
  0
LINE
  8
_0-0_
  6
CONTINUOUS
 62
    8
 10
1596.4530315804654
 20
1869.1408566883497
 11
1596.5825289540862
 21
1870.5845523569267
  0
LINE
  8
_0-0_
  6
CONTINUOUS
 62
    8
 10
1596.5825289540862
 20
1870.5845523569267
 11
1596.9676671609941
 21
1871.9908570660259
  0
LINE
  8
_0-0_
  6
CONTINUOUS
 62
    8
 10
1596.9676671609941
 20
1871.9908570660259
 11
1597.5984713239334
 21
1873.32334826238
  0
LINE
  8
_0-0_
  6
CONTINUOUS
 62
    8
 10
1597.5984713239334
 20
1873.32334826238
 11
1598.4586039464305
 21
1874.5475151239284
  0
LINE
  8
_0-0_
  6
CONTINUOUS
 62
    8
 10
1598.4586039464305
 20
1874.5475151239284
 11
1599.5257880453696
 21
1875.6316523719825
  0
LINE
  8
_0-0_
  6
CONTINUOUS
 62
    8
 10
1599.5257880453696
 20
1875.6316523719825
 11
1600.772384113154
 21
1876.547681421288
  0
LINE
  8
_0-0_
  6
CONTINUOUS
 62
    8
 10
1600.772384113154
 20
1876.547681421288
 11
1602.1661059664348
 21
1877.2718776006366
  0
LINE
  8
_0-0_
  6
CONTINUOUS
 62
    8
 10
1602.1661059664348
 20
1877.2718776006366
 11
1603.6708569413008
 21
1877.7854846093855
  0
LINE
  8
_0-0_
  6
CONTINUOUS
 62
    8
 10
1603.6708569413008
 20
1877.7854846093855
 11
1605.2476647779122
 21
1878.0752002957943
  0
LINE
  8
_0-0_
  6
CONTINUOUS
 62
    8
 10
1605.2476647779122
 20
1878.0752002957943
 11
1606.8556909815595
 21
1878.1335211757641
  0
LINE
  8
_0-0_
  6
CONTINUOUS
 62
    8
 10
1606.8556909815595
 20
1878.1335211757641
 11
1608.4532885182259
 21
1877.9589367691397
  0
LINE
  8
_0-0_
  6
CONTINUOUS
 62
    8
 10
1608.4532885182259
 20
1877.9589367691397
 11
1609.9990804508909
 21
1877.5559687203468
  0
LINE
  8
_0-0_
  6
CONTINUOUS
 62
    8
 10
1609.9990804508909
 20
1877.5559687203468
 11
1611.4530315804654
 21
1876.9350536901807
  0
LINE
  8
_0-0_
  6
CONTINUOUS
 62
    8
 10
1611.4530315804654
 20
1876.9350536901807
 11
1612.7774853364194
 21
1876.1122730517695
  0
LINE
  8
_0-0_
  6
CONTINUOUS
 62
    8
 10
1612.7774853364194
 20
1876.1122730517695
 11
1613.9381390621766
 21
1875.108936391463
  0
LINE
  8
_0-0_
  6
CONTINUOUS
 62
    8
 10
1613.9381390621766
 20
1875.108936391463
 11
1614.9049324359039
 21
1873.9510296017334
  0
LINE
  8
_0-0_
  6
CONTINUOUS
 62
    8
 10
1614.9049324359039
 20
1873.9510296017334
 11
1615.6528260170535
 21
1872.6685418602151
  0
LINE
  8
_0-0_
  6
CONTINUOUS
 62
    8
 10
1615.6528260170535
 20
1872.6685418602151
 11
1616.1624497547257
 21
1871.2946889257528
  0
LINE
  8
_0-0_
  6
CONTINUOUS
 62
    8
 10
1616.1624497547257
 20
1871.2946889257528
 11
1616.4206046618074
 21
1869.8650528676978
  0
LINE
  8
_0-0_
  6
CONTINUOUS
 62
    8
 10
1616.4206046618074
 20
1869.8650528676978
 11
1616.4529363892075
 21
1869.1801259959243
  0
LINE
  8
_0-0_
  6

 62
    7
 10
1606.4530315804659
 20
1981.0409991387805
 11
1606.4530315804659
 21
1829.1497340543285
  0
LINE
  8
_0-0_
  6

 62
    7
 10
2206.4530315804659
 20
1981.0409991387805
 11
2206.4530315804659
 21
1831.9797649889538
  0
LINE
  8
_0-0_
  6
CONTINUOUS
 62
    7
 10
2167.4530296652038
 20
1524.4546540159993
 11
2167.5586520559709
 21
1524.4568273822961
  0
ARC
  8
_0-0_
  6
CONTINUOUS
 62
    7
 10
2165.0880419812329
 20
1644.5248265652256
 40
120.09341506482926
 50
271.17879499782981
 51
271.4574548337597
  0
LINE
  8
_0-0_
  6
CONTINUOUS
 62
    7
 10
2168.1425750458448
 20
1524.4702632629899
 11
2168.2357684480294
 21
1524.4726343709306
  0
ARC
  8
_0-0_
  6
CONTINUOUS
 62
    7
 10
2166.5497194638797
 20
1590.7406597016075
 40
66.289470826098608
 50
271.45745483375379
 51
271.80113800835409
  0
ARC
  8
_0-0_
  6
CONTINUOUS
 62
    7
 10
2167.1273022672749
 20
1572.37329688313
 40
47.913028874502871
 50
271.80113800835363
 51
272.27663525540657
  0
LINE
  8
_0-0_
  6
CONTINUOUS
 62
    7
 10
2169.0306150461233
 20
1524.4980868429138
 11
2169.072505934515
 21
1524.4997522447602
  0
ARC
  8
_0-0_
  6
CONTINUOUS
 62
    7
 10
2167.6732017751697
 20
1559.6973200240952
 40
35.225371959870849
 50
272.27663525540692
 51
273.05977386498699
  0
LINE
  8
_0-0_
  6
CONTINUOUS
 62
    7
 10
2169.5534528234652
 20
1524.5221656433873
 11
2169.5953179979056
 21
1524.5244035024532
  0
ARC
  8
_0-0_
  6
CONTINUOUS
 62
    7
 10
2167.0337337995356
 20
1572.445727475887
 40
47.989738538276505
 50
273.05977386498961
 51
273.666352728079
  0
ARC
  8
_0-0_
  6
CONTINUOUS
 62
    7
 10
2166.472179038723
 20
1581.2094206508909
 40
56.771404770546717
 50
273.6663527280781
 51
274.17910449337239
  0
ARC
  8
_0-0_
  6
CONTINUOUS
 62
    7
 10
2165.3946363009104
 20
1595.9563899950874
 40
71.557689063447683
 50
274.17910450456088
 51
274.58590508398356
  0
LINE
  8
_0-0_
  6
CONTINUOUS
 62
    7
 10
2171.1159391362621
 20
1524.6277873313084
 11
2171.2413811212227
 21
1524.6378490955576
  0
ARC
  8
_0-0_
  6
CONTINUOUS
 62
    7
 10
2166.2487872646916
 20
1586.8814942411068
 40
62.443553345572305
 50
274.58590508398743
 51
275.28301554452935
  0
LINE
  8
_0-0_
  6
CONTINUOUS
 62
    7
 10
2171.9983034199045
 20
1524.7031988447045
 11
2172.0086860744723
 21
1524.7041589102673
  0
ARC
  8
_0-0_
  6
CONTINUOUS
 62
    7
 10
2162.4661413289086
 20
1627.902262890789
 40
103.63835595664213
 50
275.28301554452673
 51
275.71456638865254
  0
LINE
  8
_0-0_
  6
CONTINUOUS
 62
    7
 10
2172.7856944256482
 20
1524.7789597567291
 11
2172.8071691040905
 21
1524.7811087286655
  0
ARC
  8
_0-0_
  6
CONTINUOUS
 62
    7
 10
2168.1233957771929
 20
1571.5860596865912
 40
47.03871986727097
 50
275.71456638865584
 51
276.71793835250025
  0
LINE
  8
_0-0_
  6
CONTINUOUS
 62
    7
 10
2173.6260640892788
 20
1524.8703042265888
 11
2173.8946817112042
 21
1524.9019448082659
  0
ARC
  8
_0-0_
  6
CONTINUOUS
 62
    7
 10
2169.2621618186881
 20
1564.2304404014146
 40
39.600388964944443
 50
276.71793835249804
 51
277.87584216715936
  0
ARC
  8
_0-0_
  6
CONTINUOUS
 62
    7
 10
2164.7389929699111
 20
1596.9284232062137
 40
72.609738185089213
 50
277.87584216716124
 51
278.50736266312873
  0
LINE
  8
_0-0_
  6
CONTINUOUS
 62
    7
 10
2175.4806235850388
 20
1525.1176200423765
 11
2175.5641087451213
 21
1525.130107951047
  0
ARC
  8
_0-0_
  6
CONTINUOUS
 62
    7
 10
2171.165541259149
 20
1554.5357610827937
 40
29.732807335219213
 50
278.50736266313498
 51
280.37476843371826
  0
LINE
  8
_0-0_
  6
CONTINUOUS
 62
    7
 10
2176.5200032604525
 20
1525.2890592395113
 11
2176.6508561773194
 21
1525.3130156833822
  0
ARC
  8
_0-0_
  6
CONTINUOUS
 62
    7
 10
2168.0971779409315
 20
1572.0342132532176
 40
47.497744301505797
 50
280.37476843371496
 51
281.8050274472177
  0
LINE
  8
_0-0_
  6
CONTINUOUS
 62
    7
 10
2177.8143587235622
 20
1525.541072776703
 11
2177.8359605353289
 21
1525.5455876085261
  0
ARC
  8
_0-0_
  6
CONTINUOUS
 62
    7
 10
2170.8672471812733
 20
1558.8883210780839
 40
34.063188943975447
 50
281.80502744721491
 51
283.72506527370501
  0
ARC
  8
_0-0_
  6
CONTINUOUS
 62
    7
 10
2166.5645091435736
 20
1576.5053643238825
 40
52.198066041585363
 50
283.72506527370621
 51
284.97810260688971
  0
LINE
  8
_0-0_
  6
CONTINUOUS
 62
    7
 10
2180.0550923761871
 20
1526.0807447167344
 11
2180.0575668946644
 21
1526.0814067484509
  0
ARC
  8
_0-0_
  6
CONTINUOUS
 62
    7
 10
2170.3923556754885
 20
1562.2076876323945
 40
37.396851183179592
 50
284.97810260689141
 51
286.73485791687307
  0
LINE
  8
_0-0_
  6
CONTINUOUS
 62
    7
 10
2181.1605243711965
 20
1526.3946869014078
 11
2181.2658340180869
 21
1526.4263511579588
  0
ARC
  8
_0-0_
  6
CONTINUOUS
 62
    7
 10
2167.7236799870516
 20
1571.4651303522346
 40
47.030644978684045
 50
286.73485791687079
 51
288.35710335133069
  0
LINE
  8
_0-0_
  6
CONTINUOUS
 62
    7
 10
2182.5354424964321
 20
1526.8277776252107
 11
2182.5365103807276
 21
1526.8281319752696
  0
ARC
  8
_0-0_
  6
CONTINUOUS
 62
    7
 10
2166.8721353071173
 20
1574.0349539160209
 40
49.737879771784925
 50
288.35710335133365
 51
289.88846899563418
  0
ARC
  8
_0-0_
  6
CONTINUOUS
 62
    7
 10
2165.6991366448715
 20
1577.2773656633797
 40
53.185945867589943
 50
289.88846899563373
 51
291.32056628927683
  0
LINE
  8
_0-0_
  6
CONTINUOUS
 62
    7
 10
2185.0367826594975
 20
1527.7314245133398
 11
2185.2455386959664
 21
1527.8129014263409
  0
ARC
  8
_0-0_
  6
CONTINUOUS
 62
    7
 10
2169.3737466997441
 20
1568.4788062420448
 40
43.653517563321593
 50
291.32056628927546
 51
293.58264752697846
  0
LINE
  8
_0-0_
  6
CONTINUOUS
 62
    7
 10
2186.83827436713
 20
1528.4710586297842
 11
2187.0447575395347
 21
1528.561194448283
  0
ARC
  8
_0-0_
  6
CONTINUOUS
 62
    7
 10
2165.6690850036894
 20
1577.5285944343341
 40
53.429632581121574
 50
293.5826475269804
 51
294.94780355572664
  0
LINE
  8
_0-0_
  6
CONTINUOUS
 62
    7
 10
2188.2053001124332
 20
1529.0843517802678
 11
2188.2089760847202
 21
1529.0860618390416
  0
ARC
  8
_0-0_
  6
CONTINUOUS
 62
    7
 10
2166.2191202153963
 20
1576.355841104157
 40
52.13430533656669
 50
294.94780355572675
 51
296.33796489211909
  0
LINE
  8
_0-0_
  6
CONTINUOUS
 62
    7
 10
2189.3492928667415
 20
1529.6334598929502
 11
2189.4280720274592
 21
1529.6724599511981
  0
ARC
  8
_0-0_
  6
CONTINUOUS
 62
    7
 10
2169.6842552093444
 20
1569.5544854702148
 40
44.501620892353621
 50
296.33796489211812
 51
297.74021603826179
  0
LINE
  8
_0-0_
  6
CONTINUOUS
 62
    7
 10
2190.3981305736452
 20
1530.1675634092185
 11
2190.5748845245521
 21
1530.2605196271115
  0
ARC
  8
_0-0_
  6
CONTINUOUS
 62
    7
 10
2173.6380056965031
 20
1562.4655761230372
 40
36.387134104539641
 50
297.74021603826378
 51
298.82630496865534
  0
ARC
  8
_0-0_
  6
CONTINUOUS
 62
    7
 10
2157.8715870757392
 20
1591.1134223881095
 40
69.086966699713599
 50
298.82630496865841
 51
299.39834511696546
  0
LINE
  8
_0-0_
  6
CONTINUOUS
 62
    7
 10
2191.7848998769819
 20
1530.9229232822506
 11
2191.7967662808651
 21
1530.9296092056552
  0
ARC
  8
_0-0_
  6
CONTINUOUS
 62
    7
 10
2176.217358205558
 20
1558.580471665553
 40
31.737803180956465
 50
299.3983451169633
 51
300.69269662799638
  0
LINE
  8
_0-0_
  6
CONTINUOUS
 62
    7
 10
2192.4173901420459
 20
1531.288584299343
 11
2192.5296790401571
 21
1531.3552372101917
  0
ARC
  8
_0-0_
  6
CONTINUOUS
 62
    7
 10
2172.3076938395725
 20
1565.4228331618037
 40
39.617291418961798
 50
300.69269662799849
 51
302.01068985155263
  0
LINE
  8
_0-0_
  6
CONTINUOUS
 62
    7
 10
2193.307927759201
 20
1531.8293820932422
 11
2193.3468656366567
 21
1531.8537232820422
  0
ARC
  8
_0-0_
  6
CONTINUOUS
 62
    7
 10
2175.5635767011363
 20
1560.3011229148215
 40
33.548471071440041
 50
302.01068985155183
 51
303.41025402956177
  0
LINE
  8
_0-0_
  6
CONTINUOUS
 62
    7
 10
2194.0363760620094
 20
1532.2965590902559
 11
2194.0734027937629
 21
1532.3209832302266
  0
ARC
  8
_0-0_
  6
CONTINUOUS
 62
    7
 10
2169.3738437048833
 20
1569.76524738481
 40
44.856896206306025
 50
303.41025402956222
 51
304.34370565641035
  0
ARC
  8
_0-0_
  6
CONTINUOUS
 62
    7
 10
2158.9508393051087
 20
1585.0197915281158
 40
63.332288969053216
 50
304.34370565640683
 51
305.00452934137451
  0
LINE
  8
_0-0_
  6
CONTINUOUS
 62
    7
 10
2195.2808489211116
 20
1533.1438893445311
 11
2195.2903437197133
 21
1533.1505388736105
  0
ARC
  8
_0-0_
  6
CONTINUOUS
 62
    7
 10
2135.9924361481085
 20
1617.8214506336953
 40
103.37023333946149
 50
305.00485678848054
 51
305.39667891871386
  0
LINE
  8
_0-0_
  6
CONTINUOUS
 62
    7
 10
2195.8679819745548
 20
1533.5580294318488
 11
2195.877322839945
 21
1533.5646668245126
  0
ARC
  8
_0-0_
  6
CONTINUOUS
 62
    7
 10
2006.8229387360389
 20
1799.6226873055455
 40
326.38693357913809
 50
305.3966789187096
 51
305.5167504947924
  0
LINE
  8
_0-0_
  6
CONTINUOUS
 62
    7
 10
2196.4344702794547
 20
1533.9614415112953
 11
2196.4530288307387
 21
1533.9746836651377
  0
LINE
  8
_0-0_
  6
CONTINUOUS
 62
    7
 10
2194.8577701179702
 20
1563.9541864473633
 11
2194.8443842727511
 21
1563.9146448655322
  0
ARC
  8
_0-0_
  6
CONTINUOUS
 62
    7
 10
2146.7912808485025
 20
1580.1818596542616
 40
50.731873863323436
 50
340.91813225198337
 51
341.29771430424279
  0
ARC
  8
_0-0_
  6
CONTINUOUS
 62
    7
 10
2182.5772409962651
 20
1567.8025415967031
 40
12.865233409390495
 50
339.42139422129577
 51
340.91813225198348
  0
LINE
  8
_0-0_
  6
CONTINUOUS
 62
    7
 10
2194.6215547716683
 20
1563.2805136934567
 11
2194.6065679135836
 21
1563.2405965533731
  0
ARC
  8
_0-0_
  6
CONTINUOUS
 62
    7
 10
2169.2753316603334
 20
1572.7511887960668
 40
27.057769585181607
 50
338.52913937742363
 51
339.42139422129674
  0
LINE
  8
_0-0_
  6
CONTINUOUS
 62
    7
 10
2194.4553959959458
 20
1562.8472877980164
 11
2194.4248809689279
 21
1562.7697052026665
  0
ARC
  8
_0-0_
  6
CONTINUOUS
 62
    7
 10
2174.1365545641315
 20
1570.7495726665095
 40
21.801249346036435
 50
336.98362512606366
 51
338.52913937742363
  0
LINE
  8
_0-0_
  6
CONTINUOUS
 62
    7
 10
2194.2022750512092
 20
1562.2254108670993
 11
2194.1503060564587
 21
1562.1030768069068
  0
ARC
  8
_0-0_
  6
CONTINUOUS
 62
    7
 10
2171.742956202248
 20
1571.6219912050362
 40
24.345411452836441
 50
334.97412501533915
 51
336.98362512606315
  0
LINE
  8
_0-0_
  6
CONTINUOUS
 62
    7
 10
2193.8027434638575
 20
1561.3232124045942
 11
2193.7698647717302
 21
1561.2527868747497
  0
ARC
  8
_0-0_
  6
CONTINUOUS
 62
    7
 10
2171.6794744638396
 20
1571.5658529391874
 40
24.379185294106623
 50
333.26592107584378
 51
334.97412501533751
  0
ARC
  8
_0-0_
  6
CONTINUOUS
 62
    7
 10
2163.9503519923433
 20
1575.4589583772702
 40
33.033409934790924
 50
332.0051967053875
 51
333.26592107584588
  0
LINE
  8
_0-0_
  6
CONTINUOUS
 62
    7
 10
2193.1185282502788
 20
1559.9533572697369
 11
2193.0959998044946
 21
1559.9109781531265
  0
ARC
  8
_0-0_
  6
CONTINUOUS
 62
    7
 10
2171.8340106041983
 20
1571.2137048089535
 40
24.07953102969115
 50
330.04739528211371
 51
332.00519670539154
  0
LINE
  8
_0-0_
  6
CONTINUOUS
 62
    7
 10
2192.6974483901809
 20
1559.1911934922487
 11
2192.6490139613843
 21
1559.1071421101979
  0
ARC
  8
_0-0_
  6
CONTINUOUS
 62
    7
 10
2166.1213529306501
 20
1574.3936499340409
 40
30.616892742568943
 50
328.15869050167981
 51
330.04739528211525
  0
LINE
  8
_0-0_
  6
CONTINUOUS
 62
    7
 10
2192.1307873729306
 20
1558.2411442088389
 11
2192.126001577511
 21
1558.2334379226234
  0
ARC
  8
_0-0_
  6
CONTINUOUS
 62
    7
 10
2166.2580722718594
 20
1574.2980654382993
 40
30.450320585826223
 50
326.29378447769102
 51
328.15869050168106
  0
ARC
  8
_0-0_
  6
CONTINUOUS
 62
    7
 10
2165.5300466102099
 20
1574.7837123114509
 40
31.3254630024778
 50
324.48096969230323
 51
326.29378447768994
  0
LINE
  8
_0-0_
  6
CONTINUOUS
 62
    7
 10
2191.0265488372197
 20
1556.584453906019
 11
2190.9362541872906
 21
1556.4579543700647
  0
ARC
  8
_0-0_
  6
CONTINUOUS
 62
    7
 10
2171.1685138795742
 20
1570.5680550712709
 40
24.287002669565645
 50
321.41003018757328
 51
324.48096969230096
  0
LINE
  8
_0-0_
  6
CONTINUOUS
 62
    7
 10
2190.1519559236904
 20
1555.419212645885
 11
2189.9605836918004
 21
1555.1793987003093
  0
ARC
  8
_0-0_
  6
CONTINUOUS
 62
    7
 10
2172.3525472800957
 20
1569.2306633972728
 40
22.5273386324276
 50
318.94388591891885
 51
321.41003018757692
  0
LINE
  8
_0-0_
  6
CONTINUOUS
 62
    7
 10
2189.3396629628996
 20
1554.434755630627
 11
2189.3129651187128
 21
1554.4041039548506
  0
ARC
  8
_0-0_
  6
CONTINUOUS
 62
    7
 10
2161.250888512257
 20
1578.8463874456181
 40
37.214316676645616
 50
317.57602918964017
 51
318.9438859189255
  0
ARC
  8
_0-0_
  6
CONTINUOUS
 62
    7
 10
2172.1149279997071
 20
1568.917818035852
 40
22.496849350049295
 50
315.31350543070943
 51
317.57602918963767
  0
LINE
  8
_0-0_
  6
CONTINUOUS
 62
    7
 10
2188.1094062180882
 20
1553.0974230597283
 11
2188.0236076423607
 21
1553.0106803802496
  0
ARC
  8
_0-0_
  6
CONTINUOUS
 62
    7
 10
2169.2884746673171
 20
1571.5419009395282
 40
26.351685771676916
 50
313.5302915126548
 51
315.31350543070954
  0
ARC
  8
_0-0_
  6
CONTINUOUS
 62
    7
 10
2167.7908313219068
 20
1573.1184176393726
 40
28.526160534680503
 50
311.88298783876962
 51
313.53029151265144
  0
LINE
  8
_0-0_
  6
CONTINUOUS
 62
    7
 10
2186.8352248979959
 20
1551.8804114201112
 11
2186.8023566995453
 21
1551.8509380834444
  0
ARC
  8
_0-0_
  6
CONTINUOUS
 62
    7
 10
2170.412728425109
 20
1570.1283920665858
 40
24.549648451251809
 50
309.76289758816085
 51
311.88298783877542
  0
LINE
  8
_0-0_
  6
CONTINUOUS
 62
    7
 10
2186.1149795502497
 20
1551.2571295575999
 11
2186.061714805453
 21
1551.2128094492596
  0
ARC
  8
_0-0_
  6
CONTINUOUS
 62
    7
 10
2167.6575055011722
 20
1573.3313364224616
 40
28.774018759638768
 50
307.67813184780027
 51
309.76289758815852
  0
LINE
  8
_0-0_
  6
CONTINUOUS
 62
    7
 10
2185.2449053584032
 20
1550.557941378202
 11
2185.1958674472526
 21
1550.520070461288
  0
ARC
  8
_0-0_
  6
CONTINUOUS
 62
    7
 10
2168.532813319357
 20
1572.0965580250518
 40
27.261734876167271
 50
305.21741618759683
 51
307.67813184779692
  0
LINE
  8
_0-0_
  6
CONTINUOUS
 62
    7
 10
2184.2541290417707
 20
1549.8245482276711
 11
2184.1056213233405
 21
1549.7197199364705
  0
ARC
  8
_0-0_
  6
CONTINUOUS
 62
    7
 10
2170.1270174961846
 20
1569.5228717139164
 40
24.239764546651802
 50
302.75347275193224
 51
305.21741618759768
  0
ARC
  8
_0-0_
  6
CONTINUOUS
 62
    7
 10
2161.6859358679185
 20
1582.6442548553803
 40
39.841769372959931
 50
301.25426206143902
 51
302.75347275193423
  0
LINE
  8
_0-0_
  6
CONTINUOUS
 62
    7
 10
2182.3573140299959
 20
1548.5845908574995
 11
2182.2918254105011
 21
1548.5448447220424
  0
ARC
  8
_0-0_
  6
CONTINUOUS
 62
    7
 10
2170.8691526674106
 20
1567.3656699489361
 40
22.015924119078754
 50
298.14305009113667
 51
301.25426206143408
  0
LINE
  8
_0-0_
  6
CONTINUOUS
 62
    7
 10
2181.2535037292637
 20
1547.9526287693266
 11
2181.0950870143515
 21
1547.8678890952851
  0
ARC
  8
_0-0_
  6
CONTINUOUS
 62
    7
 10
2166.7013527770218
 20
1574.7762778634615
 40
30.516241108534228
 50
296.53859022443498
 51
298.14305009114264
  0
ARC
  8
_0-0_
  6
CONTINUOUS
 62
    7
 10
2168.2093065428739
 20
1571.756885015192
 40
27.141236259333542
 50
294.73464737789635
 51
296.53859022443072
  0
LINE
  8
_0-0_
  6
CONTINUOUS
 62
    7
 10
2179.5656444240121
 20
1547.1057127182326
 11
2179.5374891957567
 21
1547.0927421267595
  0
ARC
  8
_0-0_
  6
CONTINUOUS
 62
    7
 10
2167.7240913281998
 20
1572.7360533150725
 40
28.233593074170251
 50
292.87470261119716
 51
294.73464737789766
  0
LINE
  8
_0-0_
  6
CONTINUOUS
 62
    7
 10
2178.6989742332344
 20
1546.7228312328575
 11
2178.6909260905472
 21
1546.7194357510016
  0
ARC
  8
_0-0_
  6
CONTINUOUS
 62
    7
 10
2167.5714147763915
 20
1573.0754633973722
 40
28.605658970942905
 50
291.00396265168143
 51
292.87470261120217
  0
LINE
  8
_0-0_
  6
CONTINUOUS
 62
    7
 10
2177.8246131029618
 20
1546.3704891558962
 11
2177.8224618198456
 21
1546.3696631849646
  0
ARC
  8
_0-0_
  6
CONTINUOUS
 62
    7
 10
2167.6174449840018
 20
1572.9491462940364
 40
28.471236203672063
 50
289.11511957440615
 51
291.00396265168047
  0
LINE
  8
_0-0_
  6
CONTINUOUS
 62
    7
 10
2176.9408423139662
 20
1546.0477419962513
 11
2176.8531047537376
 21
1546.0173342106309
  0
ARC
  8
_0-0_
  6
CONTINUOUS
 62
    7
 10
2168.8044327168727
 20
1569.2406907684467
 40
24.578555925205492
 50
286.49446029355499
 51
289.11511957440888
  0
LINE
  8
_0-0_
  6
CONTINUOUS
 62
    7
 10
2175.7828411735277
 20
1545.6736114674272
 11
2175.5206481405044
 21
1545.5959739267053
  0
ARC
  8
_0-0_
  6
CONTINUOUS
 62
    7
 10
2169.3974273713761
 20
1566.274962601557
 40
21.566511196809991
 50
283.78649313063261
 51
286.4944602935592
  0
LINE
  8
_0-0_
  6
CONTINUOUS
 62
    7
 10
2174.5368243924904
 20
1545.3297721402248
 11
2174.3834855605755
 21
1545.2921468372981
  0
ARC
  8
_0-0_
  6
CONTINUOUS
 62
    7
 10
2166.7528137719019
 20
1576.390323005633
 40
32.020676334881948
 50
282.5273666612552
 51
283.78649313063659
  0
ARC
  8
_0-0_
  6
CONTINUOUS
 62
    7
 10
2167.8264942407432
 20
1571.5581869923039
 40
27.070693688398677
 50
281.03802789555732
 51
282.52736666124372
  0
LINE
  8
_0-0_
  6
CONTINUOUS
 62
    7
 10
2173.0094620053856
 20
1544.988292338358
 11
2172.9856669906112
 21
1544.9836506641573
  0
ARC
  8
_0-0_
  6
CONTINUOUS
 62
    7
 10
2167.7588614786973
 20
1571.7782745427012
 40
27.299658691126911
 50
279.45943382517964
 51
281.03802789555618
  0
LINE
  8
_0-0_
  6
CONTINUOUS
 62
    7
 10
2172.2455402159353
 20
1544.8498308713556
 11
2172.2447173252253
 21
1544.8496937655391
  0
ARC
  8
_0-0_
  6
CONTINUOUS
 62
    7
 10
2167.9835322741737
 20
1570.4247545934979
 40
25.927619142395066
 50
277.79362876117119
 51
279.45943382518442
  0
LINE
  8
_0-0_
  6
CONTINUOUS
 62
    7
 10
2171.4994574735674
 20
1544.7366307930843
 11
2171.3479590231814
 21
1544.7158952491609
  0
ARC
  8
_0-0_
  6
CONTINUOUS
 62
    7
 10
2169.0554980926113
 20
1561.4651196644797
 40
16.905380671043847
 50
275.45546588745498
 51
277.79362876116807
  0
LINE
  8
_0-0_
  6
CONTINUOUS
 62
    7
 10
2170.6627270377403
 20
1544.6363136833402
 11
2170.6069413011387
 21
1544.6309858870191
  0
ARC
  8
_0-0_
  6
CONTINUOUS
 62
    7
 10
2166.9108084685386
 20
1583.3320698295979
 40
38.877182205591389
 50
274.60379027024277
 51
275.4554658874531
  0
ARC
  8
_0-0_
  6
CONTINUOUS
 62
    7
 10
2167.97640780547
 20
1570.1016903040718
 40
25.603959376966575
 50
273.30961872881238
 51
274.60328308838774
  0
ARC
  8
_0-0_
  6
CONTINUOUS
 62
    7
 10
2165.602045080514
 20
1611.1606864027021
 40
66.731550589885813
 50
272.8130453439336
 51
273.30961872881124
  0
LINE
  8
_0-0_
  6
CONTINUOUS
 62
    7
 10
2168.8770414610508
 20
1544.5095480565496
 11
2168.8766320192926
 21
1544.5095279380594
  0
ARC
  8
_0-0_
  6
CONTINUOUS
 62
    7
 10
2166.3582378610586
 20
1595.7626647195243
 40
51.314971880298081
 50
272.16637360139913
 51
272.81304534393593
  0
LINE
  8
_0-0_
  6
CONTINUOUS
 62
    7
 10
2168.2980127514388
 20
1544.4843689946231
 11
2168.2014303436881
 21
1544.4807154385376
  0
ARC
  8
_0-0_
  6
CONTINUOUS
 62
    7
 10
2160.1909132484789
 20
1756.2401657510518
 40
211.91090859318905
 50
271.97042430412546
 51
272.16637360140248
  0
LINE
  8
_0-0_
  6
CONTINUOUS
 62
    7
 10
2167.4771759741143
 20
1544.4545582223914
 11
2167.4530296652038
 21
1544.4537222463898
  0
LINE
  8
_0-0_
  6
CONTINUOUS
 62
    7
 10
1616.4530455200393
 20
1533.9937105853371
 11
1616.4610849954174
 21
1533.9878522287133
  0
ARC
  8
_0-0_
  6
CONTINUOUS
 62
    7
 10
1791.8147580923282
 20
1774.6272717513266
 40
297.7519788292912
 50
233.91921882093968
 51
234.03835450680668
  0
LINE
  8
_0-0_
  6
CONTINUOUS
 62
    7
 10
1616.9618276535471
 20
1533.623758055511
 11
1617.0183629261462
 21
1533.5827405701823
  0
ARC
  8
_0-0_
  6
CONTINUOUS
 62
    7
 10
1658.314994442944
 20
1590.5027662990537
 40
70.322834866134059
 50
234.03835450679111
 51
234.42896532999481
  0
ARC
  8
_0-0_
  6
CONTINUOUS
 62
    7
 10
1674.9221447462833
 20
1613.7241813479359
 40
98.871592423515466
 50
234.42896532998881
 51
234.70687596373696
  0
ARC
  8
_0-0_
  6
CONTINUOUS
 62
    7
 10
1638.3715270167488
 20
1562.0886614364103
 40
35.608850047484786
 50
234.70678947516359
 51
235.47884397104644
  0
ARC
  8
_0-0_
  6
CONTINUOUS
 62
    7
 10
1650.152281536208
 20
1579.2159059828991
 40
56.396555134476785
 50
235.47866670129213
 51
235.96625918407651
  0
LINE
  8
_0-0_
  6
CONTINUOUS
 62
    7
 10
1618.5882002013761
 20
1532.4796224279974
 11
1618.6043849373091
 21
1532.4686918130124
  0
ARC
  8
_0-0_
  6
CONTINUOUS
 62
    7
 10
1632.3153846575083
 20
1552.7702860189793
 40
24.497882370340843
 50
235.96625918405454
 51
237.18006093223238
  0
LINE
  8
_0-0_
  6
CONTINUOUS
 62
    7
 10
1619.0375153462014
 20
1532.1828037255341
 11
1619.1466593386649
 21
1532.1124114528225
  0
ARC
  8
_0-0_
  6
CONTINUOUS
 62
    7
 10
1637.5748364260287
 20
1560.6855025558818
 40
34.000283027453719
 50
237.18006093222505
 51
238.49232349454272
  0
LINE
  8
_0-0_
  6
CONTINUOUS
 62
    7
 10
1619.8058534140223
 20
1531.6978760806771
 11
1619.8322038953484
 21
1531.6817236283387
  0
ARC
  8
_0-0_
  6
CONTINUOUS
 62
    7
 10
1641.0146901663302
 20
1566.2380063049732
 40
40.531893578363679
 50
238.49232349453615
 51
239.68050428099508
  0
LINE
  8
_0-0_
  6
CONTINUOUS
 62
    7
 10
1620.5533238196022
 20
1531.2499099824697
 11
1620.6445901931124
 21
1531.1965365526519
  0
ARC
  8
_0-0_
  6
CONTINUOUS
 62
    7
 10
1637.879695275074
 20
1560.6678585805719
 40
34.140996899030796
 50
239.68050428097598
 51
240.74217150433725
  0
ARC
  8
_0-0_
  6
CONTINUOUS
 62
    7
 10
1657.9116508136301
 20
1596.4260278401171
 40
75.127896165661895
 50
240.74217150434745
 51
241.22464475547383
  0
LINE
  8
_0-0_
  6
CONTINUOUS
 62
    7
 10
1621.746831937304
 20
1530.5753888309093
 11
1621.9118378687438
 21
1530.4847684555593
  0
ARC
  8
_0-0_
  6
CONTINUOUS
 62
    7
 10
1637.7950545910335
 20
1559.4056922478612
 40
32.995399777049975
 50
241.22464475547682
 51
242.9768604523718
  0
LINE
  8
_0-0_
  6
CONTINUOUS
 62
    7
 10
1622.8035846138766
 20
1530.0126278555365
 11
1623.1388044987334
 21
1529.8416542281359
  0
ARC
  8
_0-0_
  6
CONTINUOUS
 62
    7
 10
1644.3554351757844
 20
1571.4400960506453
 40
46.696635631992571
 50
242.97686045236858
 51
245.13823248873095
  0
LINE
  8
_0-0_
  6
CONTINUOUS
 62
    7
 10
1624.7227469525415
 20
1529.0710822259641
 11
1624.9448716815471
 21
1528.9681554604442
  0
ARC
  8
_0-0_
  6
CONTINUOUS
 62
    7
 10
1642.1703611158885
 20
1566.1422292134432
 40
40.971078160649
 50
245.1382324887295
 51
247.07252870957808
  0
LINE
  8
_0-0_
  6
CONTINUOUS
 62
    7
 10
1626.2094392453246
 20
1528.4079183188771
 11
1626.3582150432055
 21
1528.3449888833072
  0
ARC
  8
_0-0_
  6
CONTINUOUS
 62
    7
 10
1646.6900224124231
 20
1576.4128101871145
 40
52.190974658399583
 50
247.07252870957294
 51
248.23642363992883
  0
ARC
  8
_0-0_
  6
CONTINUOUS
 62
    7
 10
1647.1488675111282
 20
1577.5621231800676
 40
53.428496044225554
 50
248.23642363991996
 51
249.373361995962
  0
LINE
  8
_0-0_
  6
CONTINUOUS
 62
    7
 10
1628.3272476830277
 20
1527.5586151371886
 11
1628.620510014744
 21
1527.4482294395943
  0
ARC
  8
_0-0_
  6
CONTINUOUS
 62
    7
 10
1642.5487234344314
 20
1564.4513959106321
 40
39.53769666973151
 50
249.37336199594813
 51
251.64780151795813
  0
LINE
  8
_0-0_
  6
CONTINUOUS
 62
    7
 10
1630.0999915765747
 20
1526.9246250253177
 11
1630.3931911322916
 21
1526.8273621230253
  0
ARC
  8
_0-0_
  6
CONTINUOUS
 62
    7
 10
1646.2682353914111
 20
1574.6827706504414
 40
50.419809158255191
 50
251.64780151795253
 51
252.72947338704239
  0
ARC
  8
_0-0_
  6
CONTINUOUS
 62
    7
 10
1644.7811186637177
 20
1569.8995236675801
 40
45.410720632302002
 50
252.72947338703858
 51
253.93045217368777
  0
LINE
  8
_0-0_
  6
CONTINUOUS
 62
    7
 10
1632.2112509585654
 20
1526.2631629781281
 11
1632.2185656660974
 21
1526.2610559072236
  0
ARC
  8
_0-0_
  6
CONTINUOUS
 62
    7
 10
1644.0706482050155
 20
1567.4056216831821
 40
42.817603312206543
 50
253.93045217369774
 51
255.22452835580469
  0
LINE
  8
_0-0_
  6
CONTINUOUS
 62
    7
 10
1633.1507961807351
 20
1526.0038827683818
 11
1633.1596066202801
 21
1526.0015589844388
  0
ARC
  8
_0-0_
  6
CONTINUOUS
 62
    7
 10
1643.4703992153031
 20
1565.0940981575814
 40
40.429433126637868
 50
255.22452835581493
 51
256.62086083332122
  0
LINE
  8
_0-0_
  6
CONTINUOUS
 62
    7
 10
1634.1152826928726
 20
1525.7619121289226
 11
1634.3689065251963
 21
1525.7015879836404
  0
ARC
  8
_0-0_
  6
CONTINUOUS
 62
    7
 10
1641.3700984396269
 20
1555.1370506142248
 40
30.256621564530434
 50
256.62086083332269
 51
259.47351949521226
  0
LINE
  8
_0-0_
  6
CONTINUOUS
 62
    7
 10
1635.8425180947947
 20
1525.3896304902773
 11
1636.0931870358268
 21
1525.3430519061267
  0
ARC
  8
_0-0_
  6
CONTINUOUS
 62
    7
 10
1643.8864829131103
 20
1567.2837261522168
 40
42.658593704522538
 50
259.47351949520828
 51
260.9917121122993
  0
LINE
  8
_0-0_
  6
CONTINUOUS
 62
    7
 10
1637.2071140626167
 20
1525.1512962601896
 11
1637.3358780685951
 21
1525.1308829516574
  0
ARC
  8
_0-0_
  6
CONTINUOUS
 62
    7
 10
1642.9473611013118
 20
1560.5272535906195
 40
35.838412300731783
 50
260.99171211230617
 51
262.3820016533831
  0
LINE
  8
_0-0_
  6
CONTINUOUS
 62
    7
 10
1638.1963432516995
 20
1525.0051530667215
 11
1638.3254003230036
 21
1524.9878919126697
  0
ARC
  8
_0-0_
  6
CONTINUOUS
 62
    7
 10
1645.1414915776795
 20
1575.9499986427954
 40
51.41590631667178
 50
262.3820016533835
 51
263.06092123790205
  0
ARC
  8
_0-0_
  6
CONTINUOUS
 62
    7
 10
1645.8735126370618
 20
1581.9646955114456
 40
57.474984897869739
 50
263.06092123790552
 51
263.66826976340104
  0
LINE
  8
_0-0_
  6
CONTINUOUS
 62
    7
 10
1639.5348984727166
 20
1524.8403061537824
 11
1639.5353240748814
 21
1524.8402589282814
  0
ARC
  8
_0-0_
  6
CONTINUOUS
 62
    7
 10
1646.6448226254417
 20
1588.91195548685
 40
64.464930540052023
 50
263.66826976339843
 51
264.21052557164262
  0
LINE
  8
_0-0_
  6
CONTINUOUS
 62
    7
 10
1640.1420175179651
 20
1524.7758440108032
 11
1640.2688422555923
 21
1524.7629851621357
  0
ARC
  8
_0-0_
  6
CONTINUOUS
 62
    7
 10
1646.5791770092039
 20
1587.0007927727238
 40
62.55689427133688
 50
264.21052557163506
 51
264.97921368068336
  0
LINE
  8
_0-0_
  6
CONTINUOUS
 62
    7
 10
1641.10437614799
 20
1524.6839284709536
 11
1641.231313379601
 21
1524.6727764967206
  0
ARC
  8
_0-0_
  6
CONTINUOUS
 62
    7
 10
1647.5545925568308
 20
1596.6474364741837
 40
72.251889514562691
 50
264.97921368069075
 51
265.44266615086582
  0
ARC
  8
_0-0_
  6
CONTINUOUS
 62
    7
 10
1646.5295168296777
 20
1583.7871541796901
 40
59.350818204765751
 50
265.44266615087645
 51
266.00685192542653
  0
ARC
  8
_0-0_
  6
CONTINUOUS
 62
    7
 10
1645.9330728439154
 20
1575.2429973540504
 40
50.785868625857098
 50
266.00685767662094
 51
266.66618374461791
  0
LINE
  8
_0-0_
  6
CONTINUOUS
 62
    7
 10
1642.9797098731519
 20
1524.5430752708189
 11
1643.027492928557
 21
1524.5402918206541
  0
ARC
  8
_0-0_
  6
CONTINUOUS
 62
    7
 10
1645.2109489162349
 20
1562.0233406512477
 40
37.546590120632494
 50
266.66618374462297
 51
267.51354279440915
  0
LINE
  8
_0-0_
  6
CONTINUOUS
 62
    7
 10
1643.5820560069371
 20
1524.5121005014362
 11
1643.629873089626
 21
1524.5100240862973
  0
ARC
  8
_0-0_
  6
CONTINUOUS
 62
    7
 10
1645.8953412754545
 20
1576.6807473337246
 40
52.219888072080849
 50
267.5135427944179
 51
268.01778085529554
  0
ARC
  8
_0-0_
  6
CONTINUOUS
 62
    7
 10
1646.6588715340895
 20
1598.7416816391135
 40
74.294031337053411
 50
268.01778085529628
 51
268.37221292303673
  0
LINE
  8
_0-0_
  6
CONTINUOUS
 62
    7
 10
1644.5484439041757
 20
1524.4776312006275
 11
1644.5556099416849
 21
1524.4774275555351
  0
ARC
  8
_0-0_
  6
CONTINUOUS
 62
    7
 10
1648.0102663812891
 20
1646.0428300718784
 40
121.61447997700039
 50
268.37220153540954
 51
268.58197581353102
  0
LINE
  8
_0-0_
  6
CONTINUOUS
 62
    7
 10
1645.0007136552674
 20
1524.465593993468
 11
1645.0078884420741
 21
1524.4654163870355
  0
ARC
  8
_0-0_
  6
CONTINUOUS
 62
    7
 10
1654.5172815122883
 20
1908.6174255159376
 40
384.26969002815719
 50
268.58197581355643
 51
268.64622546536719
  0
LINE
  8
_0-0_
  6
CONTINUOUS
 62
    7
 10
1645.4386700882958
 20
1524.4549943895347
 11
1645.453029784413
 21
1524.4546540159993
  0
LINE
  8
_0-0_
  6
CONTINUOUS
 62
    7
 10
1645.453029784413
 20
1544.4537222463898
 11
1645.3308136780784
 21
1544.4583319042017
  0
ARC
  8
_0-0_
  6
CONTINUOUS
 62
    7
 10
1650.7426023353776
 20
1687.941376643812
 40
143.58506741378204
 50
267.59073794900269
 51
267.83998353288467
  0
LINE
  8
_0-0_
  6
CONTINUOUS
 62
    7
 10
1644.7066932124449
 20
1544.4832315795456
 11
1644.6115654898674
 21
1544.4872340172483
  0
ARC
  8
_0-0_
  6
CONTINUOUS
 62
    7
 10
1647.9039900664106
 20
1622.7397578535365
 40
78.32175653253114
 50
267.27310643241304
 51
267.59073794900803
  0
ARC
  8
_0-0_
  6
CONTINUOUS
 62
    7
 10
1646.9361059551625
 20
1602.4221565972975
 40
57.981114447770132
 50
266.84438601143916
 51
267.27327643895626
  0
ARC
  8
_0-0_
  6
CONTINUOUS
 62
    7
 10
1646.2098536708168
 20
1589.2527988602633
 40
44.791746550384239
 50
266.28994872469468
 51
266.84464706557594
  0
LINE
  8
_0-0_
  6
CONTINUOUS
 62
    7
 10
1643.3114975785343
 20
1544.5549231725283
 11
1643.3112755926288
 21
1544.5549375668188
  0
ARC
  8
_0-0_
  6
CONTINUOUS
 62
    7
 10
1645.6693509725344
 20
1580.9207107285317
 40
36.442145616668661
 50
265.60918146213976
 51
266.28994872471191
  0
LINE
  8
_0-0_
  6
CONTINUOUS
 62
    7
 10
1642.8793675378902
 20
1544.5855215920915
 11
1642.8791437260834
 21
1544.5855387773943
  0
ARC
  8
_0-0_
  6
CONTINUOUS
 62
    7
 10
1645.2288941703046
 20
1575.1873788293383
 40
30.691919811489132
 50
264.8017122943055
 51
265.6091814621571
  0
ARC
  8
_0-0_
  6
CONTINUOUS
 62
    7
 10
1644.8238456197826
 20
1570.735170409582
 40
26.22132430963147
 50
263.85657974229127
 51
264.80171229432261
  0
LINE
  8
_0-0_
  6
CONTINUOUS
 62
    7
 10
1642.0177030433824
 20
1544.6644317857572
 11
1641.8988288087467
 21
1544.6772268989248
  0
ARC
  8
_0-0_
  6
CONTINUOUS
 62
    7
 10
1643.7882240551105
 20
1562.230835913334
 40
17.65499940038902
 50
261.67707168127214
 51
263.85657974226206
  0
LINE
  8
_0-0_
  6
CONTINUOUS
 62
    7
 10
1641.2326245351501
 20
1544.7617799880322
 11
1641.1137414848065
 21
1544.7791717387763
  0
ARC
  8
_0-0_
  6
CONTINUOUS
 62
    7
 10
1644.788250248215
 20
1569.896643621445
 40
25.384826342305743
 50
259.75153013317845
 51
261.67707168126964
  0
LINE
  8
_0-0_
  6
CONTINUOUS
 62
    7
 10
1640.2718513537179
 20
1544.9168207746993
 11
1640.2707442990486
 21
1544.9170209322631
  0
ARC
  8
_0-0_
  6
CONTINUOUS
 62
    7
 10
1645.0664939463541
 20
1571.441909323572
 40
26.954942382632186
 50
257.94291285888164
 51
259.75153013319073
  0
ARC
  8
_0-0_
  6
CONTINUOUS
 62
    7
 10
1645.4738698140329
 20
1573.3491161716956
 40
28.905171358700432
 50
256.25630454846402
 51
257.94291285888977
  0
LINE
  8
_0-0_
  6
CONTINUOUS
 62
    7
 10
1638.6066078436702
 20
1545.2715513857984
 11
1638.4684248619621
 21
1545.3053484313209
  0
ARC
  8
_0-0_
  6
CONTINUOUS
 62
    7
 10
1644.1133834094971
 20
1568.3853896495184
 40
23.760342161616176
 50
253.64151464422059
 51
256.25630454846498
  0
LINE
  8
_0-0_
  6
CONTINUOUS
 62
    7
 10
1637.4213710641261
 20
1545.5869065770316
 11
1637.2834841033693
 21
1545.6273803770082
  0
ARC
  8
_0-0_
  6
CONTINUOUS
 62
    7
 10
1645.5339610432009
 20
1573.7352721657448
 40
29.293752756210942
 50
252.08251453564392
 51
253.64151464421187
  0
ARC
  8
_0-0_
  6
CONTINUOUS
 62
    7
 10
1645.4224128066794
 20
1573.3902721944844
 40
28.931167608637782
 50
250.50397842950622
 51
252.08251453561525
  0
LINE
  8
_0-0_
  6
CONTINUOUS
 62
    7
 10
1635.7668842945577
 20
1546.1178827071167
 11
1635.6913697698833
 21
1546.144617901934
  0
ARC
  8
_0-0_
  6
CONTINUOUS
 62
    7
 10
1643.7392257046467
 20
1568.8760780509456
 40
24.114047060848378
 50
248.2296101378127
 51
250.50397842949332
  0
LINE
  8
_0-0_
  6
CONTINUOUS
 62
    7
 10
1634.7956162311116
 20
1546.4819021286726
 11
1634.6296954990771
 21
1546.5481662428795
  0
ARC
  8
_0-0_
  6
CONTINUOUS
 62
    7
 10
1643.8239131542746
 20
1569.5698476174241
 40
24.789744887799991
 50
245.19177728393942
 51
248.22961013780588
  0
LINE
  8
_0-0_
  6
CONTINUOUS
 62
    7
 10
1633.4225735791774
 20
1547.0677680102917
 11
1633.3121780296851
 21
1547.1187971426164
  0
ARC
  8
_0-0_
  6
CONTINUOUS
 62
    7
 10
1645.0314685790852
 20
1572.472109278772
 40
27.93084687678844
 50
242.26532128131811
 51
245.19177728392953
  0
LINE
  8
_0-0_
  6
CONTINUOUS
 62
    7
 10
1632.033071056017
 20
1547.7501783451476
 11
1632.0051677942911
 21
1547.76484943573
  0
ARC
  8
_0-0_
  6
CONTINUOUS
 62
    7
 10
1645.518502717402
 20
1573.4661508507097
 40
29.037340015362666
 50
239.57467209047951
 51
242.2653212813193
  0
LINE
  8
_0-0_
  6
CONTINUOUS
 62
    7
 10
1630.8135583621806
 20
1548.4275461236557
 11
1630.7733025234988
 21
1548.4511880108234
  0
ARC
  8
_0-0_
  6
CONTINUOUS
 62
    7
 10
1645.1008110059204
 20
1572.8471199469686
 40
28.292030580127832
 50
237.00215463397728
 51
239.57467209047391
  0
LINE
  8
_0-0_
  6
CONTINUOUS
 62
    7
 10
1629.6927590737932
 20
1549.1188471483904
 11
1629.6572106299163
 21
1549.1419306772259
  0
ARC
  8
_0-0_
  6
CONTINUOUS
 62
    7
 10
1645.966902760741
 20
1574.258721939746
 40
29.94760859780472
 50
234.73392463814963
 51
237.00215463399604
  0
LINE
  8
_0-0_
  6
CONTINUOUS
 62
    7
 10
1628.6759234854226
 20
1549.8071106139496
 11
1628.634507986809
 21
1549.8363976216096
  0
ARC
  8
_0-0_
  6
CONTINUOUS
 62
    7
 10
1644.4682681015252
 20
1572.2273184587777
 40
27.42373598375471
 50
232.4688704029154
 51
234.73392463813877
  0
LINE
  8
_0-0_
  6
CONTINUOUS
 62
    7
 10
1627.7619371341693
 20
1550.4796794854119
 11
1627.7612873195221
 21
1550.4801786668897
  0
ARC
  8
_0-0_
  6
CONTINUOUS
 62
    7
 10
1647.2482042450424
 20
1575.8474741447485
 40
31.988116717354647
 50
230.52988403946532
 51
232.4688704028913
  0
LINE
  8
_0-0_
  6
CONTINUOUS
 62
    7
 10
1626.9141365979394
 20
1551.1540478120955
 11
1626.8864362757522
 21
1551.1768579404925
  0
ARC
  8
_0-0_
  6
CONTINUOUS
 62
    7
 10
1642.1995141379819
 20
1569.7728598167278
 40
24.089450790660585
 50
228.12592618533404
 51
230.52988403945574
  0
LINE
  8
_0-0_
  6
CONTINUOUS
 62
    7
 10
1626.1199096053274
 20
1551.8355256371706
 11
1626.0582511595162
 21
1551.8907982554329
  0
ARC
  8
_0-0_
  6
CONTINUOUS
 62
    7
 10
1644.3929010383397
 20
1572.3437105937867
 40
27.467817701802328
 50
226.36292349350211
 51
228.12592618534651
  0
ARC
  8
_0-0_
  6
CONTINUOUS
 62
    7
 10
1644.4388872480049
 20
1572.3919383409766
 40
27.53445588213722
 50
224.60418690449569
 51
226.36292349349452
  0
LINE
  8
_0-0_
  6
CONTINUOUS
 62
    7
 10
1624.835050343647
 20
1553.0571034734971
 11
1624.8145584844206
 21
1553.0778804322294
  0
ARC
  8
_0-0_
  6
CONTINUOUS
 62
    7
 10
1643.4002183461685
 20
1571.4085095883149
 40
26.104381198459883
 50
222.62105168400774
 51
224.60418690450649
  0
LINE
  8
_0-0_
  6
CONTINUOUS
 62
    7
 10
1624.191352804339
 20
1553.7320223142431
 11
1624.1727467647954
 21
1553.7522413151287
  0
ARC
  8
_0-0_
  6
CONTINUOUS
 62
    7
 10
1645.2032166517433
 20
1573.1050152993635
 40
28.579897210288809
 50
220.6995197200221
 51
222.62105168402215
  0
LINE
  8
_0-0_
  6
CONTINUOUS
 62
    7
 10
1623.5356590291417
 20
1554.4682915738281
 11
1623.5129060748543
 21
1554.494744772114
  0
ARC
  8
_0-0_
  6
CONTINUOUS
 62
    7
 10
1644.1029933440118
 20
1572.2047135006389
 40
27.158694484765817
 50
218.5302824554355
 51
220.6995197200097
  0
LINE
  8
_0-0_
  6
CONTINUOUS
 62
    7
 10
1622.8573161446809
 20
1555.2867973624532
 11
1622.831123514206
 21
1555.3196903125972
  0
ARC
  8
_0-0_
  6
CONTINUOUS
 62
    7
 10
1645.9946652417789
 20
1573.7648004747282
 40
29.610331883620752
 50
216.41885757599462
 51
218.53028245545582
  0
LINE
  8
_0-0_
  6
CONTINUOUS
 62
    7
 10
1622.1672772572542
 20
1556.185627112676
 11
1622.1629247180276
 21
1556.1915266870601
  0
ARC
  8
_0-0_
  6
CONTINUOUS
 62
    7
 10
1646.5608312545792
 20
1574.1916125108019
 40
30.319316170196995
 50
214.38449543071499
 51
216.41885757598524
  0
LINE
  8
_0-0_
  6
CONTINUOUS
 62
    7
 10
1621.5393198217259
 20
1557.0689696469221
 11
1621.5170065698449
 21
1557.101576253945
  0
ARC
  8
_0-0_
  6
CONTINUOUS
 62
    7
 10
1645.0157139806709
 20
1573.1821386067841
 40
28.474088845179391
 50
212.37728299689465
 51
214.38449543070658
  0
ARC
  8
_0-0_
  6
CONTINUOUS
 62
    7
 10
1649.0052759467369
 20
1575.7117733100292
 40
33.198033850462679
 50
210.6556421742464
 51
212.37728299688746
  0
LINE
  8
_0-0_
  6
CONTINUOUS
 62
    7
 10
1620.4467579193506
 20
1558.7848568862998
 11
1620.3962572934618
 21
1558.8700598257331
  0
ARC
  8
_0-0_
  6
CONTINUOUS
 62
    7
 10
1641.5807881984874
 20
1571.4263410641806
 40
24.626094863071391
 50
207.94901513712801
 51
210.65564217423608
  0
LINE
  8
_0-0_
  6
CONTINUOUS
 62
    7
 10
1619.8269578051918
 20
1559.884442978306
 11
1619.7528459466614
 21
1560.0241268317425
  0
ARC
  8
_0-0_
  6
CONTINUOUS
 62
    7
 10
1643.34840224902
 20
1572.5431867489051
 40
26.710992838666282
 50
206.13171228935238
 51
207.94901513713867
  0
LINE
  8
_0-0_
  6
CONTINUOUS
 62
    7
 10
1619.3677018840103
 20
1560.7787000014559
 11
1619.3053522757248
 21
1560.9057932870589
  0
ARC
  8
_0-0_
  6
CONTINUOUS
 62
    7
 10
1638.6457814057701
 20
1570.3938490455421
 40
21.542409359456087
 50
204.63131265175224
 51
206.1317122893812
  0
LINE
  8
_0-0_
  6
CONTINUOUS
 62
    7
 10
1619.0635487879081
 20
1561.4154546060934
 11
1619.0474154347689
 21
1561.4506420860162
  0
ARC
  8
_0-0_
  6
CONTINUOUS
 62
    7
 10
1658.0385642384156
 20
1579.3279659048824
 40
42.894153353956163
 50
203.98115500218887
 51
204.63131265172171
  0
LINE
  8
_0-0_
  6
CONTINUOUS
 62
    7
 10
1618.8470690808788
 20
1561.8942313861544
 11
1618.8451766062483
 21
1561.8984857190537
  0
ARC
  8
_0-0_
  6
CONTINUOUS
 62
    7
 10
1633.6467744730699
 20
1568.4827491319754
 40
16.199994571043369
 50
202.29271537324817
 51
203.98115500221522
  0
LINE
  8
_0-0_
  6
CONTINUOUS
 62
    7
 10
1618.6576006214045
 20
1562.3374670923624
 11
1618.6279934616205
 21
1562.4096829585178
  0
ARC
  8
_0-0_
  6
CONTINUOUS
 62
    7
 10
1636.2661647852372
 20
1569.6410046123547
 40
19.062977220321883
 50
201.32694548316258
 51
202.29271537325445
  0
ARC
  8
_0-0_
  6
CONTINUOUS
 62
    7
 10
1637.7692193271432
 20
1570.2278355578676
 40
20.676527193070061
 50
200.4365389549734
 51
201.32694548316709
  0
LINE
  8
_0-0_
  6
CONTINUOUS
 62
    7
 10
1618.3940829743435
 20
1563.0082186652489
 11
1618.3914800191826
 21
1563.0152041621122
  0
ARC
  8
_0-0_
  6
CONTINUOUS
 62
    7
 10
1647.0516650530822
 20
1573.6947669422939
 40
30.585278605126245
 50
199.80710303490849
 51
200.4367590280437
  0
LINE
  8
_0-0_
  6
CONTINUOUS
 62
    7
 10
1618.2758492134928
 20
1563.3308058212153
 11
1618.2740506696769
 21
1563.3357995263268
  0
ARC
  8
_0-0_
  6
CONTINUOUS
 62
    7
 10
1665.2983040010049
 20
1580.2721580292698
 40
49.981202873771352
 50
199.434095226848
 51
199.80710303492108
  0
LINE
  8
_0-0_
  6
CONTINUOUS
 62
    7
 10
1618.1647886321362
 20
1563.6422942390359
 11
1618.1630365581234
 21
1563.6472600889347
  0
ARC
  8
_0-0_
  6
CONTINUOUS
 62
    7
 10
1767.0224145285606
 20
1616.1685108416718
 40
157.85308419659555
 50
199.31981165624447
 51
199.4340952268409
  0
LINE
  8
_0-0_
  6
CONTINUOUS
 62
    7
 10
1618.0585725699002
 20
1563.9442829460611
 11
1618.0550991623122
 21
1563.9541864473633
  0
LINE
  8
_0-0_
  6
CONTINUOUS
 62
    7
 10
2167.4530296652038
 20
1544.4541879076771
 11
1645.453029784413
 21
1544.4541879076771
  0
LINE
  8
_0-0_
  6
CONTINUOUS
 62
    7
 10
1645.453029784413
 20
1524.454188354712
 11
2167.4530296652038
 21
1524.454188354712
  0
LINE
  8
_0-0_
  6
CONTINUOUS
 62
    7
 10
1616.4530455200393
 20
1440.9541867751889
 11
2196.4530288307387
 21
1440.9541867751889
  0
LINE
  8
_0-0_
  6
CONTINUOUS
 62
    7
 10
2196.4530288307387
 20
1454.9541890699677
 11
1616.4530455200393
 21
1454.9541890699677
  0
LINE
  8
_0-0_
  6
CONTINUOUS
 62
    7
 10
1616.4530455200393
 20
1502.454187659014
 11
2196.4530288307387
 21
1502.454187659014
  0
LINE
  8
_0-0_
  6
CONTINUOUS
 62
    7
 10
2196.4530288307387
 20
1516.4541879747323
 11
1616.4530455200393
 21
1516.4541879747323
  0
LINE
  8
_0-0_
  6
CONTINUOUS
 62
    7
 10
1616.4530455200393
 20
1563.9541864473633
 11
2196.4530288307387
 21
1563.9541864473633
  0
LINE
  8
_0-0_
  6
CONTINUOUS
 62
    7
 10
2196.4530288307387
 20
1577.9541887421422
 11
1616.4530455200393
 21
1577.9541887421422
  0
LINE
  8
_0-0_
  6
CONTINUOUS
 62
    7
 10
1596.4530347912032
 20
1615.4541902322583
 11
1596.4530347912032
 21
1423.4541885633282
  0
LINE
  8
_0-0_
  6
CONTINUOUS
 62
    7
 10
1616.4530455200393
 20
1577.9541887421422
 11
1616.4530455200393
 21
1615.4541902322583
  0
LINE
  8
_0-0_
  6
CONTINUOUS
 62
    7
 10
1616.4530455200393
 20
1516.4541879747323
 11
1616.4530455200393
 21
1563.9541864473633
  0
LINE
  8
_0-0_
  6
CONTINUOUS
 62
    7
 10
1616.4530455200393
 20
1454.9541890699677
 11
1616.4530455200393
 21
1502.454187659014
  0
LINE
  8
_0-0_
  6
CONTINUOUS
 62
    7
 10
1616.4530455200393
 20
1423.4541885633282
 11
1616.4530455200393
 21
1440.9541867751889
  0
LINE
  8
_0-0_
  6
CONTINUOUS
 62
    7
 10
2196.4530288307387
 20
1440.9541867751889
 11
2196.4530288307387
 21
1423.4541885633282
  0
LINE
  8
_0-0_
  6
CONTINUOUS
 62
    7
 10
2196.4530288307387
 20
1502.454187659014
 11
2196.4530288307387
 21
1454.9541890699677
  0
LINE
  8
_0-0_
  6
CONTINUOUS
 62
    7
 10
2196.4530288307387
 20
1563.9541864473633
 11
2196.4530288307387
 21
1516.4541879747323
  0
LINE
  8
_0-0_
  6
CONTINUOUS
 62
    7
 10
2196.4530288307387
 20
1615.4541902322583
 11
2196.4530288307387
 21
1577.9541887421422
  0
LINE
  8
_0-0_
  6
CONTINUOUS
 62
    7
 10
2216.4530395595748
 20
1423.4541885633282
 11
2216.4530395595748
 21
1615.4541902322583
  0
ARC
  8
_0-0_
  6
CONTINUOUS
 62
    7
 10
2166.4530315804623
 20
1423.4541876522419
 40
30
 50
270.0000000000008
 51
0.0000000000001399
  0
ARC
  8
_0-0_
  6
CONTINUOUS
 62
    7
 10
2166.4530315804623
 20
1423.4541876522419
 40
49.999999999999929
 50
270.0000000000008
 51
0.0000000000000127
  0
ARC
  8
_0-0_
  6
CONTINUOUS
 62
    7
 10
1646.4530315804618
 20
1423.4541876522419
 40
29.999999999999858
 50
180
 51
270.00000000000108
  0
ARC
  8
_0-0_
  6
CONTINUOUS
 62
    7
 10
1646.4530315804618
 20
1423.4541876522419
 40
50
 50
180
 51
270.00000000000097
  0
LINE
  8
_0-0_
  6
CONTINUOUS
 62
    7
 10
2166.4530276386458
 20
1393.4541873712353
 11
1646.4530169098098
 21
1393.4541873712353
  0
LINE
  8
_0-0_
  6
CONTINUOUS
 62
    7
 10
1646.4530169098098
 20
1373.4541840929799
 11
2166.4530276386458
 21
1373.4541840929799
  0
LINE
  8
_0-0_
  6
CONTINUOUS
 62
    7
 10
1617.453032645436
 20
1615.4541902322583
 11
1595.4530178634841
 21
1615.4541902322583
  0
LINE
  8
_0-0_
  6
CONTINUOUS
 62
    7
 10
1595.4530178634841
 20
1615.4541902322583
 11
1595.4530178634841
 21
1625.4541881460957
  0
LINE
  8
_0-0_
  6
CONTINUOUS
 62
    7
 10
1617.453032645436
 20
1625.4541881460957
 11
1617.453032645436
 21
1615.4541902322583
  0
LINE
  8
_0-0_
  6
CONTINUOUS
 62
    7
 10
1595.4530178634841
 20
1625.4541881460957
 11
1617.453032645436
 21
1625.4541881460957
  0
LINE
  8
_0-0_
  6
CONTINUOUS
 62
    7
 10
2217.4530266849715
 20
1615.4541902322583
 11
2195.4530268041808
 21
1615.4541902322583
  0
LINE
  8
_0-0_
  6
CONTINUOUS
 62
    7
 10
2195.4530268041808
 20
1615.4541902322583
 11
2195.4530268041808
 21
1625.4541881460957
  0
LINE
  8
_0-0_
  6
CONTINUOUS
 62
    7
 10
2195.4530268041808
 20
1625.4541881460957
 11
2217.4530266849715
 21
1625.4541881460957
  0
LINE
  8
_0-0_
  6
CONTINUOUS
 62
    7
 10
2217.4530266849715
 20
1625.4541881460957
 11
2217.4530266849715
 21
1615.4541902322583
  0
ARC
  8
_0-0_
  6
CONTINUOUS
 62
    7
 10
2261.6240511463475
 20
1944.5409991387805
 40
29.999999999999773
 50
351.7764300909127
 51
8.2235699090878214
  0
ARC
  8
_0-0_
  6
CONTINUOUS
 62
    7
 10
2261.6240511463475
 20
1899.5409991387805
 40
29.999999999999773
 50
351.7764300909127
 51
8.2235699090881038
  0
LINE
  8
_0-0_
  6
CONTINUOUS
 62
    7
 10
2291.3155753524629
 20
1863.0409991387808
 11
2316.3155753524634
 21
1863.0409991387808
  0
LINE
  8
_0-0_
  6
CONTINUOUS
 62
    7
 10
2316.3155753524634
 20
1883.0409991387808
 11
2291.3155753524629
 21
1883.0409991387808
  0
ARC
  8
_0-0_
  6
CONTINUOUS
 62
    7
 10
2316.3155753524634
 20
1834.0409991387808
 40
29.000000000000064
 50
64.157587126295951
 51
90
  0
ARC
  8
_0-0_
  6
CONTINUOUS
 62
    7
 10
2316.3155753524634
 20
1834.0409991387808
 40
48.999999999999993
 50
64.157587126296221
 51
90
  0
LINE
  8
_0-0_
  6
CONTINUOUS
 62
    7
 10
2376.8242104934384
 20
1855.6686340975045
 11
2376.8384237914843
 21
1855.6627591266599
  0
LINE
  8
_0-0_
  6
CONTINUOUS
 62
    7
 10
2291.3155753524647
 20
1982.0409991387805
 11
2281.3155753524647
 21
1982.0409991387805
  0
LINE
  8
_0-0_
  6
CONTINUOUS
 62
    7
 10
2281.3155753524647
 20
1862.0409991387805
 11
2291.3155753524647
 21
1862.0409991387805
  0
LINE
  8
_0-0_
  6
CONTINUOUS
 62
    7
 10
2291.315575352462
 20
1961.040999138781
 11
2483.3155753524625
 21
1961.040999138781
  0
LINE
  8
_0-0_
  6
CONTINUOUS
 62
    7
 10
2483.3155753524625
 20
1981.040999138781
 11
2291.315575352462
 21
1981.040999138781
  0
LINE
  8
_0-0_
  6
CONTINUOUS
 62
    7
 10
2483.3155753524625
 20
1961.040999138781
 11
2523.315575352462
 21
1961.040999138781
  0
LINE
  8
_0-0_
  6
CONTINUOUS
 62
    7
 10
2523.315575352462
 20
1981.040999138781
 11
2483.3155753524625
 21
1981.040999138781
  0
ARC
  8
_0-0_
  6
CONTINUOUS
 62
    7
 10
2372.3155753524629
 20
1846.7427050609531
 40
10.000000000000176
 50
333.20090037429452
 51
63.19262638367077
  0
ARC
  8
_0-0_
  6
CONTINUOUS
 62
    7
 10
2372.3155753524629
 20
1846.7427050609531
 40
10.000000000000091
 50
242.35972929758609
 51
333.20090037429372
  0
LINE
  8
_0-0_
  6
CONTINUOUS
 62
    7
 10
2291.3155753524647
 20
1971.0409991387805
 11
2281.3155753524647
 21
1971.0409991387805
  0
LINE
  8
_0-0_
  6
CONTINUOUS
 62
    7
 10
2291.3155753524647
 20
1971.0409991387805
 11
2291.3155753524647
 21
1873.0409991387805
  0
LINE
  8
_0-0_
  6
CONTINUOUS
 62
    7
 10
2281.3155753524647
 20
1873.0409991387805
 11
2291.3155753524647
 21
1873.0409991387805
  0
LINE
  8
_0-0_
  6
CONTINUOUS
 62
    7
 10
2281.3155753524647
 20
1971.0409991387805
 11
2281.3155753524647
 21
1873.0409991387805
  0
LINE
  8
_0-0_
  6
CONTINUOUS
 62
    7
 10
2291.3155753524647
 20
1982.0409991387805
 11
2291.3155753524647
 21
1971.0409991387805
  0
LINE
  8
_0-0_
  6
CONTINUOUS
 62
    7
 10
2281.3155753524647
 20
1971.0409991387805
 11
2281.3155753524647
 21
1982.0409991387805
  0
LINE
  8
_0-0_
  6
CONTINUOUS
 62
    7
 10
2291.3155753524647
 20
1873.0409991387805
 11
2291.3155753524647
 21
1862.0409991387805
  0
LINE
  8
_0-0_
  6
CONTINUOUS
 62
    7
 10
2281.3155753524647
 20
1862.0409991387805
 11
2281.3155753524647
 21
1873.0409991387805
  0
ARC
  8
_0-0_
  6
CONTINUOUS
 62
    7
 10
2523.315575352462
 20
1971.040999138781
 40
10
 50
270
 51
90
  0
LINE
  8
_0-0_
  6
CONTINUOUS
 62
    7
 10
2328.9566009934888
 20
1860.140893214101
 11
2330.8150701440927
 21
1859.1560339700623
  0
LINE
  8
_0-0_
  6
CONTINUOUS
 62
    7
 10
2337.6745452612117
 20
1878.1408109742274
 11
2340.8162427046882
 21
1876.4758473520499
  0
LINE
  8
_0-0_
  6
CONTINUOUS
 62
    7
 10
2330.8150701440927
 20
1859.1560339700623
 11
2367.6763874080107
 21
1837.8839277629249
  0
LINE
  8
_0-0_
  6
CONTINUOUS
 62
    7
 10
2377.3309113810101
 20
1855.3940867148137
 11
2340.8163727384972
 21
1876.4757674081304
  0
TEXT
  8
_0-1_
 62
    4
 10
2444.0731682787791
 20
1929.790999138781
 40
12.5
 41
1
 50
90
  1
φ20
  0
LINE
  8
_0-1_
  6
CONTINUOUS
 62
    4
 10
2446.5731682787791
 20
1961.040999138781
 11
2446.5731682787791
 21
1929.790999138781
  0
LINE
  8
_0-1_
  6
CONTINUOUS
 62
    4
 10
2446.5731682787791
 20
1981.040999138781
 11
2446.5731682787791
 21
1961.040999138781
  0
POINT
  8
_0-1_
 62
    7
 10
2446.5731682787791
 20
1981.040999138781
  0
POINT
  8
_0-1_
 62
    7
 10
2446.5731682787791
 20
1961.040999138781
  0
TEXT
  8
_0-1_
 62
    4
 10
2305.6233983323154
 20
1831.7909991387808
 40
12.5
 41
1
 50
90
  1
φ20
  0
POINT
  8
_0-1_
 62
    7
 10
2308.1233983323154
 20
1863.0409991387808
  0
POINT
  8
_0-1_
 62
    7
 10
2308.1233983323154
 20
1883.0409991387808
  0
LINE
  8
_0-1_
  6
CONTINUOUS
 62
    4
 10
2308.1233983323154
 20
1863.0409991387808
 11
2308.1233983323154
 21
1831.7909991387808
  0
LINE
  8
_0-1_
  6
CONTINUOUS
 62
    4
 10
2308.1233983323154
 20
1883.0409991387808
 11
2308.1233983323154
 21
1863.0409991387808
  0
TEXT
  8
_0-2_
 62
    7
 10
1614.6943364596746
 20
1066.3317848654224
 40
15
 41
1
 50
0
  1
タオルラック　-LANGBERGER,Viola-
  0
TEXT
  8
_0-1_
 62
    7
 10
1614.9523147930108
 20
1016.0341449630291
 40
15
 41
1
 50
0
  1
クローム
  0
ENDSEC
  0
EOF
