  0
SECTION
  2
HEADER
  9
$ACADVER
  1
AC1009
  9
$INSBASE
 10
0
 20
0
 30
0
  9
$EXTMIN
 10
0
 20
0
  9
$EXTMAX
 10
841
 20
594
  9
$LIMMIN
 10
0
 20
0
  9
$LIMMAX
 10
841
 20
594
  9
$LTSCALE
 40
1
  0
ENDSEC
  0
SECTION
  2
TABLES
  0
TABLE
  2
LTYPE
 70
     9
  0
LTYPE
  2
CONTINUOUS
 70
    64
  3
実線
 72
    65
 73
     0
 40
0.0
  0
LTYPE
  2
DASHED1
 70
    64
  3
--  --  --  --  --  --  --  --  
 72
    65
 73
     2
 40
2.5
 49
1.25
 49
-1.25
  0
LTYPE
  2
DASHED2
 70
    64
  3
----    ----    ----    ----    
 72
    65
 73
     2
 40
5.0
 49
2.5
 49
-2.5
  0
LTYPE
  2
DASHED3
 70
    64
  3
------  ------  ------  ------  
 72
    65
 73
     2
 40
5.0
 49
3.75
 49
-1.25
  0
LTYPE
  2
CENTER1
 70
    64
  3
----- - ----- - ----- - ----- - 
 72
    65
 73
     4
 40
10.0
 49
6.25
 49
-1.25
 49
1.25
 49
-1.25
  0
LTYPE
  2
CENTER2
 70
    64
  3
----------  --  ----------  --  
 72
    65
 73
     4
 40
20.0
 49
12.5
 49
-2.5
 49
2.5
 49
-2.5
  0
LTYPE
  2
PHANTOM1
 70
    64
  3
--- - - --- - - --- - - --- - - 
 72
    65
 73
     6
 40
10.0
 49
3.25
 49
-1.25
 49
1.25
 49
-1.25
 49
1.25
 49
-1.25
  0
LTYPE
  2
PHANTOM2
 70
    64
  3
--------  -  -  --------  -  -  
 72
    65
 73
     6
 40
20.0
 49
10.0
 49
-2.5
 49
1.25
 49
-2.5
 49
1.25
 49
-2.5
  0
LTYPE
  2
DOT
 70
    64
  3
-   -   -   -   -   -   -   -   
 72
    65
 73
     2
 40
2.5
 49
0.625
 49
-1.875
  0
LTYPE
  2
DUMMY
 70
    64
  3
ダミー
 72
    65
 73
     0
 40
0.0
  0
LTYPE
  2
RAND1
 70
    64
  3
ランダム線1
 72
    65
 73
     4
 40
10.0
 49
1.0
 49
-2.0
 49
3.0
 49
-4.0
  0
LTYPE
  2
RAND2
 70
    64
  3
ランダム線2
 72
    65
 73
     4
 40
14.0
 49
2.0
 49
-3.0
 49
4.0
 49
-5.0
  0
LTYPE
  2
RAND3
 70
    64
  3
ランダム線3
 72
    65
 73
     4
 40
18.0
 49
3.0
 49
-4.0
 49
5.0
 49
-6.0
  0
LTYPE
  2
RAND4
 70
    64
  3
ランダム線4
 72
    65
 73
     4
 40
22.0
 49
4.0
 49
-5.0
 49
6.0
 49
-7.0
  0
LTYPE
  2
RAND5
 70
    64
  3
ランダム線5
 72
    65
 73
     4
 40
26.0
 49
5.0
 49
-6.0
 49
7.0
 49
-8.0
  0
LTYPE
  2
LONG1
 70
    64
  3
----------  --  ----------  --  
 72
    65
 73
     4
 40
40.0
 49
32.5
 49
-2.5
 49
2.5
 49
-2.5
  0
LTYPE
  2
LONG2
 70
    64
  3
--------  -  -  --------  -  -  
 72
    65
 73
     6
 40
40.0
 49
30.0
 49
-2.5
 49
1.25
 49
-2.5
 49
1.25
 49
-2.5
  0
LTYPE
  2
LONG3
 70
    64
  3
+++++++++++++++..+++++++++++++++
 72
    65
 73
     2
 40
40.0
 49
37.5
 49
-2.5
  0
LTYPE
  2
LONG4
 70
    64
  3
+++++++++++++++..+++++++++++++++
 72
    65
 73
     2
 40
80.0
 49
75.0
 49
-5.0
  0
LTYPE
  2
LONG5
 70
    64
  3
----------  --  ----------  --  
 72
    65
 73
     4
 40
60.0
 49
37.5
 49
-7.5
 49
7.5
 49
-7.5
  0
LTYPE
  2
dashed
 70
   64
  3
-------   -------------   ------
 72
   65
 73
    2
 40
7.5
 49
6
 49
-1.5
  0
LTYPE
  2
dashed_spaced
 70
   64
  3
----        --------        ----
 72
   65
 73
    2
 40
12
 49
6
 49
-6
  0
LTYPE
  2
long_dashed_dotted
 70
   64
  3
------------- --- --------------
 72
   65
 73
    4
 40
15.25
 49
12
 49
-1.5
 49
0.25
 49
-1.5
  0
LTYPE
  2
long_dashed_double-dotted
 70
   64
  3
----------- --- --- ------------
 72
   65
 73
    6
 40
17
 49
12
 49
-1.5
 49
0.25
 49
-1.5
 49
0.25
 49
-1.5
  0
LTYPE
  2
long_dashed_triplicate-dotted
 70
   64
  3
--------- --- --- --- ----------
 72
   65
 73
    8
 40
18.75
 49
12
 49
-1.5
 49
0.25
 49
-1.5
 49
0.25
 49
-1.5
 49
0.25
 49
-1.5
  0
LTYPE
  2
dotted
 70
   64
  3
   -       -       -       -    
 72
   65
 73
    2
 40
1.75
 49
0.25
 49
-1.5
  0
LTYPE
  2
chain
 70
   64
  3
-------------- -- --------------
 72
   65
 73
    4
 40
18.5
 49
12
 49
-1.5
 49
3.5
 49
-1.5
  0
LTYPE
  2
chain_double_dash
 70
   64
  3
------------ -- -- -------------
 72
   65
 73
    6
 40
23.5
 49
12
 49
-1.5
 49
3.5
 49
-1.5
 49
3.5
 49
-1.5
  0
LTYPE
  2
dashed_dotted
 70
   64
  3
-----------     -     ----------
 72
   65
 73
    4
 40
9.25
 49
6
 49
-1.5
 49
0.25
 49
-1.5
  0
LTYPE
  2
double-dashed_dotted
 70
   64
  3
------   -----------   -   -----
 72
   65
 73
    6
 40
16.75
 49
6
 49
-1.5
 49
6
 49
-1.5
 49
0.25
 49
-1.5
  0
LTYPE
  2
dashed_double-dotted
 70
   64
  3
---------    -    -    ---------
 72
   65
 73
    6
 40
11
 49
6
 49
-1.5
 49
0.25
 49
-1.5
 49
0.25
 49
-1.5
  0
LTYPE
  2
double-dashed_double-dotted
 70
   64
  3
-----   ---------   -   -   ----
 72
   65
 73
    8
 40
18.5
 49
6
 49
-1.5
 49
6
 49
-1.5
 49
0.25
 49
-1.5
 49
0.25
 49
-1.5
  0
LTYPE
  2
dashed_triplicate-dotted
 70
   64
  3
-------    -    -    -    ------
 72
   65
 73
    8
 40
12.75
 49
6
 49
-1.5
 49
0.25
 49
-1.5
 49
0.25
 49
-1.5
 49
0.25
 49
-1.5
  0
LTYPE
  2
double-dashed_triplicate-dotted
 70
   64
  3
-----  ---------  -  -  -  -----
 72
   65
 73
   10
 40
20.25
 49
6
 49
-1.5
 49
6
 49
-1.5
 49
0.25
 49
-1.5
 49
0.25
 49
-1.5
 49
0.25
 49
-1.5
  0
LTYPE
  2
undefined
 70
   64
  3
--------------------------------
 72
   65
 73
    0
 40
0
  0
ENDTAB
  0
TABLE
  2
STYLE
  5
3
100
AcDbSymbolTable
 70
     1
  0
STYLE
  5
10
100
AcDbSymbolTableRecord
100
AcDbTextStyleTableRecord
  2
STANDARD
 70
     0
 40
0.0
 41
1.0
 50
0.0
 71
     0
 42
0.2
  3
txt
  4
bigfont.shx
  0
STYLE
  5
26
100
AcDbSymbolTableRecord
100
AcDbTextStyleTableRecord
  2
TATEGAKI
 70
    68
 40
0.0
 41
1.0
 50
0.0
 71
     0
 42
1.0
  3
txt
  4
bigfont.shx
  0
ENDTAB
  0
TABLE
  2
LAYER
 70
    4
  0
LAYER
  2
_0-0_
 70
   64
 62
    7
  6
CONTINUOUS
  0
LAYER
  2
_0-1_FRF74-1703
 70
   64
 62
    7
  6
CONTINUOUS
  0
LAYER
  2
_0-2_FRF74-1703
 70
   64
 62
    7
  6
CONTINUOUS
  0
LAYER
  2
ADD_LINE
 70
   64
 62
    7
  6
CONTINUOUS
  0
ENDTAB
  0
ENDSEC
  0
SECTION
  2
BLOCKS
  0
ENDSEC
  0
SECTION
  2
ENTITIES
  0
LINE
  8
_0-2_FRF74-1703
  6
CONTINUOUS
 62
    7
 10
85.432636807045981
 20
222.78431921145977
 11
-109.56736319295396
 21
222.78431921145977
  0
LINE
  8
_0-2_FRF74-1703
  6
CONTINUOUS
 62
    7
 10
85.432636807094241
 20
485.78431921145977
 11
-109.56736319290576
 21
485.78431921145977
  0
LINE
  8
_0-2_FRF74-1703
  6
CONTINUOUS
 62
    7
 10
-109.56736319290576
 20
485.78431921145977
 11
-109.56736319290576
 21
205.78431921145977
  0
LINE
  8
_0-2_FRF74-1703
  6
CONTINUOUS
 62
    7
 10
-109.56736319290576
 20
205.78431921145977
 11
85.432636807094241
 21
205.78431921145977
  0
LINE
  8
_0-2_FRF74-1703
  6
CONTINUOUS
 62
    7
 10
85.432636807094241
 20
205.78431921145977
 11
85.432636807094241
 21
485.78431921145977
  0
LINE
  8
_0-2_FRF74-1703
  6
CONTINUOUS
 62
    7
 10
85.432636807045981
 20
231.28431921145983
 11
-109.56736319295396
 21
231.28431921145983
  0
LINE
  8
_0-2_FRF74-1703
  6
CONTINUOUS
 62
    7
 10
85.432636807094241
 20
214.28431921145977
 11
10.132636807094229
 21
214.28431921145977
  0
LINE
  8
_0-2_FRF74-1703
  6
CONTINUOUS
 62
    7
 10
60.332636807120139
 20
214.28431921145977
 11
60.332636807120139
 21
222.78431921145977
  0
LINE
  8
_0-2_FRF74-1703
  6
CONTINUOUS
 62
    7
 10
35.232636807120116
 20
214.28431921145977
 11
35.232636807120116
 21
222.78431921145977
  0
LINE
  8
_0-2_FRF74-1703
  6
CONTINUOUS
 62
    7
 10
10.132636807120093
 20
205.78431921145977
 11
10.132636807120093
 21
231.28431921145983
  0
TEXT
  8
_0-2_FRF74-1703
 62
    7
 10
13.665785211464083
 20
208.11324446189548
 40
3
 41
1
 50
0
  1
大洋金物株式会社 ティーフォルム事業部
  0
TEXT
  8
_0-2_FRF74-1703
 62
    7
 10
-108.5013363963742
 20
219.62979474920604
 40
2.2000000000000002
 41
1
 50
0
  1
仕様
  0
TEXT
  8
_0-2_FRF74-1703
 62
    7
 10
-108.46175739836542
 20
228.01451400968296
 40
2.2000000000000002
 41
1
 50
0
  1
品名
  0
TEXT
  8
_0-2_FRF74-1703
 62
    7
 10
11.273271547607976
 20
228.16241768348573
 40
2.2000000000000002
 41
1
 50
0
  1
品番
  0
TEXT
  8
_0-2_FRF74-1703
 62
    7
 10
11.183435184562711
 20
219.57861246087958
 40
2.2000000000000002
 41
1
 50
0
  1
重量
  0
TEXT
  8
_0-2_FRF74-1703
 62
    7
 10
36.300295993281736
 20
219.79254132352884
 40
2.2000000000000002
 41
1
 50
0
  1
容量
  0
TEXT
  8
_0-2_FRF74-1703
 62
    7
 10
61.407009855576291
 20
219.74983416093033
 40
2.2000000000000002
 41
1
 50
0
  1
縮尺
  0
LINE
  8
_0-1_FRF74-1703
  6
CONTINUOUS
 62
    4
 10
-97.641067323964194
 20
342.36914964373136
 11
-97.641067323964194
 21
305.36914964188134
  0
POINT
  8
_0-1_FRF74-1703
 62
    7
 10
-97.641067323964194
 20
342.36914964373136
  0
POINT
  8
_0-1_FRF74-1703
 62
    7
 10
-97.641067323964194
 20
305.36914964188134
  0
TEXT
  8
_0-1_FRF74-1703
 62
    4
 10
-98.141067323964194
 20
322.61914964280635
 40
2.5
 41
1
 50
90
  1
37
  0
LINE
  8
_0-1_FRF74-1703
  6
CONTINUOUS
 62
    7
 10
-97.641067323964194
 20
305.36914964188134
 11
-97.641067323964194
 21
305.16098119501578
  0
LINE
  8
_0-1_FRF74-1703
  6
CONTINUOUS
 62
    4
 10
-82.641067323964194
 20
290.36914964188134
 11
-63.641067323014227
 21
290.36914964188134
  0
POINT
  8
_0-1_FRF74-1703
 62
    7
 10
-82.641067323964194
 20
290.36914964188134
  0
POINT
  8
_0-1_FRF74-1703
 62
    7
 10
-63.641067323014227
 20
290.36914964188134
  0
TEXT
  8
_0-1_FRF74-1703
 62
    4
 10
-74.39106732348921
 20
290.86914964188134
 40
2.5
 41
1
 50
0
  1
19
  0
LINE
  8
_0-1_FRF74-1703
  6
CONTINUOUS
 62
    4
 10
-82.641067323964194
 20
290.36914964188134
 11
-82.641067323964194
 21
302.36914964188134
  0
LINE
  8
_0-1_FRF74-1703
  6
CONTINUOUS
 62
    4
 10
-63.641067323014227
 20
290.36914964188134
 11
-63.641067323014227
 21
302.36914964188134
  0
LINE
  8
_0-1_FRF74-1703
  6
CONTINUOUS
 62
    4
 10
-97.641067323964194
 20
305.36914964188134
 11
-85.641067323964194
 21
305.36914964188134
  0
LINE
  8
_0-1_FRF74-1703
  6
CONTINUOUS
 62
    4
 10
-97.641067323964194
 20
342.36914964373136
 11
-85.641067323964194
 21
342.36914964373136
  0
LINE
  8
_0-0_
  6
CONTINUOUS
 62
    7
 10
-82.641067323964194
 20
309.36914964208131
 11
-82.641067323964194
 21
305.36914964188134
  0
LINE
  8
_0-0_
  6
CONTINUOUS
 62
    7
 10
-63.641067323014227
 20
305.36914964188134
 11
-63.641067323014227
 21
309.36914964208131
  0
LINE
  8
_0-0_
  6
CONTINUOUS
 62
    7
 10
-82.641067323964194
 20
309.36914964208131
 11
-63.64106732301417
 21
309.36914964208131
  0
LINE
  8
_0-0_
  6
CONTINUOUS
 62
    7
 10
-82.641067323964194
 20
305.36914964188134
 11
-63.64106732301417
 21
305.36914964188134
  0
LINE
  8
_0-0_
  6
CONTINUOUS
 62
    7
 10
-31.641067321414198
 20
309.36914964208131
 11
-31.641067321414198
 21
305.36914964188134
  0
LINE
  8
_0-0_
  6
CONTINUOUS
 62
    7
 10
-12.641067320464231
 20
305.36914964188134
 11
-12.641067320464231
 21
309.36914964208131
  0
ARC
  8
_0-0_
  6
CONTINUOUS
 62
    7
 10
-28.641067321264188
 20
309.86914964210632
 40
0.5000000000250189
 50
270
 51
0
  0
ARC
  8
_0-0_
  6
CONTINUOUS
 62
    7
 10
-15.641067320614184
 20
309.86914964210632
 40
0.5000000000250189
 50
180
 51
270
  0
LINE
  8
_0-0_
  6
CONTINUOUS
 62
    7
 10
-28.141067321239234
 20
339.36914964358135
 11
-28.141067321239234
 21
309.86914964210632
  0
LINE
  8
_0-0_
  6
CONTINUOUS
 62
    7
 10
-16.141067320639195
 20
309.86914964210632
 11
-16.141067320639195
 21
339.36914964358135
  0
ARC
  8
_0-0_
  6
CONTINUOUS
 62
    7
 10
-79.641067323814241
 20
309.86914964210632
 40
0.500000000025
 50
270.00000000000108
 51
0
  0
ARC
  8
_0-0_
  6
CONTINUOUS
 62
    7
 10
-66.641067323164236
 20
309.86914964210632
 40
0.500000000025
 50
180
 51
270.00000000000108
  0
LINE
  8
_0-0_
  6
CONTINUOUS
 62
    7
 10
-79.14106732378923
 20
339.36914964358135
 11
-79.14106732378923
 21
309.86914964210632
  0
LINE
  8
_0-0_
  6
CONTINUOUS
 62
    7
 10
-67.141067323189191
 20
309.86914964210632
 11
-67.141067323189191
 21
339.36914964358135
  0
LINE
  8
_0-0_
  6
CONTINUOUS
 62
    7
 10
-12.641067320464231
 20
339.36914964358135
 11
-12.641067320464231
 21
342.36914964373136
  0
LINE
  8
_0-0_
  6
CONTINUOUS
 62
    7
 10
-82.641067323964194
 20
342.36914964373136
 11
-82.641067323964194
 21
339.36914964358135
  0
LINE
  8
_0-0_
  6
CONTINUOUS
 62
    7
 10
-31.641067321414198
 20
309.36914964208131
 11
-12.641067320464231
 21
309.36914964208131
  0
LINE
  8
_0-0_
  6
CONTINUOUS
 62
    7
 10
-31.641067321414198
 20
305.36914964188134
 11
-12.641067320464231
 21
305.36914964188134
  0
LINE
  8
_0-0_
  6
CONTINUOUS
 62
    7
 10
-12.641067320464231
 20
339.36914964358135
 11
-22.141067320939214
 21
339.36914964358135
  0
LINE
  8
_0-0_
  6
CONTINUOUS
 62
    7
 10
-12.641067320464231
 20
342.36914964373136
 11
-22.141067320939214
 21
342.36914964373136
  0
LINE
  8
_0-0_
  6
CONTINUOUS
 62
    7
 10
-22.141067320939214
 20
339.36914964358135
 11
-73.14106732348921
 21
339.36914964358135
  0
LINE
  8
_0-0_
  6
CONTINUOUS
 62
    7
 10
-22.141067320939214
 20
342.36914964373136
 11
-73.14106732348921
 21
342.36914964373136
  0
LINE
  8
_0-0_
  6
CONTINUOUS
 62
    7
 10
-73.14106732348921
 20
339.36914964358135
 11
-82.641067323964194
 21
339.36914964358135
  0
LINE
  8
_0-0_
  6
CONTINUOUS
 62
    7
 10
-73.14106732348921
 20
342.36914964373136
 11
-82.641067323964194
 21
342.36914964373136
  0
TEXT
  8
_0-2_FRF74-1703
 62
    7
 10
16.930906057853861
 20
224.733188728215
 40
3
 41
1
 50
0
  1
FRF74-1703
  0
TEXT
  8
_0-2_FRF74-1703
 62
    4
 10
-109.21746733112866
 20
201.60538484166796
 40
2.5
 41
1
 50
0
  1
120910S
  0
POINT
  8
_0-1_FRF74-1703
 62
    7
 10
68.677620576415507
 20
408.63289343162489
  0
POINT
  8
_0-1_FRF74-1703
 62
    7
 10
68.677620576415507
 20
389.63289343067481
  0
TEXT
  8
_0-1_FRF74-1703
 62
    4
 10
71.677620576415507
 20
397.88289343114985
 40
2.5
 41
1
 50
90
  1
19
  0
LINE
  8
_0-1_FRF74-1703
  6
CONTINUOUS
 62
    4
 10
68.677620576415507
 20
408.63289343162489
 11
68.677620576415507
 21
402.8352968384678
  0
LINE
  8
_0-1_FRF74-1703
  6
CONTINUOUS
 62
    4
 10
68.677620576415507
 20
402.8352968384678
 11
68.677620576415507
 21
389.63289343067481
  0
LINE
  8
_0-1_FRF74-1703
  6
CONTINUOUS
 62
    4
 10
68.677620576415507
 20
408.63289343162489
 11
56.677620576415507
 21
408.63289343162489
  0
LINE
  8
_0-1_FRF74-1703
  6
CONTINUOUS
 62
    4
 10
68.677620576415507
 20
389.63289343067481
 11
56.677620576415507
 21
389.63289343067481
  0
LINE
  8
_0-0_
  6
CONTINUOUS
 62
    7
 10
20.677620574765456
 20
389.63289343067487
 11
16.677620574565481
 21
389.63289343067487
  0
LINE
  8
_0-0_
  6
CONTINUOUS
 62
    7
 10
16.677620574565481
 20
408.63289343162484
 11
20.677620574765456
 21
408.63289343162484
  0
ARC
  8
_0-0_
  6
CONTINUOUS
 62
    7
 10
21.177620574790467
 20
392.63289343082488
 40
0.500000000025
 50
90
 51
179.99999999999784
  0
ARC
  8
_0-0_
  6
CONTINUOUS
 62
    7
 10
21.177620574790467
 20
405.63289343147483
 40
0.5000000000250189
 50
180.00000000000216
 51
270
  0
LINE
  8
_0-0_
  6
CONTINUOUS
 62
    7
 10
50.677620576265497
 20
393.13289343084983
 11
21.177620574790467
 21
393.13289343084983
  0
LINE
  8
_0-0_
  6
CONTINUOUS
 62
    7
 10
21.177620574790467
 20
405.13289343144982
 11
50.677620576265497
 21
405.13289343144982
  0
LINE
  8
_0-0_
  6
CONTINUOUS
 62
    7
 10
20.677620574765456
 20
399.13289343114985
 11
20.677620574765456
 21
408.63289343162484
  0
LINE
  8
_0-0_
  6
CONTINUOUS
 62
    7
 10
20.677620574765456
 20
389.63289343067481
 11
20.677620574765456
 21
399.13289343114985
  0
LINE
  8
_0-0_
  6
CONTINUOUS
 62
    7
 10
16.677620574565481
 20
399.13289343114985
 11
16.677620574565481
 21
408.63289343162489
  0
LINE
  8
_0-0_
  6
CONTINUOUS
 62
    7
 10
16.677620574565481
 20
389.63289343067481
 11
16.677620574565481
 21
399.13289343114985
  0
LINE
  8
_0-0_
  6
CONTINUOUS
 62
    7
 10
50.677620576265497
 20
408.63289343162489
 11
53.677620576415507
 21
408.63289343162489
  0
LINE
  8
_0-0_
  6
CONTINUOUS
 62
    7
 10
50.677620576265497
 20
408.63289343162489
 11
50.677620576265497
 21
389.63289343067481
  0
LINE
  8
_0-0_
  6
CONTINUOUS
 62
    7
 10
50.677620576265497
 20
389.63289343067481
 11
53.677620576415507
 21
389.63289343067481
  0
LINE
  8
_0-0_
  6
CONTINUOUS
 62
    7
 10
53.677620576415507
 20
408.63289343162489
 11
53.677620576415507
 21
389.63289343067481
  0
TEXT
  8
_0-2_FRF74-1703
 62
    7
 10
-102.25356961893203
 20
224.64639311296872
 40
3
 41
1
 50
0
  1
フック　-LANGBERGER,Viola-
  0
TEXT
  8
_0-0_
 62
    7
 10
-102.59662553572286
 20
215.04753920783679
 40
3
 41
1
 50
0
  1
クローム
  0
TEXT
  8
_0-1_FRF74-1703
 62
    4
 10
-48.891067322214212
 20
424.13289343162489
 40
2.5
 41
1
 50
0
  1
51
  0
POINT
  8
_0-1_FRF74-1703
 62
    7
 10
-22.141067320939214
 20
423.63289343162489
  0
POINT
  8
_0-1_FRF74-1703
 62
    7
 10
-73.14106732348921
 20
423.63289343162489
  0
LINE
  8
_0-1_FRF74-1703
  6
CONTINUOUS
 62
    4
 10
-73.14106732348921
 20
423.63289343162489
 11
-22.141067320939214
 21
423.63289343162489
  0
LINE
  8
_0-1_FRF74-1703
  6
CONTINUOUS
 62
    4
 10
-73.14106732348921
 20
423.63289343162489
 11
-73.14106732348921
 21
411.63289343162489
  0
LINE
  8
_0-1_FRF74-1703
  6
CONTINUOUS
 62
    4
 10
-22.141067320939214
 20
423.63289343162489
 11
-22.141067320939214
 21
411.63289343162489
  0
CIRCLE
  8
_0-0_
  6
CONTINUOUS
 62
    7
 10
-22.141067320939214
 20
399.13289332234882
 40
9.5000000004749818
  0
CIRCLE
  8
_0-0_
  6
CONTINUOUS
 62
    7
 10
-73.14106732348921
 20
399.13289332234882
 40
9.5000000004750103
  0
LINE
  8
_0-0_
  6
CONTINUOUS
 62
    7
 10
-22.141067096840175
 20
408.63289343162489
 11
-73.141068008361003
 21
408.63289343162489
  0
LINE
  8
_0-0_
  6
CONTINUOUS
 62
    7
 10
-73.141068008361003
 20
389.63289331402672
 11
-22.141067096840175
 21
389.63289331402672
  0
LINE
  8
_0-0_
  6
CONTINUOUS
 62
    4
 10
-82.641067323964194
 20
433.63289343162489
 11
-12.641067320464231
 21
433.63289343162489
  0
POINT
  8
_0-0_
 62
    7
 10
-82.641067323964194
 20
433.63289343162489
  0
POINT
  8
_0-0_
 62
    7
 10
-12.641067320464231
 20
433.63289343162489
  0
LINE
  8
_0-0_
  6
CONTINUOUS
 62
    4
 10
-82.641067323964194
 20
433.63289343162489
 11
-82.641067323964194
 21
402.13289343114985
  0
LINE
  8
_0-0_
  6
CONTINUOUS
 62
    4
 10
-12.641067320464231
 20
433.63289343162489
 11
-12.641067320464231
 21
402.13289343114985
  0
TEXT
  8
_0-0_
 62
    4
 10
-48.891067322214212
 20
434.13289343162489
 40
2.5
 41
1
 50
0
  1
70
  0
ENDSEC
  0
EOF
