  0
SECTION
  2
HEADER
  9
$ACADVER
  1
AC1009
  9
$INSBASE
 10
0
 20
0
 30
0
  9
$EXTMIN
 10
0
 20
0
  9
$EXTMAX
 10
1682
 20
1188
  9
$LIMMIN
 10
0
 20
0
  9
$LIMMAX
 10
1682
 20
1188
  9
$LTSCALE
 40
2
  0
ENDSEC
  0
SECTION
  2
TABLES
  0
TABLE
  2
LTYPE
 70
     9
  0
LTYPE
  2
CONTINUOUS
 70
    64
  3
実線
 72
    65
 73
     0
 40
0.0
  0
LTYPE
  2
DASHED1
 70
    64
  3
--  --  --  --  --  --  --  --  
 72
    65
 73
     2
 40
2.5
 49
1.25
 49
-1.25
  0
LTYPE
  2
DASHED2
 70
    64
  3
----    ----    ----    ----    
 72
    65
 73
     2
 40
5.0
 49
2.5
 49
-2.5
  0
LTYPE
  2
DASHED3
 70
    64
  3
------  ------  ------  ------  
 72
    65
 73
     2
 40
5.0
 49
3.75
 49
-1.25
  0
LTYPE
  2
CENTER1
 70
    64
  3
----- - ----- - ----- - ----- - 
 72
    65
 73
     4
 40
10.0
 49
6.25
 49
-1.25
 49
1.25
 49
-1.25
  0
LTYPE
  2
CENTER2
 70
    64
  3
----------  --  ----------  --  
 72
    65
 73
     4
 40
20.0
 49
12.5
 49
-2.5
 49
2.5
 49
-2.5
  0
LTYPE
  2
PHANTOM1
 70
    64
  3
--- - - --- - - --- - - --- - - 
 72
    65
 73
     6
 40
10.0
 49
3.25
 49
-1.25
 49
1.25
 49
-1.25
 49
1.25
 49
-1.25
  0
LTYPE
  2
PHANTOM2
 70
    64
  3
--------  -  -  --------  -  -  
 72
    65
 73
     6
 40
20.0
 49
10.0
 49
-2.5
 49
1.25
 49
-2.5
 49
1.25
 49
-2.5
  0
LTYPE
  2
DOT
 70
    64
  3
-   -   -   -   -   -   -   -   
 72
    65
 73
     2
 40
2.5
 49
0.625
 49
-1.875
  0
LTYPE
  2
DUMMY
 70
    64
  3
ダミー
 72
    65
 73
     0
 40
0.0
  0
LTYPE
  2
RAND1
 70
    64
  3
ランダム線1
 72
    65
 73
     4
 40
10.0
 49
1.0
 49
-2.0
 49
3.0
 49
-4.0
  0
LTYPE
  2
RAND2
 70
    64
  3
ランダム線2
 72
    65
 73
     4
 40
14.0
 49
2.0
 49
-3.0
 49
4.0
 49
-5.0
  0
LTYPE
  2
RAND3
 70
    64
  3
ランダム線3
 72
    65
 73
     4
 40
18.0
 49
3.0
 49
-4.0
 49
5.0
 49
-6.0
  0
LTYPE
  2
RAND4
 70
    64
  3
ランダム線4
 72
    65
 73
     4
 40
22.0
 49
4.0
 49
-5.0
 49
6.0
 49
-7.0
  0
LTYPE
  2
RAND5
 70
    64
  3
ランダム線5
 72
    65
 73
     4
 40
26.0
 49
5.0
 49
-6.0
 49
7.0
 49
-8.0
  0
LTYPE
  2
LONG1
 70
    64
  3
----------  --  ----------  --  
 72
    65
 73
     4
 40
40.0
 49
32.5
 49
-2.5
 49
2.5
 49
-2.5
  0
LTYPE
  2
LONG2
 70
    64
  3
--------  -  -  --------  -  -  
 72
    65
 73
     6
 40
40.0
 49
30.0
 49
-2.5
 49
1.25
 49
-2.5
 49
1.25
 49
-2.5
  0
LTYPE
  2
LONG3
 70
    64
  3
+++++++++++++++..+++++++++++++++
 72
    65
 73
     2
 40
40.0
 49
37.5
 49
-2.5
  0
LTYPE
  2
LONG4
 70
    64
  3
+++++++++++++++..+++++++++++++++
 72
    65
 73
     2
 40
80.0
 49
75.0
 49
-5.0
  0
LTYPE
  2
LONG5
 70
    64
  3
----------  --  ----------  --  
 72
    65
 73
     4
 40
60.0
 49
37.5
 49
-7.5
 49
7.5
 49
-7.5
  0
LTYPE
  2
dashed
 70
   64
  3
-------   -------------   ------
 72
   65
 73
    2
 40
7.5
 49
6
 49
-1.5
  0
LTYPE
  2
dashed_spaced
 70
   64
  3
----        --------        ----
 72
   65
 73
    2
 40
12
 49
6
 49
-6
  0
LTYPE
  2
long_dashed_dotted
 70
   64
  3
------------- --- --------------
 72
   65
 73
    4
 40
15.25
 49
12
 49
-1.5
 49
0.25
 49
-1.5
  0
LTYPE
  2
long_dashed_double-dotted
 70
   64
  3
----------- --- --- ------------
 72
   65
 73
    6
 40
17
 49
12
 49
-1.5
 49
0.25
 49
-1.5
 49
0.25
 49
-1.5
  0
LTYPE
  2
long_dashed_triplicate-dotted
 70
   64
  3
--------- --- --- --- ----------
 72
   65
 73
    8
 40
18.75
 49
12
 49
-1.5
 49
0.25
 49
-1.5
 49
0.25
 49
-1.5
 49
0.25
 49
-1.5
  0
LTYPE
  2
dotted
 70
   64
  3
   -       -       -       -    
 72
   65
 73
    2
 40
1.75
 49
0.25
 49
-1.5
  0
LTYPE
  2
chain
 70
   64
  3
-------------- -- --------------
 72
   65
 73
    4
 40
18.5
 49
12
 49
-1.5
 49
3.5
 49
-1.5
  0
LTYPE
  2
chain_double_dash
 70
   64
  3
------------ -- -- -------------
 72
   65
 73
    6
 40
23.5
 49
12
 49
-1.5
 49
3.5
 49
-1.5
 49
3.5
 49
-1.5
  0
LTYPE
  2
dashed_dotted
 70
   64
  3
-----------     -     ----------
 72
   65
 73
    4
 40
9.25
 49
6
 49
-1.5
 49
0.25
 49
-1.5
  0
LTYPE
  2
double-dashed_dotted
 70
   64
  3
------   -----------   -   -----
 72
   65
 73
    6
 40
16.75
 49
6
 49
-1.5
 49
6
 49
-1.5
 49
0.25
 49
-1.5
  0
LTYPE
  2
dashed_double-dotted
 70
   64
  3
---------    -    -    ---------
 72
   65
 73
    6
 40
11
 49
6
 49
-1.5
 49
0.25
 49
-1.5
 49
0.25
 49
-1.5
  0
LTYPE
  2
double-dashed_double-dotted
 70
   64
  3
-----   ---------   -   -   ----
 72
   65
 73
    8
 40
18.5
 49
6
 49
-1.5
 49
6
 49
-1.5
 49
0.25
 49
-1.5
 49
0.25
 49
-1.5
  0
LTYPE
  2
dashed_triplicate-dotted
 70
   64
  3
-------    -    -    -    ------
 72
   65
 73
    8
 40
12.75
 49
6
 49
-1.5
 49
0.25
 49
-1.5
 49
0.25
 49
-1.5
 49
0.25
 49
-1.5
  0
LTYPE
  2
double-dashed_triplicate-dotted
 70
   64
  3
-----  ---------  -  -  -  -----
 72
   65
 73
   10
 40
20.25
 49
6
 49
-1.5
 49
6
 49
-1.5
 49
0.25
 49
-1.5
 49
0.25
 49
-1.5
 49
0.25
 49
-1.5
  0
LTYPE
  2
undefined
 70
   64
  3
--------------------------------
 72
   65
 73
    0
 40
0
  0
ENDTAB
  0
TABLE
  2
STYLE
  5
3
100
AcDbSymbolTable
 70
     1
  0
STYLE
  5
10
100
AcDbSymbolTableRecord
100
AcDbTextStyleTableRecord
  2
STANDARD
 70
     0
 40
0.0
 41
1.0
 50
0.0
 71
     0
 42
0.2
  3
txt
  4
bigfont.shx
  0
STYLE
  5
26
100
AcDbSymbolTableRecord
100
AcDbTextStyleTableRecord
  2
TATEGAKI
 70
    68
 40
0.0
 41
1.0
 50
0.0
 71
     0
 42
1.0
  3
txt
  4
bigfont.shx
  0
ENDTAB
  0
TABLE
  2
LAYER
 70
    4
  0
LAYER
  2
_0-0_
 70
   64
 62
    7
  6
CONTINUOUS
  0
LAYER
  2
_0-1_
 70
   64
 62
    7
  6
CONTINUOUS
  0
LAYER
  2
_0-2_FRF74-1704
 70
   64
 62
    7
  6
CONTINUOUS
  0
LAYER
  2
ADD_LINE
 70
   64
 62
    7
  6
CONTINUOUS
  0
ENDTAB
  0
ENDSEC
  0
SECTION
  2
BLOCKS
  0
ENDSEC
  0
SECTION
  2
ENTITIES
  0
LINE
  8
_0-2_FRF74-1704
  6
CONTINUOUS
 62
    7
 10
1079.8988725370491
 20
503.2673488237719
 11
689.8988725370491
 21
503.2673488237719
  0
LINE
  8
_0-2_FRF74-1704
  6
CONTINUOUS
 62
    7
 10
1079.8988725371457
 20
1029.267348823772
 11
689.89887253714551
 21
1029.267348823772
  0
LINE
  8
_0-2_FRF74-1704
  6
CONTINUOUS
 62
    7
 10
689.89887253714551
 20
1029.267348823772
 11
689.89887253714551
 21
469.2673488237719
  0
LINE
  8
_0-2_FRF74-1704
  6
CONTINUOUS
 62
    7
 10
689.89887253714551
 20
469.2673488237719
 11
1079.8988725371457
 21
469.2673488237719
  0
LINE
  8
_0-2_FRF74-1704
  6
CONTINUOUS
 62
    7
 10
1079.8988725371457
 20
469.2673488237719
 11
1079.8988725371457
 21
1029.267348823772
  0
LINE
  8
_0-2_FRF74-1704
  6
CONTINUOUS
 62
    7
 10
1079.8988725370491
 20
520.26734882377195
 11
689.8988725370491
 21
520.26734882377195
  0
LINE
  8
_0-2_FRF74-1704
  6
CONTINUOUS
 62
    7
 10
1079.8988725371457
 20
486.2673488237719
 11
929.29887253714571
 21
486.2673488237719
  0
LINE
  8
_0-2_FRF74-1704
  6
CONTINUOUS
 62
    7
 10
1029.6988725371975
 20
486.2673488237719
 11
1029.6988725371975
 21
503.2673488237719
  0
LINE
  8
_0-2_FRF74-1704
  6
CONTINUOUS
 62
    7
 10
979.49887253719749
 20
486.2673488237719
 11
979.49887253719749
 21
503.2673488237719
  0
LINE
  8
_0-2_FRF74-1704
  6
CONTINUOUS
 62
    7
 10
929.29887253719744
 20
469.2673488237719
 11
929.29887253719744
 21
520.26734882377195
  0
TEXT
  8
_0-2_FRF74-1704
 62
    7
 10
936.36516934588531
 20
473.92519932464324
 40
6
 41
1
 50
0
  1
大洋金物株式会社 ティーフォルム事業部
  0
TEXT
  8
_0-2_FRF74-1704
 62
    7
 10
692.03092613020874
 20
496.95829989926438
 40
4.4000000000000004
 41
1
 50
0
  1
仕様
  0
TEXT
  8
_0-2_FRF74-1704
 62
    7
 10
692.11008412622641
 20
513.7277384202182
 40
4.4000000000000004
 41
1
 50
0
  1
品名
  0
TEXT
  8
_0-2_FRF74-1704
 62
    7
 10
931.58014201817321
 20
514.02354576782386
 40
4.4000000000000004
 41
1
 50
0
  1
品番
  0
TEXT
  8
_0-2_FRF74-1704
 62
    7
 10
931.40046929208268
 20
496.85593532261146
 40
4.4000000000000004
 41
1
 50
0
  1
重量
  0
TEXT
  8
_0-2_FRF74-1704
 62
    7
 10
981.63419090952073
 20
497.28379304790997
 40
4.4000000000000004
 41
1
 50
0
  1
容量
  0
TEXT
  8
_0-2_FRF74-1704
 62
    7
 10
1031.8476186341097
 20
497.19837872271296
 40
4.4000000000000004
 41
1
 50
0
  1
縮尺
  0
TEXT
  8
_0-2_FRF74-1704
 62
    4
 10
690.59866426069993
 20
460.90948008418826
 40
5
 41
1
 50
0
  1
120907S
  0
TEXT
  8
_0-2_FRF74-1704
 62
    7
 10
942.89541103866486
 20
507.16508785728229
 40
6
 41
1
 50
0
  1
FRF74-1704
  0
LINE
  8
_0-1_
  6
CONTINUOUS
 62
    4
 10
974.53739259539316
 20
869.1534454222824
 11
974.53739259539316
 21
851.1534454222824
  0
POINT
  8
_0-1_
 62
    7
 10
974.53739259539316
 20
869.1534454222824
  0
POINT
  8
_0-1_
 62
    7
 10
974.53739259539316
 20
851.1534454222824
  0
LINE
  8
_0-1_
  6
CONTINUOUS
 62
    4
 10
974.53739259539316
 20
869.1534454222824
 11
998.53739259539316
 21
869.1534454222824
  0
LINE
  8
_0-1_
  6
CONTINUOUS
 62
    4
 10
974.53739259539316
 20
851.1534454222824
 11
998.53739259539316
 21
851.1534454222824
  0
TEXT
  8
_0-1_
 62
    4
 10
973.53739259539316
 20
857.6534454222824
 40
5
 41
1
 50
90
  1
18
  0
LINE
  8
_0-1_
  6
CONTINUOUS
 62
    4
 10
708.7949711080073
 20
869.25344557955759
 11
708.7949711080073
 21
769.25344408944147
  0
POINT
  8
_0-1_
 62
    7
 10
708.7949711080073
 20
869.25344557955759
  0
POINT
  8
_0-1_
 62
    7
 10
708.7949711080073
 20
769.25344408944147
  0
LINE
  8
_0-1_
  6
CONTINUOUS
 62
    4
 10
708.7949711080073
 20
869.25344557955759
 11
732.7949711080073
 21
869.25344557955759
  0
LINE
  8
_0-1_
  6
CONTINUOUS
 62
    4
 10
708.7949711080073
 20
769.25344408944147
 11
732.7949711080073
 21
769.25344408944147
  0
TEXT
  8
_0-1_
 62
    4
 10
707.7949711080073
 20
815.50344483449953
 40
5
 41
1
 50
90
  1
100
  0
LINE
  8
_0-1_
  6
CONTINUOUS
 62
    4
 10
738.7949711080073
 20
739.25344408944147
 11
938.79497408823977
 21
739.25344408944147
  0
POINT
  8
_0-1_
 62
    7
 10
738.7949711080073
 20
739.25344408944147
  0
POINT
  8
_0-1_
 62
    7
 10
938.79497408823977
 20
739.25344408944147
  0
LINE
  8
_0-1_
  6
CONTINUOUS
 62
    4
 10
738.7949711080073
 20
739.25344408944147
 11
738.7949711080073
 21
763.25344408944147
  0
LINE
  8
_0-1_
  6
CONTINUOUS
 62
    4
 10
938.79497408823977
 20
739.25344408944147
 11
938.79497408823977
 21
763.35344578221338
  0
TEXT
  8
_0-1_
 62
    4
 10
835.04497259812354
 20
740.25344408944147
 40
5
 41
1
 50
0
  1
200
  0
LINE
  8
_0-1_
  6
CONTINUOUS
 62
    4
 10
819.79497095694023
 20
707.35910151845201
 11
857.79497095694023
 21
707.35910151845201
  0
POINT
  8
_0-1_
 62
    7
 10
819.79497095694023
 20
707.35910151845201
  0
POINT
  8
_0-1_
 62
    7
 10
857.79497095694023
 20
707.35910151845201
  0
LINE
  8
_0-1_
  6
CONTINUOUS
 62
    4
 10
819.79497095694023
 20
707.35910151845201
 11
819.79497095694023
 21
683.35910151845201
  0
LINE
  8
_0-1_
  6
CONTINUOUS
 62
    4
 10
857.79497095694023
 20
707.35910151845201
 11
857.79497095694023
 21
683.35910151845201
  0
TEXT
  8
_0-1_
 62
    4
 10
836.29497095694023
 20
708.35910151845201
 40
5
 41
1
 50
0
  1
38
  0
LINE
  8
_0-1_
  6
CONTINUOUS
 62
    4
 10
1004.5373925953932
 20
895.98701107387967
 11
1004.5373925953932
 21
875.1534454222824
  0
LINE
  8
_0-1_
  6
CONTINUOUS
 62
    4
 10
1039.5373925953934
 20
895.98701107387967
 11
1039.5373925953934
 21
866.1534454222824
  0
LINE
  8
_0-1_
  6
CONTINUOUS
 62
    4
 10
1004.5373925953932
 20
899.54037603188897
 11
1039.5373925953934
 21
899.54037603188897
  0
POINT
  8
_0-1_
 62
    7
 10
1004.5373925953932
 20
899.54037603188897
  0
POINT
  8
_0-1_
 62
    7
 10
1039.5373925953934
 20
899.54037603188897
  0
TEXT
  8
_0-1_
 62
    4
 10
1019.5373925953933
 20
900.54037603188897
 40
5
 41
1
 50
0
  1
35
  0
LINE
  8
_0-1_
  6
CONTINUOUS
 62
    4
 10
1004.5373925953932
 20
899.1534454222824
 11
1004.5373925953932
 21
875.1534454222824
  0
LINE
  8
_0-1_
  6
CONTINUOUS
 62
    4
 10
1039.5373925953934
 20
899.1534454222824
 11
1039.5373925953934
 21
869.1534454222824
  0
LINE
  8
_0-1_
  6
CONTINUOUS
 62
    4
 10
968.79497408823977
 20
787.353445007353
 11
968.79497408823977
 21
769.35344578221338
  0
POINT
  8
_0-1_
 62
    7
 10
968.79497408823977
 20
787.353445007353
  0
POINT
  8
_0-1_
 62
    7
 10
968.79497408823977
 20
769.35344578221338
  0
LINE
  8
_0-1_
  6
CONTINUOUS
 62
    4
 10
968.79497408823977
 20
787.353445007353
 11
944.79497408823977
 21
787.353445007353
  0
LINE
  8
_0-1_
  6
CONTINUOUS
 62
    4
 10
968.79497408823977
 20
769.35344578221338
 11
944.79497408823977
 21
769.35344578221338
  0
TEXT
  8
_0-1_
 62
    4
 10
967.79497408823977
 20
775.85344539478319
 40
5
 41
1
 50
90
  1
18
  0
TEXT
  8
_0-1_
 62
    4
 10
967.76408989822073
 20
771.80981211899075
 40
5
 41
1
 50
90
  1
φ
  0
ARC
  8
_0-0_
  6
CONTINUOUS
 62
    7
 10
1030.437392595393
 20
860.1534454222824
 40
9.1000000000000369
 50
0.0000000000006821
 51
180.00000000000117
  0
LINE
  8
_0-0_
  6
CONTINUOUS
 62
    7
 10
1004.5373925953932
 20
851.45344542228236
 11
1004.5373925953932
 21
868.85344542228245
  0
LINE
  8
_0-0_
  6
CONTINUOUS
 62
    7
 10
1004.5373925953932
 20
869.1534454222824
 11
1029.192030190686
 21
869.1534454222824
  0
LINE
  8
_0-0_
  6
CONTINUOUS
 62
    7
 10
1004.5373925953932
 20
868.85344542228245
 11
1004.5373925953932
 21
869.1534454222824
  0
LINE
  8
_0-0_
  6
CONTINUOUS
 62
    7
 10
1021.4373925953932
 20
851.1534454222824
 11
1004.5373925953932
 21
851.1534454222824
  0
LINE
  8
_0-0_
  6
CONTINUOUS
 62
    7
 10
1004.5373925953932
 20
851.1534454222824
 11
1004.5373925953932
 21
851.45344542228236
  0
ARC
  8
_0-0_
  6
CONTINUOUS
 62
    7
 10
1030.437392595393
 20
778.35344542228245
 40
9.1000000000000369
 50
180
 51
0
  0
LINE
  8
_0-0_
  6
CONTINUOUS
 62
    7
 10
1021.337392595393
 20
778.35344542228245
 11
1021.337392595393
 21
860.1534454222824
  0
LINE
  8
_0-0_
  6
CONTINUOUS
 62
    7
 10
1039.5373925953929
 20
860.1534454222824
 11
1039.5373925953929
 21
859.02071931299508
  0
LINE
  8
_0-0_
  6
CONTINUOUS
 62
    7
 10
1039.5373925953929
 20
859.02071931299508
 11
1039.5373925953929
 21
778.35344542228245
  0
LINE
  8
_0-0_
  6
CONTINUOUS
 62
    7
 10
819.79497134642588
 20
869.05344498798149
 11
818.79497118251311
 21
869.05344498798149
  0
LINE
  8
_0-0_
  6
CONTINUOUS
 62
    7
 10
818.79497118251311
 20
851.2534454230954
 11
819.79497134642588
 21
851.2534454230954
  0
LINE
  8
_0-0_
  6
CONTINUOUS
 62
    7
 10
742.7949717636584
 20
851.2534454230954
 11
743.79497379021632
 21
851.2534454230954
  0
LINE
  8
_0-0_
  6
CONTINUOUS
 62
    7
 10
743.79497379021632
 20
869.05344498798149
 11
742.7949717636584
 21
869.05344498798149
  0
LINE
  8
_0-0_
  6
CONTINUOUS
 62
    7
 10
743.79497379021632
 20
851.15344559296864
 11
818.79497118251311
 21
851.15344559296864
  0
LINE
  8
_0-0_
  6
CONTINUOUS
 62
    7
 10
818.79497118251311
 20
869.15344574943083
 11
743.79497379021632
 21
869.15344574943083
  0
LINE
  8
_0-0_
  6
CONTINUOUS
 62
    7
 10
938.79497408823977
 20
787.353445007353
 11
936.79497003512392
 21
787.353445007353
  0
LINE
  8
_0-0_
  6
CONTINUOUS
 62
    7
 10
742.7949717636584
 20
769.35344578221338
 11
936.79497003512392
 21
769.35344578221338
  0
LINE
  8
_0-0_
  6
CONTINUOUS
 62
    7
 10
936.79497003512392
 20
787.353445007353
 11
742.7949717636584
 21
787.353445007353
  0
LINE
  8
_0-0_
  6
CONTINUOUS
 62
    7
 10
742.7949717636584
 20
869.25344557955759
 11
738.7949711080073
 21
869.25344557955759
  0
LINE
  8
_0-0_
  6
CONTINUOUS
 62
    7
 10
738.7949711080073
 20
769.25344408944147
 11
742.7949717636584
 21
769.25344408944147
  0
LINE
  8
_0-0_
  6
CONTINUOUS
 62
    7
 10
839.82706258729013
 20
851.40344516828554
 11
837.78167477765965
 21
851.40344516828554
  0
LINE
  8
_0-0_
  6
CONTINUOUS
 62
    7
 10
819.79497134642588
 20
869.05344498798149
 11
819.79497134642588
 21
851.2534454230954
  0
LINE
  8
_0-0_
  6
CONTINUOUS
 62
    7
 10
743.79497379021632
 20
869.15344574943083
 11
743.79497379021632
 21
851.15344559296864
  0
LINE
  8
_0-0_
  6
CONTINUOUS
 62
    7
 10
818.79497118251311
 20
869.15344574943083
 11
818.79497118251311
 21
851.15344559296864
  0
LINE
  8
_0-0_
  6
CONTINUOUS
 62
    7
 10
936.79497003512392
 20
769.35344578221338
 11
936.79497003512392
 21
787.353445007353
  0
LINE
  8
_0-0_
  6
CONTINUOUS
 62
    7
 10
938.79497408823977
 20
769.35344578221338
 11
938.79497408823977
 21
787.353445007353
  0
LINE
  8
_0-0_
  6
CONTINUOUS
 62
    7
 10
742.7949717636584
 20
860.15344540926526
 11
742.7949717636584
 21
778.35344912007349
  0
LINE
  8
_0-0_
  6
CONTINUOUS
 62
    7
 10
738.7949711080073
 20
860.15344540926526
 11
738.7949711080073
 21
778.35344912007349
  0
LINE
  8
_0-0_
  6
CONTINUOUS
 62
    7
 10
742.7949717636584
 20
869.25344557955759
 11
742.7949717636584
 21
860.15344540926526
  0
LINE
  8
_0-0_
  6
CONTINUOUS
 62
    7
 10
738.7949711080073
 20
869.25344557955759
 11
738.7949711080073
 21
860.15344540926526
  0
LINE
  8
_0-0_
  6
CONTINUOUS
 62
    7
 10
742.7949717636584
 20
778.35344912007349
 11
742.7949717636584
 21
769.25344408944147
  0
LINE
  8
_0-0_
  6
CONTINUOUS
 62
    7
 10
738.7949711080073
 20
778.35344912007349
 11
738.7949711080073
 21
769.25344408944147
  0
ARC
  8
_0-0_
  6
CONTINUOUS
 62
    7
 10
820.09497095694041
 20
851.45344542228236
 40
0.3000000000000113
 50
180
 51
270
  0
ARC
  8
_0-0_
  6
CONTINUOUS
 62
    7
 10
820.09497095694041
 20
868.85344542228245
 40
0.3000000000000113
 50
90
 51
180
  0
LINE
  8
_0-0_
  6
CONTINUOUS
 62
    7
 10
857.49497063415038
 20
851.15344559296864
 11
841.39497097538697
 21
851.15344559296864
  0
ARC
  8
_0-0_
  6
CONTINUOUS
 62
    7
 10
837.60500654947555
 20
844.93195404394874
 40
6.3792756214668636
 50
102.40754846427023
 51
102.76976080818127
  0
LINE
  8
_0-0_
  6
CONTINUOUS
 62
    7
 10
836.23432988807281
 20
851.16223517280059
 11
836.24387736730546
 21
851.16433564093177
  0
ARC
  8
_0-0_
  6
CONTINUOUS
 62
    7
 10
838.95020311545431
 20
838.86298791098648
 40
12.595529168245571
 50
102.13515989842647
 51
102.40754846425915
  0
LINE
  8
_0-0_
  6
CONTINUOUS
 62
    7
 10
836.30238928836025
 20
851.17706266165987
 11
836.35941304999278
 21
851.18932410294406
  0
ARC
  8
_0-0_
  6
CONTINUOUS
 62
    7
 10
838.19617806666702
 20
842.64715943738679
 40
8.7374071039395247
 50
100.97756984509535
 51
102.13515989841041
  0
LINE
  8
_0-0_
  6
CONTINUOUS
 62
    7
 10
836.53235999864955
 20
851.22468777231597
 11
836.59504411501939
 21
851.23684686539275
  0
ARC
  8
_0-0_
  6
CONTINUOUS
 62
    7
 10
838.76491742058215
 20
840.05043765429036
 40
11.394915585489443
 50
99.447887436052525
 51
100.97756984509857
  0
LINE
  8
_0-0_
  6
CONTINUOUS
 62
    7
 10
836.89443660745746
 20
851.29078474537982
 11
836.95844434526634
 21
851.30143612869506
  0
ARC
  8
_0-0_
  6
CONTINUOUS
 62
    7
 10
838.49012098990215
 20
842.09707701619891
 40
9.330930286713766
 50
97.519783408910072
 51
99.447887436046173
  0
LINE
  8
_0-0_
  6
CONTINUOUS
 62
    7
 10
837.26899598955151
 20
851.34775881534392
 11
837.29482624160755
 21
851.35116850635211
  0
ARC
  8
_0-0_
  6
CONTINUOUS
 62
    7
 10
839.18524314256547
 20
837.03023886079211
 40
14.445161888068505
 50
96.480910644619897
 51
97.519783408924823
  0
ARC
  8
_0-0_
  6
CONTINUOUS
 62
    7
 10
838.64075935732308
 20
841.82330908198071
 40
9.6212646319449178
 50
94.921222780527742
 51
96.48091064461201
  0
LINE
  8
_0-0_
  6
CONTINUOUS
 62
    7
 10
837.81538982923394
 20
851.40910577604927
 11
837.88108901676878
 21
851.4147626983837
  0
ARC
  8
_0-0_
  6
CONTINUOUS
 62
    7
 10
838.61943092758202
 20
842.83970000597128
 40
8.6067908628051306
 50
93.163778599579061
 51
94.921222780524715
  0
LINE
  8
_0-0_
  6
CONTINUOUS
 62
    7
 10
838.14441958446105
 20
851.43337286336896
 11
838.15682833464598
 21
851.43405875136932
  0
ARC
  8
_0-0_
  6
CONTINUOUS
 62
    7
 10
838.98011730070857
 20
836.53951750748843
 40
14.917277351692155
 50
92.245196867405852
 51
93.163778599587928
  0
ARC
  8
_0-0_
  6
CONTINUOUS
 62
    7
 10
838.73101345539453
 20
842.89321104433191
 40
8.5587024888886294
 50
90.644236858863309
 51
92.245196867395435
  0
LINE
  8
_0-0_
  6
CONTINUOUS
 62
    7
 10
838.63478096723429
 20
851.45137250585685
 11
838.66543664985966
 21
851.45171721454562
  0
ARC
  8
_0-0_
  6
CONTINUOUS
 62
    7
 10
838.79058200110558
 20
840.32227285970816
 40
11.130147932815582
 50
89.176192798980679
 51
90.644236858869931
  0
LINE
  8
_0-0_
  6
CONTINUOUS
 62
    7
 10
838.95060740216832
 20
851.45127033824929
 11
838.9811399166847
 21
851.45083130698072
  0
ARC
  8
_0-0_
  6
CONTINUOUS
 62
    7
 10
838.85253978789069
 20
842.50731046854867
 40
8.9444453702056936
 50
87.740593491581393
 51
89.176192798978633
  0
LINE
  8
_0-0_
  6
CONTINUOUS
 62
    7
 10
839.20516437856259
 20
851.44480222399375
 11
839.20827444698511
 21
851.44467951768706
  0
ARC
  8
_0-0_
  6
CONTINUOUS
 62
    7
 10
838.62672897622133
 20
836.70504425723175
 40
14.751103102677527
 50
86.894255462651628
 51
87.740593491581606
  0
ARC
  8
_0-0_
  6
CONTINUOUS
 62
    7
 10
838.95107688031158
 20
842.68285764962684
 40
8.7644968422669756
 50
85.469872094103835
 51
86.89425546264971
  0
LINE
  8
_0-0_
  6
CONTINUOUS
 62
    7
 10
839.64332572036437
 20
851.41997367504132
 11
839.69915459603772
 21
851.41555030761504
  0
ARC
  8
_0-0_
  6
CONTINUOUS
 62
    7
 10
838.92672765564703
 20
841.66647828484736
 40
9.7796241585938652
 50
83.537239431976957
 51
85.469872094105128
  0
LINE
  8
_0-0_
  6
CONTINUOUS
 62
    7
 10
840.02749689193115
 20
851.38395510611144
 11
840.07003709084552
 21
851.37913626855391
  0
ARC
  8
_0-0_
  6
CONTINUOUS
 62
    7
 10
838.82607290161059
 20
840.39754923203577
 40
11.051818888523472
 50
81.655542113051794
 51
83.537239431976616
  0
ARC
  8
_0-0_
  6
CONTINUOUS
 62
    7
 10
838.48849883975572
 20
838.0960663344182
 40
13.377927178191641
 50
80.100983532869094
 51
81.655542113052007
  0
LINE
  8
_0-0_
  6
CONTINUOUS
 62
    7
 10
840.78832759833608
 20
851.27482664281615
 11
840.8443702906925
 21
851.26504661855188
  0
ARC
  8
_0-0_
  6
CONTINUOUS
 62
    7
 10
839.40080975064529
 20
842.99297928442377
 40
8.3970807435161987
 50
78.336100294300564
 51
80.100983532868753
  0
LINE
  8
_0-0_
  6
CONTINUOUS
 62
    7
 10
841.0984498923317
 20
851.21666355380489
 11
841.17533991632536
 21
851.20079091242519
  0
ARC
  8
_0-0_
  6
CONTINUOUS
 62
    7
 10
838.81028151542523
 20
839.744008588508
 40
11.698348706432547
 50
77.838228688442911
 51
78.336100294295548
  0
LINE
  8
_0-0_
  6
CONTINUOUS
 62
    7
 10
841.27480307032101
 20
851.17980746583805
 11
841.29638041942144
 21
851.17515734541144
  0
ARC
  8
_0-0_
  6
CONTINUOUS
 62
    7
 10
838.99565970916501
 20
840.49942222629932
 40
10.920834955260752
 50
77.536515895366108
 51
77.838228688448098
  0
LINE
  8
_0-0_
  6
CONTINUOUS
 62
    7
 10
841.35256541825515
 20
851.16289406236206
 11
841.36648667328018
 21
851.15981710150436
  0
ARC
  8
_0-0_
  6
CONTINUOUS
 62
    7
 10
840.1235902962926
 20
845.53651598258648
 40
5.7590196108325218
 50
77.248064053753183
 51
77.536515895326914
  0
LINE
  8
_0-0_
  6
CONTINUOUS
 62
    7
 10
841.39478094321112
 20
851.15348858507798
 11
841.39497097538697
 21
851.15344559296864
  0
LINE
  8
_0-0_
  6
CONTINUOUS
 62
    7
 10
836.19497096123087
 20
851.15344559296864
 11
820.09497083680617
 21
851.15344559296864
  0
LINE
  8
_0-0_
  6
CONTINUOUS
 62
    7
 10
857.49497063415038
 20
869.15344574943083
 11
820.09497083680617
 21
869.15344574943083
  0
LINE
  8
_0-0_
  6
CONTINUOUS
 62
    7
 10
857.79497012453066
 20
868.85344532772797
 11
857.79497012453066
 21
851.45344508334892
  0
ARC
  8
_0-0_
  6
CONTINUOUS
 62
    7
 10
857.49497095694051
 20
851.45344542228236
 40
0.3000000000000113
 50
270
 51
0
  0
ARC
  8
_0-0_
  6
CONTINUOUS
 62
    7
 10
857.49497095694051
 20
868.85344542228245
 40
0.3000000000000113
 50
0
 51
90
  0
LINE
  8
_0-0_
  6
CONTINUOUS
 62
    7
 10
836.19497096123087
 20
851.15344559296864
 11
841.39497097538697
 21
851.15344559296864
  0
LINE
  8
_0-0_
  6
CONTINUOUS
 62
    7
 10
936.79497003512392
 20
769.35344578221338
 11
938.79497408823977
 21
769.35344578221338
  0
LINE
  8
_0-0_
  6
CONTINUOUS
 62
    7
 10
819.79497095694023
 20
660.2591015184521
 11
818.79497095694023
 21
660.2591015184521
  0
LINE
  8
_0-0_
  6
CONTINUOUS
 62
    7
 10
818.79497095694023
 20
642.45910151845203
 11
819.79497095694023
 21
642.45910151845203
  0
LINE
  8
_0-0_
  6
CONTINUOUS
 62
    7
 10
742.79497095694023
 20
642.45910151845203
 11
743.79497095694023
 21
642.45910151845203
  0
LINE
  8
_0-0_
  6
CONTINUOUS
 62
    7
 10
743.79497095694023
 20
660.25910151845198
 11
742.79497095694023
 21
660.25910151845198
  0
LINE
  8
_0-0_
  6
CONTINUOUS
 62
    7
 10
743.79497095694023
 20
642.35910151845201
 11
818.79497095694023
 21
642.35910151845201
  0
LINE
  8
_0-0_
  6
CONTINUOUS
 62
    7
 10
818.79497095694023
 20
660.35910151845201
 11
743.79497095694023
 21
660.35910151845201
  0
LINE
  8
_0-0_
  6
CONTINUOUS
 62
    7
 10
936.79497095694046
 20
642.35910151845201
 11
938.79497095694046
 21
642.35910151845201
  0
LINE
  8
_0-0_
  6
CONTINUOUS
 62
    7
 10
938.79497095694046
 20
660.35910151845201
 11
936.79497095694046
 21
660.35910151845201
  0
LINE
  8
_0-0_
  6
CONTINUOUS
 62
    7
 10
742.79497095694023
 20
642.35910151845201
 11
743.79497095694023
 21
642.35910151845201
  0
LINE
  8
_0-0_
  6
CONTINUOUS
 62
    7
 10
818.79497095694023
 20
642.35910151845201
 11
820.09497095694041
 21
642.35910151845201
  0
LINE
  8
_0-0_
  6
CONTINUOUS
 62
    7
 10
857.49497095694051
 20
642.35910151845201
 11
936.79497095694046
 21
642.35910151845201
  0
LINE
  8
_0-0_
  6
CONTINUOUS
 62
    7
 10
936.79497095694046
 20
660.35910151845201
 11
857.79497095694023
 21
660.35910151845201
  0
LINE
  8
_0-0_
  6
CONTINUOUS
 62
    7
 10
819.79497095694023
 20
660.35910151845201
 11
818.79497095694023
 21
660.35910151845201
  0
LINE
  8
_0-0_
  6
CONTINUOUS
 62
    7
 10
743.79497095694023
 20
660.35910151845201
 11
742.79497095694023
 21
660.35910151845201
  0
LINE
  8
_0-0_
  6
CONTINUOUS
 62
    7
 10
820.09497095694041
 20
642.35910151845201
 11
857.49497095694051
 21
642.35910151845201
  0
ARC
  8
_0-0_
  6
CONTINUOUS
 62
    7
 10
820.09497095694041
 20
642.65910151845196
 40
0.3000000000000113
 50
180
 51
270
  0
ARC
  8
_0-0_
  6
CONTINUOUS
 62
    7
 10
857.49497095694051
 20
642.65910151845196
 40
0.3000000000000113
 50
270
 51
0
  0
LINE
  8
_0-0_
  6
CONTINUOUS
 62
    7
 10
819.79497095694023
 20
653.23526782238139
 11
819.79497095694023
 21
642.45910151845203
  0
LINE
  8
_0-0_
  6
CONTINUOUS
 62
    7
 10
743.79497095694023
 20
659.70689219058704
 11
743.79497095694023
 21
642.35910151845201
  0
LINE
  8
_0-0_
  6
CONTINUOUS
 62
    7
 10
743.79497095694023
 20
660.35910151845201
 11
743.79497095694023
 21
659.70689219058704
  0
LINE
  8
_0-0_
  6
CONTINUOUS
 62
    7
 10
818.79497095694023
 20
659.70689219058704
 11
818.79497095694023
 21
642.35910151845201
  0
LINE
  8
_0-0_
  6
CONTINUOUS
 62
    7
 10
818.79497095694023
 20
660.35910151845201
 11
818.79497095694023
 21
659.70689219058704
  0
LINE
  8
_0-0_
  6
CONTINUOUS
 62
    7
 10
936.79497095694046
 20
642.35910151845201
 11
936.79497095694046
 21
660.35910151845201
  0
LINE
  8
_0-0_
  6
CONTINUOUS
 62
    7
 10
938.79497095694046
 20
642.35910151845201
 11
938.79497095694046
 21
660.35910151845201
  0
LINE
  8
_0-0_
  6
CONTINUOUS
 62
    7
 10
742.79497095694023
 20
660.45910151845203
 11
738.79497095694023
 21
660.45910151845203
  0
LINE
  8
_0-0_
  6
CONTINUOUS
 62
    7
 10
742.79497095694023
 20
642.25910151845198
 11
738.79497095694023
 21
642.25910151845198
  0
LINE
  8
_0-0_
  6
CONTINUOUS
 62
    7
 10
738.79497095694023
 20
660.45910151845203
 11
738.79497095694023
 21
642.25910151845198
  0
LINE
  8
_0-0_
  6
CONTINUOUS
 62
    7
 10
742.79497095694023
 20
660.45910151845203
 11
742.79497095694023
 21
642.25910151845198
  0
LINE
  8
_0-0_
  6
CONTINUOUS
 62
    7
 10
857.49497095694051
 20
651.35910151845201
 11
820.09497095694041
 21
651.35910151845201
  0
LINE
  8
_0-0_
  6
CONTINUOUS
 62
    7
 10
857.49497095694051
 20
677.35910151845201
 11
820.09497095694041
 21
677.35910151845201
  0
LINE
  8
_0-0_
  6
CONTINUOUS
 62
    7
 10
857.79497095694023
 20
677.35910151845201
 11
857.79497095694023
 21
651.35910151845201
  0
LINE
  8
_0-0_
  6
CONTINUOUS
 62
    7
 10
857.79497095694023
 20
651.35910151845201
 11
857.49497095694051
 21
651.35910151845201
  0
LINE
  8
_0-0_
  6
CONTINUOUS
 62
    7
 10
857.49497095694051
 20
677.35910151845201
 11
857.79497095694023
 21
677.35910151845201
  0
LINE
  8
_0-0_
  6
CONTINUOUS
 62
    7
 10
820.09497095694041
 20
651.35910151845201
 11
819.79497095694023
 21
651.35910151845201
  0
LINE
  8
_0-0_
  6
CONTINUOUS
 62
    7
 10
819.79497095694023
 20
653.23526782238139
 11
819.79497095694023
 21
677.35910151845201
  0
LINE
  8
_0-0_
  6
CONTINUOUS
 62
    7
 10
819.79497095694023
 20
677.35910151845201
 11
820.09497095694041
 21
677.35910151845201
  0
LINE
  8
_0-0_
  6
CONTINUOUS
 62
    7
 10
857.79497095694023
 20
651.35910151845201
 11
857.79497095694023
 21
642.65910151845196
  0
LINE
  8
_0-0_
  6

 62
    7
 10
940.95631937813891
 20
651.35910151845223
 11
735.51409975199658
 21
651.35910151845223
  0
TEXT
  8
_0-2_FRF74-1704
 62
    7
 10
704.54351406259798
 20
488.63124253804722
 40
6
 41
1
 50
0
  1
クローム
  0
TEXT
  8
_0-2_FRF74-1704
 62
    7
 10
704.52645968509296
 20
506.99149662678974
 40
6
 41
1
 50
0
  1
タオルリング　-LANGBERGER,Viola-
  0
ENDSEC
  0
EOF
