  0
SECTION
  2
HEADER
  9
$ACADVER
  1
AC1009
  9
$INSBASE
 10
0
 20
0
 30
0
  9
$EXTMIN
 10
0
 20
0
  9
$EXTMAX
 10
1682
 20
1188
  9
$LIMMIN
 10
0
 20
0
  9
$LIMMAX
 10
1682
 20
1188
  9
$LTSCALE
 40
2
  0
ENDSEC
  0
SECTION
  2
TABLES
  0
TABLE
  2
LTYPE
 70
     9
  0
LTYPE
  2
CONTINUOUS
 70
    64
  3
実線
 72
    65
 73
     0
 40
0.0
  0
LTYPE
  2
DASHED1
 70
    64
  3
--  --  --  --  --  --  --  --  
 72
    65
 73
     2
 40
2.5
 49
1.25
 49
-1.25
  0
LTYPE
  2
DASHED2
 70
    64
  3
----    ----    ----    ----    
 72
    65
 73
     2
 40
5.0
 49
2.5
 49
-2.5
  0
LTYPE
  2
DASHED3
 70
    64
  3
------  ------  ------  ------  
 72
    65
 73
     2
 40
5.0
 49
3.75
 49
-1.25
  0
LTYPE
  2
CENTER1
 70
    64
  3
----- - ----- - ----- - ----- - 
 72
    65
 73
     4
 40
10.0
 49
6.25
 49
-1.25
 49
1.25
 49
-1.25
  0
LTYPE
  2
CENTER2
 70
    64
  3
----------  --  ----------  --  
 72
    65
 73
     4
 40
20.0
 49
12.5
 49
-2.5
 49
2.5
 49
-2.5
  0
LTYPE
  2
PHANTOM1
 70
    64
  3
--- - - --- - - --- - - --- - - 
 72
    65
 73
     6
 40
10.0
 49
3.25
 49
-1.25
 49
1.25
 49
-1.25
 49
1.25
 49
-1.25
  0
LTYPE
  2
PHANTOM2
 70
    64
  3
--------  -  -  --------  -  -  
 72
    65
 73
     6
 40
20.0
 49
10.0
 49
-2.5
 49
1.25
 49
-2.5
 49
1.25
 49
-2.5
  0
LTYPE
  2
DOT
 70
    64
  3
-   -   -   -   -   -   -   -   
 72
    65
 73
     2
 40
2.5
 49
0.625
 49
-1.875
  0
LTYPE
  2
DUMMY
 70
    64
  3
ダミー
 72
    65
 73
     0
 40
0.0
  0
LTYPE
  2
RAND1
 70
    64
  3
ランダム線1
 72
    65
 73
     4
 40
10.0
 49
1.0
 49
-2.0
 49
3.0
 49
-4.0
  0
LTYPE
  2
RAND2
 70
    64
  3
ランダム線2
 72
    65
 73
     4
 40
14.0
 49
2.0
 49
-3.0
 49
4.0
 49
-5.0
  0
LTYPE
  2
RAND3
 70
    64
  3
ランダム線3
 72
    65
 73
     4
 40
18.0
 49
3.0
 49
-4.0
 49
5.0
 49
-6.0
  0
LTYPE
  2
RAND4
 70
    64
  3
ランダム線4
 72
    65
 73
     4
 40
22.0
 49
4.0
 49
-5.0
 49
6.0
 49
-7.0
  0
LTYPE
  2
RAND5
 70
    64
  3
ランダム線5
 72
    65
 73
     4
 40
26.0
 49
5.0
 49
-6.0
 49
7.0
 49
-8.0
  0
LTYPE
  2
LONG1
 70
    64
  3
----------  --  ----------  --  
 72
    65
 73
     4
 40
40.0
 49
32.5
 49
-2.5
 49
2.5
 49
-2.5
  0
LTYPE
  2
LONG2
 70
    64
  3
--------  -  -  --------  -  -  
 72
    65
 73
     6
 40
40.0
 49
30.0
 49
-2.5
 49
1.25
 49
-2.5
 49
1.25
 49
-2.5
  0
LTYPE
  2
LONG3
 70
    64
  3
+++++++++++++++..+++++++++++++++
 72
    65
 73
     2
 40
40.0
 49
37.5
 49
-2.5
  0
LTYPE
  2
LONG4
 70
    64
  3
+++++++++++++++..+++++++++++++++
 72
    65
 73
     2
 40
80.0
 49
75.0
 49
-5.0
  0
LTYPE
  2
LONG5
 70
    64
  3
----------  --  ----------  --  
 72
    65
 73
     4
 40
60.0
 49
37.5
 49
-7.5
 49
7.5
 49
-7.5
  0
LTYPE
  2
dashed
 70
   64
  3
-------   -------------   ------
 72
   65
 73
    2
 40
7.5
 49
6
 49
-1.5
  0
LTYPE
  2
dashed_spaced
 70
   64
  3
----        --------        ----
 72
   65
 73
    2
 40
12
 49
6
 49
-6
  0
LTYPE
  2
long_dashed_dotted
 70
   64
  3
------------- --- --------------
 72
   65
 73
    4
 40
15.25
 49
12
 49
-1.5
 49
0.25
 49
-1.5
  0
LTYPE
  2
long_dashed_double-dotted
 70
   64
  3
----------- --- --- ------------
 72
   65
 73
    6
 40
17
 49
12
 49
-1.5
 49
0.25
 49
-1.5
 49
0.25
 49
-1.5
  0
LTYPE
  2
long_dashed_triplicate-dotted
 70
   64
  3
--------- --- --- --- ----------
 72
   65
 73
    8
 40
18.75
 49
12
 49
-1.5
 49
0.25
 49
-1.5
 49
0.25
 49
-1.5
 49
0.25
 49
-1.5
  0
LTYPE
  2
dotted
 70
   64
  3
   -       -       -       -    
 72
   65
 73
    2
 40
1.75
 49
0.25
 49
-1.5
  0
LTYPE
  2
chain
 70
   64
  3
-------------- -- --------------
 72
   65
 73
    4
 40
18.5
 49
12
 49
-1.5
 49
3.5
 49
-1.5
  0
LTYPE
  2
chain_double_dash
 70
   64
  3
------------ -- -- -------------
 72
   65
 73
    6
 40
23.5
 49
12
 49
-1.5
 49
3.5
 49
-1.5
 49
3.5
 49
-1.5
  0
LTYPE
  2
dashed_dotted
 70
   64
  3
-----------     -     ----------
 72
   65
 73
    4
 40
9.25
 49
6
 49
-1.5
 49
0.25
 49
-1.5
  0
LTYPE
  2
double-dashed_dotted
 70
   64
  3
------   -----------   -   -----
 72
   65
 73
    6
 40
16.75
 49
6
 49
-1.5
 49
6
 49
-1.5
 49
0.25
 49
-1.5
  0
LTYPE
  2
dashed_double-dotted
 70
   64
  3
---------    -    -    ---------
 72
   65
 73
    6
 40
11
 49
6
 49
-1.5
 49
0.25
 49
-1.5
 49
0.25
 49
-1.5
  0
LTYPE
  2
double-dashed_double-dotted
 70
   64
  3
-----   ---------   -   -   ----
 72
   65
 73
    8
 40
18.5
 49
6
 49
-1.5
 49
6
 49
-1.5
 49
0.25
 49
-1.5
 49
0.25
 49
-1.5
  0
LTYPE
  2
dashed_triplicate-dotted
 70
   64
  3
-------    -    -    -    ------
 72
   65
 73
    8
 40
12.75
 49
6
 49
-1.5
 49
0.25
 49
-1.5
 49
0.25
 49
-1.5
 49
0.25
 49
-1.5
  0
LTYPE
  2
double-dashed_triplicate-dotted
 70
   64
  3
-----  ---------  -  -  -  -----
 72
   65
 73
   10
 40
20.25
 49
6
 49
-1.5
 49
6
 49
-1.5
 49
0.25
 49
-1.5
 49
0.25
 49
-1.5
 49
0.25
 49
-1.5
  0
LTYPE
  2
undefined
 70
   64
  3
--------------------------------
 72
   65
 73
    0
 40
0
  0
ENDTAB
  0
TABLE
  2
STYLE
  5
3
100
AcDbSymbolTable
 70
     1
  0
STYLE
  5
10
100
AcDbSymbolTableRecord
100
AcDbTextStyleTableRecord
  2
STANDARD
 70
     0
 40
0.0
 41
1.0
 50
0.0
 71
     0
 42
0.2
  3
txt
  4
bigfont.shx
  0
STYLE
  5
26
100
AcDbSymbolTableRecord
100
AcDbTextStyleTableRecord
  2
TATEGAKI
 70
    68
 40
0.0
 41
1.0
 50
0.0
 71
     0
 42
1.0
  3
txt
  4
bigfont.shx
  0
ENDTAB
  0
TABLE
  2
LAYER
 70
    4
  0
LAYER
  2
_0-0_
 70
   64
 62
    7
  6
CONTINUOUS
  0
LAYER
  2
_0-1_
 70
   64
 62
    7
  6
CONTINUOUS
  0
LAYER
  2
_0-2_FRF74-1706
 70
   64
 62
    7
  6
CONTINUOUS
  0
LAYER
  2
ADD_LINE
 70
   64
 62
    7
  6
CONTINUOUS
  0
ENDTAB
  0
ENDSEC
  0
SECTION
  2
BLOCKS
  0
ENDSEC
  0
SECTION
  2
ENTITIES
  0
LINE
  8
_0-1_
  6
CONTINUOUS
 62
    4
 10
822.87901978236437
 20
692.89246360058337
 11
822.87901978236437
 21
668.89246360058337
  0
LINE
  8
_0-1_
  6
CONTINUOUS
 62
    4
 10
860.87901978236437
 20
692.89246360058337
 11
860.87901978236437
 21
668.89246360058337
  0
LINE
  8
_0-2_FRF74-1706
  6
CONTINUOUS
 62
    7
 10
1079.8988725370491
 20
503.2673488237719
 11
689.8988725370491
 21
503.2673488237719
  0
LINE
  8
_0-2_FRF74-1706
  6
CONTINUOUS
 62
    7
 10
1079.8988725371457
 20
1029.267348823772
 11
689.89887253714551
 21
1029.267348823772
  0
LINE
  8
_0-2_FRF74-1706
  6
CONTINUOUS
 62
    7
 10
689.89887253714551
 20
1029.267348823772
 11
689.89887253714551
 21
469.2673488237719
  0
LINE
  8
_0-2_FRF74-1706
  6
CONTINUOUS
 62
    7
 10
689.89887253714551
 20
469.2673488237719
 11
1079.8988725371457
 21
469.2673488237719
  0
LINE
  8
_0-2_FRF74-1706
  6
CONTINUOUS
 62
    7
 10
1079.8988725371457
 20
469.2673488237719
 11
1079.8988725371457
 21
1029.267348823772
  0
LINE
  8
_0-2_FRF74-1706
  6
CONTINUOUS
 62
    7
 10
1079.8988725370491
 20
520.26734882377195
 11
689.8988725370491
 21
520.26734882377195
  0
LINE
  8
_0-2_FRF74-1706
  6
CONTINUOUS
 62
    7
 10
1079.8988725371457
 20
486.2673488237719
 11
929.29887253714571
 21
486.2673488237719
  0
LINE
  8
_0-2_FRF74-1706
  6
CONTINUOUS
 62
    7
 10
1029.6988725371975
 20
486.2673488237719
 11
1029.6988725371975
 21
503.2673488237719
  0
LINE
  8
_0-2_FRF74-1706
  6
CONTINUOUS
 62
    7
 10
979.49887253719749
 20
486.2673488237719
 11
979.49887253719749
 21
503.2673488237719
  0
LINE
  8
_0-2_FRF74-1706
  6
CONTINUOUS
 62
    7
 10
929.29887253719744
 20
469.2673488237719
 11
929.29887253719744
 21
520.26734882377195
  0
TEXT
  8
_0-2_FRF74-1706
 62
    7
 10
936.36516934588531
 20
473.92519932464324
 40
6
 41
1
 50
0
  1
大洋金物株式会社 ティーフォルム事業部
  0
TEXT
  8
_0-2_FRF74-1706
 62
    7
 10
692.03092613020874
 20
496.95829989926438
 40
4.4000000000000004
 41
1
 50
0
  1
仕様
  0
TEXT
  8
_0-2_FRF74-1706
 62
    7
 10
692.11008412622641
 20
513.7277384202182
 40
4.4000000000000004
 41
1
 50
0
  1
品名
  0
TEXT
  8
_0-2_FRF74-1706
 62
    7
 10
931.58014201817321
 20
514.02354576782386
 40
4.4000000000000004
 41
1
 50
0
  1
品番
  0
TEXT
  8
_0-2_FRF74-1706
 62
    7
 10
931.40046929208268
 20
496.85593532261146
 40
4.4000000000000004
 41
1
 50
0
  1
重量
  0
TEXT
  8
_0-2_FRF74-1706
 62
    7
 10
981.63419090952073
 20
497.28379304790997
 40
4.4000000000000004
 41
1
 50
0
  1
容量
  0
TEXT
  8
_0-2_FRF74-1706
 62
    7
 10
1031.8476186341097
 20
497.19837872271296
 40
4.4000000000000004
 41
1
 50
0
  1
縮尺
  0
TEXT
  8
_0-2_FRF74-1706
 62
    4
 10
690.59866426069993
 20
460.90948008418826
 40
5
 41
1
 50
0
  1
120907S
  0
TEXT
  8
_0-2_FRF74-1706
 62
    7
 10
942.89541103866486
 20
507.16508785728229
 40
6
 41
1
 50
0
  1
FRF74-1706
  0
LINE
  8
_0-1_
  6
CONTINUOUS
 62
    4
 10
822.87901978236437
 20
692.89246360058337
 11
860.87901978236437
 21
692.89246360058337
  0
POINT
  8
_0-1_
 62
    7
 10
822.87901978236437
 20
692.89246360058337
  0
POINT
  8
_0-1_
 62
    7
 10
860.87901978236437
 20
692.89246360058337
  0
TEXT
  8
_0-1_
 62
    4
 10
839.37901978236437
 20
693.89246360058337
 40
5
 41
1
 50
0
  1
38
  0
LINE
  8
_0-1_
  6
CONTINUOUS
 62
    4
 10
775.37901978236437
 20
754.69835655072325
 11
908.37901978236437
 21
754.69835655072325
  0
POINT
  8
_0-1_
 62
    7
 10
775.37901978236437
 20
754.69835655072325
  0
POINT
  8
_0-1_
 62
    7
 10
908.37901978236437
 20
754.69835655072325
  0
LINE
  8
_0-1_
  6
CONTINUOUS
 62
    4
 10
775.37901978236437
 20
754.69835655072325
 11
775.37901978236437
 21
778.69835655072325
  0
LINE
  8
_0-1_
  6
CONTINUOUS
 62
    4
 10
908.37901978236437
 20
754.69835655072325
 11
908.37901978236437
 21
778.69835655072336
  0
TEXT
  8
_0-1_
 62
    4
 10
838.12901978236437
 20
755.69835655072325
 40
5
 41
1
 50
0
  1
133
  0
LINE
  8
_0-1_
  6
CONTINUOUS
 62
    4
 10
745.37901978236437
 20
884.69835655072336
 11
745.37901978236437
 21
784.69835655072325
  0
POINT
  8
_0-1_
 62
    7
 10
745.37901978236437
 20
884.69835655072336
  0
POINT
  8
_0-1_
 62
    7
 10
745.37901978236437
 20
784.69835655072325
  0
LINE
  8
_0-1_
  6
CONTINUOUS
 62
    4
 10
745.37901978236437
 20
884.69835655072336
 11
769.37901978236437
 21
884.69835655072336
  0
LINE
  8
_0-1_
  6
CONTINUOUS
 62
    4
 10
745.37901978236437
 20
784.69835655072325
 11
769.37901978236437
 21
784.69835655072325
  0
TEXT
  8
_0-1_
 62
    4
 10
744.37901978236437
 20
830.94835655072336
 40
5
 41
1
 50
90
  1
100
  0
LINE
  8
_0-1_
  6
CONTINUOUS
 62
    4
 10
938.37901978236437
 20
812.89835655072329
 11
938.37901978236437
 21
784.69835655072325
  0
POINT
  8
_0-1_
 62
    7
 10
938.37901978236437
 20
812.89835655072329
  0
POINT
  8
_0-1_
 62
    7
 10
938.37901978236437
 20
784.69835655072325
  0
LINE
  8
_0-1_
  6
CONTINUOUS
 62
    4
 10
938.37901978236437
 20
812.89835655072329
 11
914.37901978236437
 21
812.89835655072329
  0
LINE
  8
_0-1_
  6
CONTINUOUS
 62
    4
 10
938.37901978236437
 20
784.69835655072325
 11
914.37901978236437
 21
784.69835655072325
  0
TEXT
  8
_0-1_
 62
    4
 10
937.37901978236437
 20
793.79835655072338
 40
5
 41
1
 50
90
  1
28.2
  0
LINE
  8
_0-1_
  6
CONTINUOUS
 62
    4
 10
960.60230984717168
 20
884.59835655072334
 11
960.60230984717168
 21
866.59835655072334
  0
POINT
  8
_0-1_
 62
    7
 10
960.60230984717168
 20
884.59835655072334
  0
POINT
  8
_0-1_
 62
    7
 10
960.60230984717168
 20
866.59835655072334
  0
LINE
  8
_0-1_
  6
CONTINUOUS
 62
    4
 10
960.60230984717168
 20
884.59835655072334
 11
984.60230984717157
 21
884.59835655072334
  0
LINE
  8
_0-1_
  6
CONTINUOUS
 62
    4
 10
960.60230984717168
 20
866.59835655072334
 11
984.60230984717168
 21
866.59835655072334
  0
TEXT
  8
_0-1_
 62
    4
 10
959.60230984717168
 20
873.09835655072334
 40
5
 41
1
 50
90
  1
18
  0
LINE
  8
_0-1_
  6
CONTINUOUS
 62
    7
 10
745.37901978236437
 20
784.69835655072325
 11
745.37901978236437
 21
784.09854295255604
  0
LINE
  8
_0-1_
  6
CONTINUOUS
 62
    4
 10
851.0772305878761
 20
802.79835613579394
 11
851.0772305878761
 21
784.79835691065432
  0
TEXT
  8
_0-1_
 62
    4
 10
850.0772305878761
 20
791.29835652322413
 40
5
 41
1
 50
90
  1
18
  0
TEXT
  8
_0-1_
 62
    4
 10
850.17247274727481
 20
787.20596111924192
 40
5
 41
1
 50
90
  1
φ
  0
LINE
  8
_0-0_
  6
CONTINUOUS
 62
    7
 10
1025.7023098471716
 20
875.59835655072334
 11
1025.7023098471716
 21
793.79835655072338
  0
ARC
  8
_0-0_
  6
CONTINUOUS
 62
    7
 10
1016.6023098471716
 20
793.79835655072338
 40
9.1000000000000227
 50
179.99999999999983
 51
0.0000000000002273
  0
ARC
  8
_0-0_
  6
CONTINUOUS
 62
    7
 10
1016.6023098471716
 20
875.59835655072334
 40
9.1000000000000227
 50
0
 51
180
  0
LINE
  8
_0-0_
  6
CONTINUOUS
 62
    7
 10
1007.5023098471715
 20
793.79835655072338
 11
1007.5023098471715
 21
875.59835655072334
  0
LINE
  8
_0-0_
  6
CONTINUOUS
 62
    7
 10
1007.5023098471718
 20
866.59835655072334
 11
990.60230984717157
 21
866.59835655072334
  0
LINE
  8
_0-0_
  6
CONTINUOUS
 62
    7
 10
990.60230984717157
 20
866.59835655072334
 11
990.60230984717157
 21
866.89835655072341
  0
LINE
  8
_0-0_
  6
CONTINUOUS
 62
    7
 10
990.60230984717157
 20
866.89835655072341
 11
990.60230984717157
 21
884.29835655072338
  0
LINE
  8
_0-0_
  6
CONTINUOUS
 62
    7
 10
990.60230984717157
 20
884.59835655072334
 11
1015.2569474424645
 21
884.59835655072334
  0
LINE
  8
_0-0_
  6
CONTINUOUS
 62
    7
 10
990.60230984717157
 20
884.29835655072338
 11
990.60230984717157
 21
884.59835655072334
  0
LINE
  8
_0-0_
  6
CONTINUOUS
 62
    7
 10
775.37902076789658
 20
784.69835521788241
 11
779.37902142354767
 21
784.69835521788241
  0
LINE
  8
_0-0_
  6
CONTINUOUS
 62
    7
 10
779.37902142354767
 20
875.5983565377062
 11
779.37902142354767
 21
793.79836024851443
  0
LINE
  8
_0-0_
  6
CONTINUOUS
 62
    7
 10
775.37902076789658
 20
875.5983565377062
 11
775.37902076789658
 21
793.79836024851443
  0
LINE
  8
_0-0_
  6
CONTINUOUS
 62
    7
 10
779.37902142354767
 20
793.79836024851443
 11
779.37902142354767
 21
784.69835521788241
  0
LINE
  8
_0-0_
  6
CONTINUOUS
 62
    7
 10
775.37902076789658
 20
793.79836024851443
 11
775.37902076789658
 21
784.69835521788241
  0
LINE
  8
_0-0_
  6
CONTINUOUS
 62
    7
 10
822.87902017185013
 20
884.49835611642243
 11
821.87902000793736
 21
884.49835611642243
  0
LINE
  8
_0-0_
  6
CONTINUOUS
 62
    7
 10
821.87902000793736
 20
866.69835655153634
 11
822.87902017185013
 21
866.69835655153634
  0
LINE
  8
_0-0_
  6
CONTINUOUS
 62
    7
 10
779.37902142354767
 20
866.69835655153634
 11
780.37902345010559
 21
866.69835655153634
  0
LINE
  8
_0-0_
  6
CONTINUOUS
 62
    7
 10
780.37902345010559
 20
884.49835611642243
 11
779.37902142354767
 21
884.49835611642243
  0
LINE
  8
_0-0_
  6
CONTINUOUS
 62
    7
 10
780.37902345010559
 20
866.59835672140957
 11
821.87902000793736
 21
866.59835672140957
  0
LINE
  8
_0-0_
  6
CONTINUOUS
 62
    7
 10
821.87902000793736
 20
884.59835687787177
 11
780.37902345010559
 21
884.59835687787177
  0
LINE
  8
_0-0_
  6
CONTINUOUS
 62
    7
 10
908.37902207919865
 20
812.89835574240328
 11
904.37902142354756
 21
812.89835574240328
  0
LINE
  8
_0-0_
  6
CONTINUOUS
 62
    7
 10
904.37902142354756
 20
784.69835521788241
 11
908.37902207919865
 21
784.69835521788241
  0
LINE
  8
_0-0_
  6
CONTINUOUS
 62
    7
 10
779.37902142354767
 20
784.79835691065432
 11
904.37902142354756
 21
784.79835691065432
  0
LINE
  8
_0-0_
  6
CONTINUOUS
 62
    7
 10
904.37902142354756
 20
802.79835613579394
 11
779.37902142354767
 21
802.79835613579394
  0
LINE
  8
_0-0_
  6
CONTINUOUS
 62
    7
 10
779.37902142354767
 20
884.69835670799853
 11
775.37902076789658
 21
884.69835670799853
  0
LINE
  8
_0-0_
  6
CONTINUOUS
 62
    7
 10
822.87902017185013
 20
884.49835611642243
 11
822.87902017185013
 21
866.69835655153634
  0
LINE
  8
_0-0_
  6
CONTINUOUS
 62
    7
 10
821.87902000793736
 20
884.59835687787177
 11
821.87902000793736
 21
866.59835672140957
  0
LINE
  8
_0-0_
  6
CONTINUOUS
 62
    7
 10
780.37902345010559
 20
884.59835687787177
 11
780.37902345010559
 21
866.59835672140957
  0
LINE
  8
_0-0_
  6
CONTINUOUS
 62
    7
 10
779.37902142354767
 20
884.69835670799853
 11
779.37902142354767
 21
875.5983565377062
  0
LINE
  8
_0-0_
  6
CONTINUOUS
 62
    7
 10
775.37902076789658
 20
884.69835670799853
 11
775.37902076789658
 21
875.5983565377062
  0
ARC
  8
_0-0_
  6
CONTINUOUS
 62
    7
 10
823.17901978236443
 20
866.89835655072341
 40
0.3000000000000114
 50
180
 51
270
  0
ARC
  8
_0-0_
  6
CONTINUOUS
 62
    7
 10
823.17901978236443
 20
884.29835655072338
 40
0.3000000000000114
 50
90
 51
180
  0
LINE
  8
_0-0_
  6
CONTINUOUS
 62
    7
 10
860.57901945957462
 20
866.59835672140957
 11
844.47901980081122
 21
866.59835672140957
  0
ARC
  8
_0-0_
  6
CONTINUOUS
 62
    7
 10
840.90806404711407
 20
859.40004348112689
 40
7.3803454328211506
 50
102.39786554236667
 51
102.75175870088032
  0
LINE
  8
_0-0_
  6
CONTINUOUS
 62
    7
 10
839.32351168563468
 20
866.60828130472112
 11
839.34263862538785
 21
866.61248588818455
  0
ARC
  8
_0-0_
  6
CONTINUOUS
 62
    7
 10
841.57271866372662
 20
856.46769820379632
 40
10.387009874776831
 50
101.9303630335922
 51
102.39786554236035
  0
LINE
  8
_0-0_
  6
CONTINUOUS
 62
    7
 10
839.425487911662
 20
866.63034422912358
 11
839.46605300443775
 21
866.63891508896177
  0
ARC
  8
_0-0_
  6
CONTINUOUS
 62
    7
 10
841.66120500350223
 20
856.24946220093182
 40
10.61882402206523
 50
101.02566565410403
 51
101.93036303358041
  0
LINE
  8
_0-0_
  6
CONTINUOUS
 62
    7
 10
839.63036875324963
 20
866.67227984954536
 11
839.68883200957691
 21
866.68367113588079
  0
ARC
  8
_0-0_
  6
CONTINUOUS
 62
    7
 10
841.60596295433038
 20
856.84442080578413
 40
10.02428242407599
 50
99.386517670493191
 51
101.02566565410868
  0
LINE
  8
_0-0_
  6
CONTINUOUS
 62
    7
 10
839.97106457736038
 20
866.73448376891133
 11
839.99405969600912
 21
866.73828502703248
  0
ARC
  8
_0-0_
  6
CONTINUOUS
 62
    7
 10
842.23560856488393
 20
853.17838444826737
 40
13.74392393159787
 50
98.203949880806718
 51
99.386517670493802
  0
ARC
  8
_0-0_
  6
CONTINUOUS
 62
    7
 10
841.81143227764414
 20
856.12052719676637
 40
10.7713611525801
 50
96.695063572320592
 51
98.203949880804615
  0
LINE
  8
_0-0_
  6
CONTINUOUS
 62
    7
 10
840.55565132651043
 20
866.81843518300741
 11
840.60455705309755
 21
866.82417601382485
  0
ARC
  8
_0-0_
  6
CONTINUOUS
 62
    7
 10
841.65996269862455
 20
857.83325090558526
 40
9.0526579179036997
 50
95.090391293994543
 51
96.69506357232595
  0
LINE
  8
_0-0_
  6
CONTINUOUS
 62
    7
 10
840.85674520217151
 20
866.8502047721621
 11
840.86692810185139
 21
866.85111185046242
  0
ARC
  8
_0-0_
  6
CONTINUOUS
 62
    7
 10
842.14165291852453
 20
852.54099670073958
 40
14.36677830818622
 50
94.160766659204668
 51
95.090391293997669
  0
ARC
  8
_0-0_
  6
CONTINUOUS
 62
    7
 10
841.769999523411
 20
857.64984507814859
 40
9.2444294339436386
 50
92.716080806955972
 51
94.160766659203162
  0
LINE
  8
_0-0_
  6
CONTINUOUS
 62
    7
 10
841.33193559186941
 20
866.88388945485838
 11
841.36946932693422
 21
866.88567005877121
  0
ARC
  8
_0-0_
  6
CONTINUOUS
 62
    7
 10
841.85131031094238
 20
856.72883972309012
 40
10.168253203066964
 50
90.979249751812944
 51
92.716080806956114
  0
LINE
  8
_0-0_
  6
CONTINUOUS
 62
    7
 10
841.67753181009482
 20
866.8956078543265
 11
841.72466366609433
 21
866.89641346955966
  0
ARC
  8
_0-0_
  6
CONTINUOUS
 62
    7
 10
841.87701450789837
 20
857.98325289058164
 40
8.9144625348725732
 50
89.12919114043396
 51
90.979249751807231
  0
LINE
  8
_0-0_
  6
CONTINUOUS
 62
    7
 10
842.01249558806671
 20
866.89668585227275
 11
842.01981258097055
 21
866.89657463652611
  0
ARC
  8
_0-0_
  6
CONTINUOUS
 62
    7
 10
841.81196440033102
 20
853.22203925450458
 40
13.676114900817227
 50
87.984521898422955
 51
89.129191140441961
  0
LINE
  8
_0-0_
  6
CONTINUOUS
 62
    7
 10
842.29294617727396
 20
866.88969360009742
 11
842.29883652365561
 21
866.88948631147298
  0
ARC
  8
_0-0_
  6
CONTINUOUS
 62
    7
 10
841.98537134192225
 20
857.98201006458646
 40
8.9129901553298154
 50
86.303977797093395
 51
87.984521898420397
  0
LINE
  8
_0-0_
  6
CONTINUOUS
 62
    7
 10
842.55992966830013
 20
866.87646205662031
 11
842.56505724499334
 21
866.87613082858229
  0
ARC
  8
_0-0_
  6
CONTINUOUS
 62
    7
 10
841.63559387327132
 20
852.48757015756735
 40
14.418549869624563
 50
85.305917551393051
 51
86.303977797088805
  0
ARC
  8
_0-0_
  6
CONTINUOUS
 62
    7
 10
842.04709900902196
 20
857.49914226114299
 40
9.3901116005308314
 50
83.773445095073228
 51
85.305917551394387
  0
LINE
  8
_0-0_
  6
CONTINUOUS
 62
    7
 10
843.06555148751352
 20
866.83385974050339
 11
843.14060833287533
 21
866.82567075884913
  0
ARC
  8
_0-0_
  6
CONTINUOUS
 62
    7
 10
842.20534912542371
 20
858.25346866212419
 40
8.6230712957866036
 50
82.055827333485865
 51
83.773445095079055
  0
LINE
  8
_0-0_
  6
CONTINUOUS
 62
    7
 10
843.39712782872243
 20
866.79378610906861
 11
843.42647606051617
 21
866.78969064097282
  0
ARC
  8
_0-0_
  6
CONTINUOUS
 62
    7
 10
841.36891945460582
 20
852.04518603545569
 40
14.88737570052705
 50
81.288974090230965
 51
82.055827333491592
  0
ARC
  8
_0-0_
  6
CONTINUOUS
 62
    7
 10
842.04432842244182
 20
856.45332978985016
 40
10.427789550082107
 50
80.194182585851763
 51
81.28897409022585
  0
LINE
  8
_0-0_
  6
CONTINUOUS
 62
    7
 10
843.82028056549007
 20
866.72877571138577
 11
843.91364702293197
 21
866.7126387610823
  0
ARC
  8
_0-0_
  6
CONTINUOUS
 62
    7
 10
842.49735830581346
 20
858.51816224942354
 40
8.3159677146056925
 50
78.315324865223218
 51
80.194182585855927
  0
LINE
  8
_0-0_
  6
CONTINUOUS
 62
    7
 10
844.18155279411621
 20
866.66179828966585
 11
844.26546627306095
 21
866.64444404912342
  0
ARC
  8
_0-0_
  6
CONTINUOUS
 62
    7
 10
841.93012019145465
 20
855.35227521192439
 40
11.531128234855474
 50
77.8117642283256
 51
78.315324865215416
  0
LINE
  8
_0-0_
  6
CONTINUOUS
 62
    7
 10
844.36461931454335
 20
866.62348332766612
 11
844.38789174763735
 21
866.61845665107762
  0
ARC
  8
_0-0_
  6
CONTINUOUS
 62
    7
 10
842.22321608388552
 20
856.59647320576255
 40
10.253095771883189
 50
77.511530046882044
 51
77.811764228326695
  0
LINE
  8
_0-0_
  6
CONTINUOUS
 62
    7
 10
844.44037773295634
 20
866.60697604674397
 11
844.45438447554238
 21
866.60387378375242
  0
ARC
  8
_0-0_
  6
CONTINUOUS
 62
    7
 10
843.29296005461038
 20
861.36003309661635
 40
5.370919086860372
 50
77.244465297660952
 51
77.511530046913578
  0
LINE
  8
_0-0_
  6
CONTINUOUS
 62
    7
 10
844.47881414648134
 20
866.59840325444156
 11
844.47901980081122
 21
866.59835672140957
  0
LINE
  8
_0-0_
  6
CONTINUOUS
 62
    7
 10
839.27901978665511
 20
866.59835672140957
 11
823.17901966223042
 21
866.59835672140957
  0
LINE
  8
_0-0_
  6
CONTINUOUS
 62
    7
 10
860.57901945957462
 20
884.59835687787177
 11
823.17901966223042
 21
884.59835687787177
  0
LINE
  8
_0-0_
  6
CONTINUOUS
 62
    7
 10
860.87901894995491
 20
884.2983564561689
 11
860.87901894995491
 21
866.89835621178986
  0
ARC
  8
_0-0_
  6
CONTINUOUS
 62
    7
 10
860.57901978236441
 20
866.89835655072341
 40
0.3000000000000114
 50
270
 51
0
  0
ARC
  8
_0-0_
  6
CONTINUOUS
 62
    7
 10
860.57901978236441
 20
884.29835655072338
 40
0.3000000000000114
 50
0
 51
90
  0
LINE
  8
_0-0_
  6
CONTINUOUS
 62
    7
 10
839.27901978665511
 20
866.59835672140957
 11
844.47901980081122
 21
866.59835672140957
  0
POINT
  8
_0-1_
 62
    7
 10
851.0772305878761
 20
802.79835613579394
  0
POINT
  8
_0-1_
 62
    7
 10
851.0772305878761
 20
784.79835691065432
  0
LINE
  8
_0-0_
  6
CONTINUOUS
 62
    7
 10
822.87901978236437
 20
645.79246360058346
 11
821.87901978236437
 21
645.79246360058346
  0
LINE
  8
_0-0_
  6
CONTINUOUS
 62
    7
 10
821.87901978236437
 20
627.99246360058339
 11
822.87901978236437
 21
627.99246360058339
  0
LINE
  8
_0-0_
  6
CONTINUOUS
 62
    7
 10
779.37901978236437
 20
627.99246360058339
 11
780.37901978236437
 21
627.99246360058339
  0
LINE
  8
_0-0_
  6
CONTINUOUS
 62
    7
 10
780.37901978236437
 20
645.79246360058346
 11
779.37901978236437
 21
645.79246360058346
  0
LINE
  8
_0-0_
  6
CONTINUOUS
 62
    7
 10
780.37901978236437
 20
627.89246360058348
 11
821.87901978236437
 21
627.89246360058348
  0
LINE
  8
_0-0_
  6
CONTINUOUS
 62
    7
 10
821.87901978236437
 20
645.89246360058348
 11
780.37901978236437
 21
645.89246360058348
  0
LINE
  8
_0-0_
  6
CONTINUOUS
 62
    7
 10
779.37901978236437
 20
627.89246360058348
 11
780.37901978236437
 21
627.89246360058348
  0
LINE
  8
_0-0_
  6
CONTINUOUS
 62
    7
 10
821.87901978236437
 20
627.89246360058348
 11
823.17901978236443
 21
627.89246360058348
  0
LINE
  8
_0-0_
  6
CONTINUOUS
 62
    7
 10
860.57901978236441
 20
627.89246360058348
 11
904.37901978236437
 21
627.89246360058348
  0
LINE
  8
_0-0_
  6
CONTINUOUS
 62
    7
 10
904.37901978236437
 20
645.89246360058348
 11
860.87901978236437
 21
645.89246360058348
  0
LINE
  8
_0-0_
  6
CONTINUOUS
 62
    7
 10
822.87901978236437
 20
645.89246360058348
 11
821.87901978236437
 21
645.89246360058348
  0
LINE
  8
_0-0_
  6
CONTINUOUS
 62
    7
 10
780.37901978236437
 20
645.89246360058348
 11
779.37901978236437
 21
645.89246360058348
  0
LINE
  8
_0-0_
  6
CONTINUOUS
 62
    7
 10
823.17901978236443
 20
627.89246360058348
 11
860.57901978236441
 21
627.89246360058348
  0
LINE
  8
_0-0_
  6
CONTINUOUS
 62
    7
 10
822.87901978236437
 20
638.76862990451286
 11
822.87901978236437
 21
627.99246360058339
  0
LINE
  8
_0-0_
  6
CONTINUOUS
 62
    7
 10
821.87901978236437
 20
638.58406744931619
 11
821.87901978236437
 21
627.89246360058348
  0
LINE
  8
_0-0_
  6
CONTINUOUS
 62
    7
 10
821.87901978236437
 20
645.89246360058348
 11
821.87901978236437
 21
638.58406744931619
  0
LINE
  8
_0-0_
  6
CONTINUOUS
 62
    7
 10
780.37901978236437
 20
638.58406744931619
 11
780.37901978236437
 21
627.89246360058348
  0
LINE
  8
_0-0_
  6
CONTINUOUS
 62
    7
 10
780.37901978236437
 20
645.89246360058348
 11
780.37901978236437
 21
638.58406744931619
  0
LINE
  8
_0-0_
  6
CONTINUOUS
 62
    7
 10
904.37901978236437
 20
645.99246360058339
 11
908.37901978236437
 21
645.99246360058339
  0
LINE
  8
_0-0_
  6
CONTINUOUS
 62
    7
 10
908.37901978236437
 20
627.79246360058346
 11
908.37901978236437
 21
645.99246360058339
  0
LINE
  8
_0-0_
  6
CONTINUOUS
 62
    7
 10
904.37901978236437
 20
627.79246360058346
 11
908.37901978236437
 21
627.79246360058346
  0
LINE
  8
_0-0_
  6
CONTINUOUS
 62
    7
 10
904.37901978236437
 20
627.79246360058346
 11
904.37901978236437
 21
645.99246360058339
  0
LINE
  8
_0-0_
  6
CONTINUOUS
 62
    7
 10
779.37901978236437
 20
645.99246360058339
 11
775.37901978236437
 21
645.99246360058339
  0
LINE
  8
_0-0_
  6
CONTINUOUS
 62
    7
 10
779.37901978236437
 20
627.79246360058346
 11
775.37901978236437
 21
627.79246360058346
  0
LINE
  8
_0-0_
  6
CONTINUOUS
 62
    7
 10
779.37901978236437
 20
645.99246360058339
 11
779.37901978236437
 21
627.79246360058346
  0
LINE
  8
_0-0_
  6
CONTINUOUS
 62
    7
 10
775.37901978236437
 20
645.99246360058339
 11
775.37901978236437
 21
627.79246360058346
  0
LINE
  8
_0-0_
  6
CONTINUOUS
 62
    7
 10
860.57901978236441
 20
636.89246360058348
 11
823.17901978236443
 21
636.89246360058348
  0
LINE
  8
_0-0_
  6
CONTINUOUS
 62
    7
 10
860.57901978236441
 20
662.89246360058348
 11
823.17901978236443
 21
662.89246360058348
  0
LINE
  8
_0-0_
  6
CONTINUOUS
 62
    7
 10
823.17901978236443
 20
636.89246360058348
 11
822.87901978236437
 21
636.89246360058348
  0
LINE
  8
_0-0_
  6
CONTINUOUS
 62
    7
 10
822.87901978236437
 20
638.76862990451286
 11
822.87901978236437
 21
662.89246360058348
  0
LINE
  8
_0-0_
  6
CONTINUOUS
 62
    7
 10
822.87901978236437
 20
662.89246360058348
 11
823.17901978236443
 21
662.89246360058348
  0
LINE
  8
_0-0_
  6
CONTINUOUS
 62
    7
 10
860.87901978236437
 20
662.89246360058348
 11
860.87901978236437
 21
636.89246360058348
  0
LINE
  8
_0-0_
  6
CONTINUOUS
 62
    7
 10
860.87901978236437
 20
636.89246360058348
 11
860.57901978236441
 21
636.89246360058348
  0
LINE
  8
_0-0_
  6
CONTINUOUS
 62
    7
 10
860.57901978236441
 20
662.89246360058348
 11
860.87901978236437
 21
662.89246360058348
  0
LINE
  8
_0-0_
  6
CONTINUOUS
 62
    7
 10
860.87901978236437
 20
636.89246360058348
 11
860.87901978236437
 21
628.19246360058344
  0
LINE
  8
_0-0_
  6

 62
    7
 10
912.2545214955594
 20
636.89246360058348
 11
772.73286308244496
 21
636.89246360058348
  0
ARC
  8
_0-0_
  6
CONTINUOUS
 62
    7
 10
823.17901978236443
 20
628.19246360058344
 40
0.3000000000000114
 50
180
 51
270
  0
ARC
  8
_0-0_
  6
CONTINUOUS
 62
    7
 10
860.57901978236441
 20
628.19246360058344
 40
0.2999999999999972
 50
270
 51
0
  0
LINE
  8
_0-0_
  6
CONTINUOUS
 62
    7
 10
904.37902142354756
 20
784.69835521788241
 11
904.37902142354756
 21
812.89835574240328
  0
LINE
  8
_0-0_
  6
CONTINUOUS
 62
    7
 10
908.37902207919865
 20
784.69835521788241
 11
908.37902207919865
 21
812.89835574240328
  0
TEXT
  8
_0-2_FRF74-1706
 62
    7
 10
704.52645968509307
 20
506.99149662678974
 40
6
 41
1
 50
0
  1
ペーパーホルダー　-LANGBERGER,Viola-
  0
TEXT
  8
_0-0_
 62
    7
 10
703.63122497998393
 20
488.21225450948992
 40
6
 41
1
 50
0
  1
クローム
  0
LINE
  8
_0-0_
  6
CONTINUOUS
 62
    4
 10
775.37902076789658
 20
769.69835521788241
 11
779.37902142354767
 21
769.69835521788241
  0
POINT
  8
_0-0_
 62
    7
 10
775.37902076789658
 20
769.69835521788241
  0
POINT
  8
_0-0_
 62
    7
 10
779.37902142354767
 20
769.69835521788241
  0
LINE
  8
_0-0_
  6
CONTINUOUS
 62
    4
 10
775.37902076789658
 20
769.69835521788241
 11
775.37902076789658
 21
778.69835521788241
  0
LINE
  8
_0-0_
  6
CONTINUOUS
 62
    4
 10
779.37902142354767
 20
769.69835521788241
 11
779.37902142354767
 21
778.69835521788241
  0
TEXT
  8
_0-0_
 62
    4
 10
776.12902109572212
 20
770.69835521788241
 40
5
 41
1
 50
0
  1
4
  0
LINE
  8
_0-0_
  6
CONTINUOUS
 62
    4
 10
779.37902142354767
 20
769.69835521788241
 11
904.37902142354756
 21
769.69835521788241
  0
POINT
  8
_0-0_
 62
    7
 10
904.37902142354756
 20
769.69835521788241
  0
LINE
  8
_0-0_
  6
CONTINUOUS
 62
    4
 10
904.37902142354756
 20
769.69835521788241
 11
904.37902142354756
 21
778.79835691065432
  0
TEXT
  8
_0-0_
 62
    4
 10
838.12902142354767
 20
770.69835521788241
 40
5
 41
1
 50
0
  1
125
  0
LINE
  8
_0-0_
  6
CONTINUOUS
 62
    4
 10
904.37902142354756
 20
769.69835521788241
 11
908.37902207919865
 21
769.69835521788241
  0
POINT
  8
_0-0_
 62
    7
 10
908.37902207919865
 20
769.69835521788241
  0
LINE
  8
_0-0_
  6
CONTINUOUS
 62
    4
 10
908.37902207919865
 20
769.69835521788241
 11
908.37902207919865
 21
778.69835521788241
  0
TEXT
  8
_0-0_
 62
    4
 10
905.1290217513731
 20
770.69835521788241
 40
5
 41
1
 50
0
  1
4
  0
ENDSEC
  0
EOF
