  0
SECTION
  2
HEADER
  9
$ACADVER
  1
AC1009
  9
$INSBASE
 10
0
 20
0
 30
0
  9
$EXTMIN
 10
0
 20
0
  9
$EXTMAX
 10
1682
 20
1188
  9
$LIMMIN
 10
0
 20
0
  9
$LIMMAX
 10
1682
 20
1188
  9
$LTSCALE
 40
2
  0
ENDSEC
  0
SECTION
  2
TABLES
  0
TABLE
  2
LTYPE
 70
     9
  0
LTYPE
  2
CONTINUOUS
 70
    64
  3
実線
 72
    65
 73
     0
 40
0.0
  0
LTYPE
  2
DASHED1
 70
    64
  3
--  --  --  --  --  --  --  --  
 72
    65
 73
     2
 40
2.5
 49
1.25
 49
-1.25
  0
LTYPE
  2
DASHED2
 70
    64
  3
----    ----    ----    ----    
 72
    65
 73
     2
 40
5.0
 49
2.5
 49
-2.5
  0
LTYPE
  2
DASHED3
 70
    64
  3
------  ------  ------  ------  
 72
    65
 73
     2
 40
5.0
 49
3.75
 49
-1.25
  0
LTYPE
  2
CENTER1
 70
    64
  3
----- - ----- - ----- - ----- - 
 72
    65
 73
     4
 40
10.0
 49
6.25
 49
-1.25
 49
1.25
 49
-1.25
  0
LTYPE
  2
CENTER2
 70
    64
  3
----------  --  ----------  --  
 72
    65
 73
     4
 40
20.0
 49
12.5
 49
-2.5
 49
2.5
 49
-2.5
  0
LTYPE
  2
PHANTOM1
 70
    64
  3
--- - - --- - - --- - - --- - - 
 72
    65
 73
     6
 40
10.0
 49
3.25
 49
-1.25
 49
1.25
 49
-1.25
 49
1.25
 49
-1.25
  0
LTYPE
  2
PHANTOM2
 70
    64
  3
--------  -  -  --------  -  -  
 72
    65
 73
     6
 40
20.0
 49
10.0
 49
-2.5
 49
1.25
 49
-2.5
 49
1.25
 49
-2.5
  0
LTYPE
  2
DOT
 70
    64
  3
-   -   -   -   -   -   -   -   
 72
    65
 73
     2
 40
2.5
 49
0.625
 49
-1.875
  0
LTYPE
  2
DUMMY
 70
    64
  3
ダミー
 72
    65
 73
     0
 40
0.0
  0
LTYPE
  2
RAND1
 70
    64
  3
ランダム線1
 72
    65
 73
     4
 40
10.0
 49
1.0
 49
-2.0
 49
3.0
 49
-4.0
  0
LTYPE
  2
RAND2
 70
    64
  3
ランダム線2
 72
    65
 73
     4
 40
14.0
 49
2.0
 49
-3.0
 49
4.0
 49
-5.0
  0
LTYPE
  2
RAND3
 70
    64
  3
ランダム線3
 72
    65
 73
     4
 40
18.0
 49
3.0
 49
-4.0
 49
5.0
 49
-6.0
  0
LTYPE
  2
RAND4
 70
    64
  3
ランダム線4
 72
    65
 73
     4
 40
22.0
 49
4.0
 49
-5.0
 49
6.0
 49
-7.0
  0
LTYPE
  2
RAND5
 70
    64
  3
ランダム線5
 72
    65
 73
     4
 40
26.0
 49
5.0
 49
-6.0
 49
7.0
 49
-8.0
  0
LTYPE
  2
LONG1
 70
    64
  3
----------  --  ----------  --  
 72
    65
 73
     4
 40
40.0
 49
32.5
 49
-2.5
 49
2.5
 49
-2.5
  0
LTYPE
  2
LONG2
 70
    64
  3
--------  -  -  --------  -  -  
 72
    65
 73
     6
 40
40.0
 49
30.0
 49
-2.5
 49
1.25
 49
-2.5
 49
1.25
 49
-2.5
  0
LTYPE
  2
LONG3
 70
    64
  3
+++++++++++++++..+++++++++++++++
 72
    65
 73
     2
 40
40.0
 49
37.5
 49
-2.5
  0
LTYPE
  2
LONG4
 70
    64
  3
+++++++++++++++..+++++++++++++++
 72
    65
 73
     2
 40
80.0
 49
75.0
 49
-5.0
  0
LTYPE
  2
LONG5
 70
    64
  3
----------  --  ----------  --  
 72
    65
 73
     4
 40
60.0
 49
37.5
 49
-7.5
 49
7.5
 49
-7.5
  0
LTYPE
  2
dashed
 70
   64
  3
-------   -------------   ------
 72
   65
 73
    2
 40
7.5
 49
6
 49
-1.5
  0
LTYPE
  2
dashed_spaced
 70
   64
  3
----        --------        ----
 72
   65
 73
    2
 40
12
 49
6
 49
-6
  0
LTYPE
  2
long_dashed_dotted
 70
   64
  3
------------- --- --------------
 72
   65
 73
    4
 40
15.25
 49
12
 49
-1.5
 49
0.25
 49
-1.5
  0
LTYPE
  2
long_dashed_double-dotted
 70
   64
  3
----------- --- --- ------------
 72
   65
 73
    6
 40
17
 49
12
 49
-1.5
 49
0.25
 49
-1.5
 49
0.25
 49
-1.5
  0
LTYPE
  2
long_dashed_triplicate-dotted
 70
   64
  3
--------- --- --- --- ----------
 72
   65
 73
    8
 40
18.75
 49
12
 49
-1.5
 49
0.25
 49
-1.5
 49
0.25
 49
-1.5
 49
0.25
 49
-1.5
  0
LTYPE
  2
dotted
 70
   64
  3
   -       -       -       -    
 72
   65
 73
    2
 40
1.75
 49
0.25
 49
-1.5
  0
LTYPE
  2
chain
 70
   64
  3
-------------- -- --------------
 72
   65
 73
    4
 40
18.5
 49
12
 49
-1.5
 49
3.5
 49
-1.5
  0
LTYPE
  2
chain_double_dash
 70
   64
  3
------------ -- -- -------------
 72
   65
 73
    6
 40
23.5
 49
12
 49
-1.5
 49
3.5
 49
-1.5
 49
3.5
 49
-1.5
  0
LTYPE
  2
dashed_dotted
 70
   64
  3
-----------     -     ----------
 72
   65
 73
    4
 40
9.25
 49
6
 49
-1.5
 49
0.25
 49
-1.5
  0
LTYPE
  2
double-dashed_dotted
 70
   64
  3
------   -----------   -   -----
 72
   65
 73
    6
 40
16.75
 49
6
 49
-1.5
 49
6
 49
-1.5
 49
0.25
 49
-1.5
  0
LTYPE
  2
dashed_double-dotted
 70
   64
  3
---------    -    -    ---------
 72
   65
 73
    6
 40
11
 49
6
 49
-1.5
 49
0.25
 49
-1.5
 49
0.25
 49
-1.5
  0
LTYPE
  2
double-dashed_double-dotted
 70
   64
  3
-----   ---------   -   -   ----
 72
   65
 73
    8
 40
18.5
 49
6
 49
-1.5
 49
6
 49
-1.5
 49
0.25
 49
-1.5
 49
0.25
 49
-1.5
  0
LTYPE
  2
dashed_triplicate-dotted
 70
   64
  3
-------    -    -    -    ------
 72
   65
 73
    8
 40
12.75
 49
6
 49
-1.5
 49
0.25
 49
-1.5
 49
0.25
 49
-1.5
 49
0.25
 49
-1.5
  0
LTYPE
  2
double-dashed_triplicate-dotted
 70
   64
  3
-----  ---------  -  -  -  -----
 72
   65
 73
   10
 40
20.25
 49
6
 49
-1.5
 49
6
 49
-1.5
 49
0.25
 49
-1.5
 49
0.25
 49
-1.5
 49
0.25
 49
-1.5
  0
LTYPE
  2
undefined
 70
   64
  3
--------------------------------
 72
   65
 73
    0
 40
0
  0
ENDTAB
  0
TABLE
  2
STYLE
  5
3
100
AcDbSymbolTable
 70
     1
  0
STYLE
  5
10
100
AcDbSymbolTableRecord
100
AcDbTextStyleTableRecord
  2
STANDARD
 70
     0
 40
0.0
 41
1.0
 50
0.0
 71
     0
 42
0.2
  3
txt
  4
bigfont.shx
  0
STYLE
  5
26
100
AcDbSymbolTableRecord
100
AcDbTextStyleTableRecord
  2
TATEGAKI
 70
    68
 40
0.0
 41
1.0
 50
0.0
 71
     0
 42
1.0
  3
txt
  4
bigfont.shx
  0
ENDTAB
  0
TABLE
  2
LAYER
 70
    4
  0
LAYER
  2
_0-0_
 70
   64
 62
    7
  6
CONTINUOUS
  0
LAYER
  2
_0-1_FRF74-1707
 70
   64
 62
    7
  6
CONTINUOUS
  0
LAYER
  2
_0-2_
 70
   64
 62
    7
  6
CONTINUOUS
  0
LAYER
  2
ADD_LINE
 70
   64
 62
    7
  6
CONTINUOUS
  0
ENDTAB
  0
ENDSEC
  0
SECTION
  2
BLOCKS
  0
ENDSEC
  0
SECTION
  2
ENTITIES
  0
LINE
  8
_0-2_
  6
CONTINUOUS
 62
    7
 10
1079.8988725370491
 20
503.2673488237719
 11
689.8988725370491
 21
503.2673488237719
  0
LINE
  8
_0-2_
  6
CONTINUOUS
 62
    7
 10
1079.8988725371457
 20
1029.267348823772
 11
689.89887253714551
 21
1029.267348823772
  0
LINE
  8
_0-2_
  6
CONTINUOUS
 62
    7
 10
689.89887253714551
 20
1029.267348823772
 11
689.89887253714551
 21
469.2673488237719
  0
LINE
  8
_0-2_
  6
CONTINUOUS
 62
    7
 10
689.89887253714551
 20
469.2673488237719
 11
1079.8988725371457
 21
469.2673488237719
  0
LINE
  8
_0-2_
  6
CONTINUOUS
 62
    7
 10
1079.8988725371457
 20
469.2673488237719
 11
1079.8988725371457
 21
1029.267348823772
  0
LINE
  8
_0-2_
  6
CONTINUOUS
 62
    7
 10
1079.8988725370491
 20
520.26734882377195
 11
689.8988725370491
 21
520.26734882377195
  0
LINE
  8
_0-2_
  6
CONTINUOUS
 62
    7
 10
1079.8988725371457
 20
486.2673488237719
 11
929.29887253714571
 21
486.2673488237719
  0
LINE
  8
_0-2_
  6
CONTINUOUS
 62
    7
 10
1029.6988725371975
 20
486.2673488237719
 11
1029.6988725371975
 21
503.2673488237719
  0
LINE
  8
_0-2_
  6
CONTINUOUS
 62
    7
 10
979.49887253719749
 20
486.2673488237719
 11
979.49887253719749
 21
503.2673488237719
  0
LINE
  8
_0-2_
  6
CONTINUOUS
 62
    7
 10
929.29887253719744
 20
469.2673488237719
 11
929.29887253719744
 21
520.26734882377195
  0
TEXT
  8
_0-2_
 62
    7
 10
936.36516934588531
 20
473.92519932464324
 40
6
 41
1
 50
0
  1
大洋金物株式会社 ティーフォルム事業部
  0
TEXT
  8
_0-2_
 62
    7
 10
692.03092613020874
 20
496.95829989926438
 40
4.4000000000000004
 41
1
 50
0
  1
仕様
  0
TEXT
  8
_0-2_
 62
    7
 10
692.11008412622641
 20
513.7277384202182
 40
4.4000000000000004
 41
1
 50
0
  1
品名
  0
TEXT
  8
_0-2_
 62
    7
 10
931.58014201817321
 20
514.02354576782386
 40
4.4000000000000004
 41
1
 50
0
  1
品番
  0
TEXT
  8
_0-2_
 62
    7
 10
931.40046929208268
 20
496.85593532261146
 40
4.4000000000000004
 41
1
 50
0
  1
重量
  0
TEXT
  8
_0-2_
 62
    7
 10
981.63419090952073
 20
497.28379304790997
 40
4.4000000000000004
 41
1
 50
0
  1
容量
  0
TEXT
  8
_0-2_
 62
    7
 10
1031.8476186341097
 20
497.19837872271296
 40
4.4000000000000004
 41
1
 50
0
  1
縮尺
  0
TEXT
  8
_0-2_
 62
    4
 10
690.59866426069993
 20
460.90948008418826
 40
5
 41
1
 50
0
  1
120907S
  0
TEXT
  8
_0-2_
 62
    7
 10
942.89541103866486
 20
507.16508785728229
 40
6
 41
1
 50
0
  1
FRF74-1707
  0
LINE
  8
_0-1_FRF74-1707
  6
CONTINUOUS
 62
    4
 10
817.45709408523305
 20
806.07825403256129
 11
817.45709408523305
 21
773.87825403256124
  0
LINE
  8
_0-1_FRF74-1707
  6
CONTINUOUS
 62
    4
 10
817.45709408523305
 20
806.07825403256129
 11
792.35709408523303
 21
806.07825403256129
  0
POINT
  8
_0-1_FRF74-1707
 62
    7
 10
817.45709408523305
 20
806.07825403256129
  0
POINT
  8
_0-1_FRF74-1707
 62
    7
 10
817.45709408523305
 20
773.87825403256124
  0
LINE
  8
_0-1_FRF74-1707
  6
CONTINUOUS
 62
    4
 10
817.45709408523305
 20
773.87825403256124
 11
792.35709408523303
 21
773.87825403256124
  0
TEXT
  8
_0-1_FRF74-1707
 62
    4
 10
816.45709408523305
 20
784.97825403256127
 40
5
 41
1
 50
90
  1
32.2
  0
LINE
  8
_0-1_FRF74-1707
  6
CONTINUOUS
 62
    4
 10
775.25709408523301
 20
753.87825403256124
 11
797.45709408523305
 21
753.87825403256124
  0
POINT
  8
_0-1_FRF74-1707
 62
    7
 10
775.25709408523301
 20
753.87825403256124
  0
POINT
  8
_0-1_FRF74-1707
 62
    7
 10
797.45709408523305
 20
753.87825403256124
  0
LINE
  8
_0-1_FRF74-1707
  6
CONTINUOUS
 62
    4
 10
775.25709408523301
 20
753.87825403256124
 11
775.25709408523301
 21
778.97825403256127
  0
LINE
  8
_0-1_FRF74-1707
  6
CONTINUOUS
 62
    4
 10
797.45709408523305
 20
753.87825403256124
 11
797.45709408523305
 21
778.97825403256127
  0
TEXT
  8
_0-1_FRF74-1707
 62
    4
 10
781.35709408523303
 20
754.87825403256124
 40
5
 41
1
 50
0
  1
22.2
  0
LINE
  8
_0-1_FRF74-1707
  6
CONTINUOUS
 62
    4
 10
866.76515054378649
 20
774.07825403256129
 11
866.76515054378649
 21
796.07825403256129
  0
POINT
  8
_0-1_FRF74-1707
 62
    7
 10
866.76515054378649
 20
774.07825403256129
  0
POINT
  8
_0-1_FRF74-1707
 62
    7
 10
866.76515054378649
 20
796.07825403256129
  0
LINE
  8
_0-1_FRF74-1707
  6
CONTINUOUS
 62
    4
 10
866.76515054378649
 20
774.07825403256129
 11
880.76515054378649
 21
774.07825403256129
  0
LINE
  8
_0-1_FRF74-1707
  6
CONTINUOUS
 62
    4
 10
866.76515054378649
 20
796.07825403256129
 11
880.76515054378649
 21
796.07825403256129
  0
TEXT
  8
_0-1_FRF74-1707
 62
    4
 10
865.76515054378649
 20
782.57825403256129
 40
5
 41
1
 50
90
  1
22
  0
LINE
  8
_0-1_FRF74-1707
  6
CONTINUOUS
 62
    4
 10
886.76515054378649
 20
816.07825403256129
 11
1011.7651505437865
 21
816.07825403256129
  0
POINT
  8
_0-1_FRF74-1707
 62
    7
 10
886.76515054378649
 20
816.07825403256129
  0
POINT
  8
_0-1_FRF74-1707
 62
    7
 10
1011.7651505437865
 20
816.07825403256129
  0
LINE
  8
_0-1_FRF74-1707
  6
CONTINUOUS
 62
    4
 10
886.76515054378649
 20
816.07825403256129
 11
886.76515054378649
 21
802.07825403256129
  0
LINE
  8
_0-1_FRF74-1707
  6
CONTINUOUS
 62
    4
 10
1011.7651505437865
 20
816.07825403256129
 11
1011.7651505437865
 21
812.07825403256129
  0
TEXT
  8
_0-1_FRF74-1707
 62
    4
 10
945.51515054378649
 20
817.07825403256129
 40
5
 41
1
 50
0
  1
125
  0
LINE
  8
_0-1_FRF74-1707
  6
CONTINUOUS
 62
    4
 10
886.76515054378649
 20
826.68243050455044
 11
1015.7651505437865
 21
826.68243050455044
  0
POINT
  8
_0-1_FRF74-1707
 62
    7
 10
886.76515054378649
 20
826.68243050455044
  0
POINT
  8
_0-1_FRF74-1707
 62
    7
 10
1015.7651505437865
 20
826.68243050455044
  0
LINE
  8
_0-1_FRF74-1707
  6
CONTINUOUS
 62
    4
 10
886.76515054378649
 20
826.68243050455044
 11
886.76515054378649
 21
802.07825403256129
  0
LINE
  8
_0-1_FRF74-1707
  6
CONTINUOUS
 62
    4
 10
1015.7651505437865
 20
826.68243050455044
 11
1015.7651505437865
 21
812.07825403256129
  0
TEXT
  8
_0-1_FRF74-1707
 62
    4
 10
947.51515054378649
 20
827.68243050455044
 40
5
 41
1
 50
0
  1
129
  0
LINE
  8
_0-0_
  6
CONTINUOUS
 62
    7
 10
775.25709408523301
 20
784.97825403256127
 11
775.25709408523301
 21
794.97825403256127
  0
ARC
  8
_0-0_
  6
CONTINUOUS
 62
    7
 10
786.35709408523303
 20
784.97825403256127
 40
11.100000000000009
 50
180
 51
0
  0
LINE
  8
_0-0_
  6
CONTINUOUS
 62
    7
 10
797.45709408523305
 20
794.97825403256127
 11
797.45709408523305
 21
784.97825403256127
  0
ARC
  8
_0-0_
  6
CONTINUOUS
 62
    7
 10
786.35709408523303
 20
794.97825403256127
 40
11.100000000000009
 50
0
 51
180
  0
LINE
  8
_0-0_
  6
CONTINUOUS
 62
    7
 10
788.60709408523303
 20
773.07825403256129
 11
784.66655784089266
 21
773.07825403256129
  0
LINE
  8
_0-0_
  6
CONTINUOUS
 62
    7
 10
784.66655784089266
 20
773.07825403256129
 11
784.10709408523303
 21
773.07825403256129
  0
LINE
  8
_0-0_
  6
CONTINUOUS
 62
    7
 10
783.35709408523303
 20
773.82825403256129
 11
784.10304575944588
 21
773.82825403256129
  0
LINE
  8
_0-0_
  6
CONTINUOUS
 62
    7
 10
784.10304575944588
 20
773.82825403256129
 11
789.35709408523303
 21
773.82825403256129
  0
LINE
  8
_0-0_
  6
CONTINUOUS
 62
    7
 10
788.60709408523303
 20
773.07825403256129
 11
789.35709408523303
 21
773.82825403256129
  0
LINE
  8
_0-0_
  6
CONTINUOUS
 62
    7
 10
783.35709408523303
 20
773.82825403256129
 11
784.10709408523303
 21
773.07825403256129
  0
LINE
  8
_0-0_
  6
CONTINUOUS
 62
    7
 10
789.35709408523303
 20
773.82825403256129
 11
789.35709408523303
 21
774.29134615422709
  0
LINE
  8
_0-0_
  6
CONTINUOUS
 62
    7
 10
783.35709408523303
 20
774.29134615422709
 11
783.35709408523303
 21
773.82825403256129
  0
LINE
  8
_0-0_
  6

 62
    7
 10
1011.5349500208977
 20
785.07825403256129
 11
884.76515054378649
 21
785.07825403256129
  0
LINE
  8
_0-0_
  6
CONTINUOUS
 62
    7
 10
892.5906484760776
 20
774.28598540029861
 11
892.88373290413199
 21
774.32738214138965
  0
LINE
  8
_0-0_
  6
CONTINUOUS
 62
    7
 10
886.76515054378649
 20
796.07825403256129
 11
886.76515054378649
 21
774.07825403256129
  0
LINE
  8
_0-0_
  6
CONTINUOUS
 62
    7
 10
1011.7651505437864
 20
784.97825403256127
 11
1011.7651505437864
 21
794.97825403256138
  0
LINE
  8
_0-0_
  6
CONTINUOUS
 62
    7
 10
1015.7651505437864
 20
784.97825403256127
 11
1015.7651505437864
 21
794.97825403256138
  0
LINE
  8
_0-0_
  6
CONTINUOUS
 62
    7
 10
1011.7651505437864
 20
794.97825403256138
 11
1011.7651505437864
 21
806.07825403256129
  0
LINE
  8
_0-0_
  6
CONTINUOUS
 62
    7
 10
1011.7651505437864
 20
794.97825403256138
 11
1015.7651505437864
 21
794.97825403256138
  0
LINE
  8
_0-0_
  6
CONTINUOUS
 62
    7
 10
1015.7651505437864
 20
794.97825403256138
 11
1015.7651505437864
 21
806.07825403256129
  0
LINE
  8
_0-0_
  6
CONTINUOUS
 62
    7
 10
1011.7651505437864
 20
773.87825403256124
 11
1011.7651505437864
 21
784.97825403256127
  0
LINE
  8
_0-0_
  6
CONTINUOUS
 62
    7
 10
1015.7651505437864
 20
773.87825403256124
 11
1015.7651505437864
 21
784.97825403256127
  0
LINE
  8
_0-0_
  6
CONTINUOUS
 62
    7
 10
1011.7651505437864
 20
784.97825403256127
 11
1015.7651505437864
 21
784.97825403256127
  0
LINE
  8
_0-0_
  6
CONTINUOUS
 62
    7
 10
897.01515054378649
 20
773.07825403256129
 11
896.24993578299495
 21
773.07825403256129
  0
LINE
  8
_0-0_
  6
CONTINUOUS
 62
    7
 10
896.24993578299495
 20
773.07825403256129
 11
892.51515054378649
 21
773.07825403256129
  0
LINE
  8
_0-0_
  6
CONTINUOUS
 62
    7
 10
891.76515054378649
 20
773.82825403256129
 11
896.74486419606444
 21
773.82825403256129
  0
LINE
  8
_0-0_
  6
CONTINUOUS
 62
    7
 10
896.74486419606444
 20
773.82825403256129
 11
897.76515054378649
 21
773.82825403256129
  0
LINE
  8
_0-0_
  6
CONTINUOUS
 62
    7
 10
1011.7651505437864
 20
796.07825403256129
 11
886.76515054378649
 21
796.07825403256129
  0
LINE
  8
_0-0_
  6
CONTINUOUS
 62
    7
 10
886.76515054378649
 20
774.07825403256129
 11
891.52586936048021
 21
774.07825403256129
  0
LINE
  8
_0-0_
  6
CONTINUOUS
 62
    7
 10
898.01062347695097
 20
774.07825403256129
 11
1011.7651505437864
 21
774.07825403256129
  0
LINE
  8
_0-0_
  6
CONTINUOUS
 62
    7
 10
1015.7651505437864
 20
806.07825403256129
 11
1011.7651505437864
 21
806.07825403256129
  0
LINE
  8
_0-0_
  6
CONTINUOUS
 62
    7
 10
1011.7651505437864
 20
773.87825403256124
 11
1015.7651505437864
 21
773.87825403256124
  0
LINE
  8
_0-0_
  6
CONTINUOUS
 62
    7
 10
897.01515054378649
 20
773.07825403256129
 11
897.76515054378649
 21
773.82825403256129
  0
LINE
  8
_0-0_
  6
CONTINUOUS
 62
    7
 10
891.76515054378649
 20
773.82825403256129
 11
892.51515054378649
 21
773.07825403256129
  0
LINE
  8
_0-0_
  6
CONTINUOUS
 62
    7
 10
897.76515054378649
 20
773.82825403256129
 11
897.76515054378649
 21
774.13292528826958
  0
LINE
  8
_0-0_
  6
CONTINUOUS
 62
    7
 10
891.76515054378649
 20
774.13307682106893
 11
891.76515054378649
 21
773.82825403256129
  0
TEXT
  8
_0-2_
 62
    7
 10
704.52645968509307
 20
506.99149662678974
 40
6
 41
1
 50
0
  1
トイレットペーパーストッカー　-LANGBERGER,Viola-
  0
TEXT
  8
_0-2_
 62
    7
 10
706.08502675545037
 20
488.81183077672989
 40
6
 41
1
 50
0
  1
クローム
  0
ENDSEC
  0
EOF
