  0
SECTION
  2
HEADER
  9
$ACADVER
  1
AC1009
  9
$INSBASE
 10
0
 20
0
 30
0
  9
$EXTMIN
 10
0
 20
0
  9
$EXTMAX
 10
4205
 20
2970
  9
$LIMMIN
 10
0
 20
0
  9
$LIMMAX
 10
4205
 20
2970
  9
$LTSCALE
 40
5
  0
ENDSEC
  0
SECTION
  2
TABLES
  0
TABLE
  2
LTYPE
 70
     9
  0
LTYPE
  2
CONTINUOUS
 70
    64
  3
実線
 72
    65
 73
     0
 40
0.0
  0
LTYPE
  2
DASHED1
 70
    64
  3
--  --  --  --  --  --  --  --  
 72
    65
 73
     2
 40
2.5
 49
1.25
 49
-1.25
  0
LTYPE
  2
DASHED2
 70
    64
  3
----    ----    ----    ----    
 72
    65
 73
     2
 40
5.0
 49
2.5
 49
-2.5
  0
LTYPE
  2
DASHED3
 70
    64
  3
------  ------  ------  ------  
 72
    65
 73
     2
 40
5.0
 49
3.75
 49
-1.25
  0
LTYPE
  2
CENTER1
 70
    64
  3
----- - ----- - ----- - ----- - 
 72
    65
 73
     4
 40
10.0
 49
6.25
 49
-1.25
 49
1.25
 49
-1.25
  0
LTYPE
  2
CENTER2
 70
    64
  3
----------  --  ----------  --  
 72
    65
 73
     4
 40
20.0
 49
12.5
 49
-2.5
 49
2.5
 49
-2.5
  0
LTYPE
  2
PHANTOM1
 70
    64
  3
--- - - --- - - --- - - --- - - 
 72
    65
 73
     6
 40
10.0
 49
3.25
 49
-1.25
 49
1.25
 49
-1.25
 49
1.25
 49
-1.25
  0
LTYPE
  2
PHANTOM2
 70
    64
  3
--------  -  -  --------  -  -  
 72
    65
 73
     6
 40
20.0
 49
10.0
 49
-2.5
 49
1.25
 49
-2.5
 49
1.25
 49
-2.5
  0
LTYPE
  2
DOT
 70
    64
  3
-   -   -   -   -   -   -   -   
 72
    65
 73
     2
 40
2.5
 49
0.625
 49
-1.875
  0
LTYPE
  2
DUMMY
 70
    64
  3
ダミー
 72
    65
 73
     0
 40
0.0
  0
LTYPE
  2
RAND1
 70
    64
  3
ランダム線1
 72
    65
 73
     4
 40
10.0
 49
1.0
 49
-2.0
 49
3.0
 49
-4.0
  0
LTYPE
  2
RAND2
 70
    64
  3
ランダム線2
 72
    65
 73
     4
 40
14.0
 49
2.0
 49
-3.0
 49
4.0
 49
-5.0
  0
LTYPE
  2
RAND3
 70
    64
  3
ランダム線3
 72
    65
 73
     4
 40
18.0
 49
3.0
 49
-4.0
 49
5.0
 49
-6.0
  0
LTYPE
  2
RAND4
 70
    64
  3
ランダム線4
 72
    65
 73
     4
 40
22.0
 49
4.0
 49
-5.0
 49
6.0
 49
-7.0
  0
LTYPE
  2
RAND5
 70
    64
  3
ランダム線5
 72
    65
 73
     4
 40
26.0
 49
5.0
 49
-6.0
 49
7.0
 49
-8.0
  0
LTYPE
  2
LONG1
 70
    64
  3
----------  --  ----------  --  
 72
    65
 73
     4
 40
40.0
 49
32.5
 49
-2.5
 49
2.5
 49
-2.5
  0
LTYPE
  2
LONG2
 70
    64
  3
--------  -  -  --------  -  -  
 72
    65
 73
     6
 40
40.0
 49
30.0
 49
-2.5
 49
1.25
 49
-2.5
 49
1.25
 49
-2.5
  0
LTYPE
  2
LONG3
 70
    64
  3
+++++++++++++++..+++++++++++++++
 72
    65
 73
     2
 40
40.0
 49
37.5
 49
-2.5
  0
LTYPE
  2
LONG4
 70
    64
  3
+++++++++++++++..+++++++++++++++
 72
    65
 73
     2
 40
80.0
 49
75.0
 49
-5.0
  0
LTYPE
  2
LONG5
 70
    64
  3
----------  --  ----------  --  
 72
    65
 73
     4
 40
60.0
 49
37.5
 49
-7.5
 49
7.5
 49
-7.5
  0
LTYPE
  2
dashed
 70
   64
  3
-------   -------------   ------
 72
   65
 73
    2
 40
7.5
 49
6
 49
-1.5
  0
LTYPE
  2
dashed_spaced
 70
   64
  3
----        --------        ----
 72
   65
 73
    2
 40
12
 49
6
 49
-6
  0
LTYPE
  2
long_dashed_dotted
 70
   64
  3
------------- --- --------------
 72
   65
 73
    4
 40
15.25
 49
12
 49
-1.5
 49
0.25
 49
-1.5
  0
LTYPE
  2
long_dashed_double-dotted
 70
   64
  3
----------- --- --- ------------
 72
   65
 73
    6
 40
17
 49
12
 49
-1.5
 49
0.25
 49
-1.5
 49
0.25
 49
-1.5
  0
LTYPE
  2
long_dashed_triplicate-dotted
 70
   64
  3
--------- --- --- --- ----------
 72
   65
 73
    8
 40
18.75
 49
12
 49
-1.5
 49
0.25
 49
-1.5
 49
0.25
 49
-1.5
 49
0.25
 49
-1.5
  0
LTYPE
  2
dotted
 70
   64
  3
   -       -       -       -    
 72
   65
 73
    2
 40
1.75
 49
0.25
 49
-1.5
  0
LTYPE
  2
chain
 70
   64
  3
-------------- -- --------------
 72
   65
 73
    4
 40
18.5
 49
12
 49
-1.5
 49
3.5
 49
-1.5
  0
LTYPE
  2
chain_double_dash
 70
   64
  3
------------ -- -- -------------
 72
   65
 73
    6
 40
23.5
 49
12
 49
-1.5
 49
3.5
 49
-1.5
 49
3.5
 49
-1.5
  0
LTYPE
  2
dashed_dotted
 70
   64
  3
-----------     -     ----------
 72
   65
 73
    4
 40
9.25
 49
6
 49
-1.5
 49
0.25
 49
-1.5
  0
LTYPE
  2
double-dashed_dotted
 70
   64
  3
------   -----------   -   -----
 72
   65
 73
    6
 40
16.75
 49
6
 49
-1.5
 49
6
 49
-1.5
 49
0.25
 49
-1.5
  0
LTYPE
  2
dashed_double-dotted
 70
   64
  3
---------    -    -    ---------
 72
   65
 73
    6
 40
11
 49
6
 49
-1.5
 49
0.25
 49
-1.5
 49
0.25
 49
-1.5
  0
LTYPE
  2
double-dashed_double-dotted
 70
   64
  3
-----   ---------   -   -   ----
 72
   65
 73
    8
 40
18.5
 49
6
 49
-1.5
 49
6
 49
-1.5
 49
0.25
 49
-1.5
 49
0.25
 49
-1.5
  0
LTYPE
  2
dashed_triplicate-dotted
 70
   64
  3
-------    -    -    -    ------
 72
   65
 73
    8
 40
12.75
 49
6
 49
-1.5
 49
0.25
 49
-1.5
 49
0.25
 49
-1.5
 49
0.25
 49
-1.5
  0
LTYPE
  2
double-dashed_triplicate-dotted
 70
   64
  3
-----  ---------  -  -  -  -----
 72
   65
 73
   10
 40
20.25
 49
6
 49
-1.5
 49
6
 49
-1.5
 49
0.25
 49
-1.5
 49
0.25
 49
-1.5
 49
0.25
 49
-1.5
  0
LTYPE
  2
undefined
 70
   64
  3
--------------------------------
 72
   65
 73
    0
 40
0
  0
ENDTAB
  0
TABLE
  2
STYLE
  5
3
100
AcDbSymbolTable
 70
     1
  0
STYLE
  5
10
100
AcDbSymbolTableRecord
100
AcDbTextStyleTableRecord
  2
STANDARD
 70
     0
 40
0.0
 41
1.0
 50
0.0
 71
     0
 42
0.2
  3
txt
  4
bigfont.shx
  0
STYLE
  5
26
100
AcDbSymbolTableRecord
100
AcDbTextStyleTableRecord
  2
TATEGAKI
 70
    68
 40
0.0
 41
1.0
 50
0.0
 71
     0
 42
1.0
  3
txt
  4
bigfont.shx
  0
ENDTAB
  0
TABLE
  2
LAYER
 70
    4
  0
LAYER
  2
_0-0_
 70
   64
 62
    7
  6
CONTINUOUS
  0
LAYER
  2
_0-1_
 70
   64
 62
    7
  6
CONTINUOUS
  0
LAYER
  2
_0-2_FRF74-1708
 70
   64
 62
    7
  6
CONTINUOUS
  0
LAYER
  2
ADD_LINE
 70
   64
 62
    7
  6
CONTINUOUS
  0
ENDTAB
  0
ENDSEC
  0
SECTION
  2
BLOCKS
  0
ENDSEC
  0
SECTION
  2
ENTITIES
  0
LINE
  8
_0-0_
  6
CONTINUOUS
 62
    7
 10
1961.0331195908193
 20
1849.9642608417316
 11
1961.0331195908193
 21
1839.0670118583485
  0
TEXT
  8
_0-2_FRF74-1708
 62
    7
 10
2211.5256034060785
 20
1065.334252852228
 40
15
 41
1
 50
0
  1
FRF74-1708
  0
LINE
  8
_0-2_FRF74-1708
  6
CONTINUOUS
 62
    7
 10
2552.566283385414
 20
1056.1979530071658
 11
1577.5662833854144
 21
1056.1979530071658
  0
LINE
  8
_0-2_FRF74-1708
  6
CONTINUOUS
 62
    7
 10
2552.5662833856559
 20
2371.1979530071658
 11
1577.5662833856554
 21
2371.1979530071658
  0
LINE
  8
_0-2_FRF74-1708
  6
CONTINUOUS
 62
    7
 10
1577.5662833856554
 20
2371.1979530071658
 11
1577.5662833856554
 21
971.19795300716578
  0
LINE
  8
_0-2_FRF74-1708
  6
CONTINUOUS
 62
    7
 10
1577.5662833856554
 20
971.19795300716578
 11
2552.5662833856559
 21
971.19795300716578
  0
LINE
  8
_0-2_FRF74-1708
  6
CONTINUOUS
 62
    7
 10
2552.5662833856559
 20
971.19795300716578
 11
2552.5662833856559
 21
2371.1979530071658
  0
LINE
  8
_0-2_FRF74-1708
  6
CONTINUOUS
 62
    7
 10
2552.566283385414
 20
1098.6979530071658
 11
1577.5662833854144
 21
1098.6979530071658
  0
LINE
  8
_0-2_FRF74-1708
  6
CONTINUOUS
 62
    7
 10
2552.5662833856559
 20
1013.6979530071658
 11
2176.0662833856559
 21
1013.6979530071658
  0
LINE
  8
_0-2_FRF74-1708
  6
CONTINUOUS
 62
    7
 10
2427.066283385785
 20
1013.6979530071658
 11
2427.066283385785
 21
1056.1979530071658
  0
LINE
  8
_0-2_FRF74-1708
  6
CONTINUOUS
 62
    7
 10
2301.566283385785
 20
1013.6979530071658
 11
2301.566283385785
 21
1056.1979530071658
  0
LINE
  8
_0-2_FRF74-1708
  6
CONTINUOUS
 62
    7
 10
2176.066283385785
 20
971.19795300716578
 11
2176.066283385785
 21
1098.6979530071658
  0
TEXT
  8
_0-2_FRF74-1708
 62
    7
 10
2196.3388549397118
 20
983.13221232091132
 40
15
 41
1
 50
0
  1
大洋金物株式会社 ティーフォルム事業部
  0
TEXT
  8
_0-2_FRF74-1708
 62
    7
 10
1582.8750828572131
 20
1080.7343511503877
 40
11
 41
1
 50
0
  1
品名
  0
TEXT
  8
_0-2_FRF74-1708
 62
    7
 10
1584.6653190366922
 20
1037.1766457401898
 40
11
 41
1
 50
0
  1
仕様
  0
TEXT
  8
_0-2_FRF74-1708
 62
    7
 10
2183.0590642652819
 20
1080.1315954814579
 40
11
 41
1
 50
0
  1
品番
  0
TEXT
  8
_0-2_FRF74-1708
 62
    7
 10
2183.0568574992371
 20
1037.182349606808
 40
11
 41
1
 50
0
  1
重量
  0
TEXT
  8
_0-2_FRF74-1708
 62
    7
 10
2308.1776163454042
 20
1037.5114084130682
 40
11
 41
1
 50
0
  1
容量
  0
TEXT
  8
_0-2_FRF74-1708
 62
    7
 10
2433.6646030852935
 20
1037.4114153200876
 40
11
 41
1
 50
0
  1
縮尺
  0
TEXT
  8
_0-2_FRF74-1708
 62
    7
 10
1578.1476923649509
 20
947.26970852156592
 40
15
 41
1
 50
0
  1
120910S
  0
LINE
  8
_0-1_
  6
CONTINUOUS
 62
    4
 10
1809.0331142338518
 20
1907.015635604982
 11
2113.0331196049733
 21
1907.015635604982
  0
POINT
  8
_0-1_
 62
    7
 10
1809.0331142338518
 20
1907.015635604982
  0
POINT
  8
_0-1_
 62
    7
 10
2113.0331196049733
 20
1907.015635604982
  0
LINE
  8
_0-1_
  6
CONTINUOUS
 62
    4
 10
1809.0331142338518
 20
1907.015635604982
 11
1809.0331142338518
 21
1872.015635604982
  0
LINE
  8
_0-1_
  6
CONTINUOUS
 62
    4
 10
2113.0331196049733
 20
1907.015635604982
 11
2113.0331196049733
 21
1873.5156364658872
  0
TEXT
  8
_0-1_
 62
    4
 10
1951.6581169194126
 20
1909.515635604982
 40
12.5
 41
1
 50
0
  1
304
  0
LINE
  8
_0-1_
  6
CONTINUOUS
 62
    4
 10
1767.0331196049733
 20
1680.3759314760014
 11
1767.0331196049733
 21
1605.3759314760014
  0
POINT
  8
_0-1_
 62
    7
 10
1767.0331196049733
 20
1680.3759314760014
  0
POINT
  8
_0-1_
 62
    7
 10
1767.0331196049733
 20
1605.3759314760014
  0
LINE
  8
_0-1_
  6
CONTINUOUS
 62
    4
 10
1767.0331196049733
 20
1680.3759314760014
 11
1802.0331196049733
 21
1680.3759314760014
  0
LINE
  8
_0-1_
  6
CONTINUOUS
 62
    4
 10
1767.0331196049733
 20
1605.3759314760014
 11
1794.5331196049733
 21
1605.3759314760014
  0
TEXT
  8
_0-1_
 62
    4
 10
1764.5331196049733
 20
1636.6259314760014
 40
12.5
 41
1
 50
90
  1
75
  0
LINE
  8
_0-1_
  6
CONTINUOUS
 62
    4
 10
1836.0331196049733
 20
1730.3759314760014
 11
2086.0331196049733
 21
1730.3759314760014
  0
POINT
  8
_0-1_
 62
    7
 10
1836.0331196049733
 20
1730.3759314760014
  0
POINT
  8
_0-1_
 62
    7
 10
2086.0331196049733
 20
1730.3759314760014
  0
LINE
  8
_0-1_
  6
CONTINUOUS
 62
    4
 10
1836.0331196049733
 20
1730.3759314760014
 11
1836.0331196049733
 21
1699.8759314760014
  0
LINE
  8
_0-1_
  6
CONTINUOUS
 62
    4
 10
2086.0331196049733
 20
1730.3759314760014
 11
2086.0331196049733
 21
1699.8759314760014
  0
TEXT
  8
_0-1_
 62
    4
 10
1951.6581196049733
 20
1732.8759314760014
 40
12.5
 41
1
 50
0
  1
250
  0
LINE
  8
_0-1_
  6
CONTINUOUS
 62
    4
 10
2067.0331196049733
 20
1707.1627953651503
 11
2105.0331196049733
 21
1707.1627953651503
  0
POINT
  8
_0-1_
 62
    7
 10
2067.0331196049733
 20
1707.1627953651503
  0
POINT
  8
_0-1_
 62
    7
 10
2105.0331196049733
 20
1707.1627953651503
  0
LINE
  8
_0-1_
  6
CONTINUOUS
 62
    4
 10
2067.0331196049733
 20
1707.1627953651503
 11
2067.0331196049733
 21
1696.8759314760014
  0
LINE
  8
_0-1_
  6
CONTINUOUS
 62
    4
 10
2105.0331196049733
 20
1707.1627953651503
 11
2105.0331196049733
 21
1696.8759314760014
  0
TEXT
  8
_0-1_
 62
    4
 10
2109.1828369942227
 20
1708.6627766298402
 40
12.5
 41
1
 50
0
  1
38
  0
LINE
  8
_0-1_
  6
CONTINUOUS
 62
    7
 10
2105.0331196049733
 20
1707.1627953651503
 11
2122.2318998010933
 21
1707.1627953651503
  0
LINE
  8
_0-0_
  6
CONTINUOUS
 62
    7
 10
1809.0331142338518
 20
1832.0156370950981
 11
1811.0331182869677
 21
1832.0156370950981
  0
LINE
  8
_0-0_
  6
CONTINUOUS
 62
    7
 10
1811.0331182869677
 20
1857.015635604982
 11
1809.0331142338518
 21
1857.015635604982
  0
LINE
  8
_0-0_
  6
CONTINUOUS
 62
    7
 10
2113.0331193598513
 20
1857.015635604982
 11
2111.0331153067355
 21
1857.015635604982
  0
LINE
  8
_0-0_
  6
CONTINUOUS
 62
    7
 10
2111.0331153067355
 20
1832.0156370950981
 11
2113.0331193598513
 21
1832.0156370950981
  0
LINE
  8
_0-0_
  6
CONTINUOUS
 62
    7
 10
2030.9815665277247
 20
1832.0156370950981
 11
2111.0331153067355
 21
1832.0156370950981
  0
LINE
  8
_0-0_
  6
CONTINUOUS
 62
    7
 10
2111.0331153067355
 20
1857.015635604982
 11
2030.9815665277247
 21
1857.015635604982
  0
LINE
  8
_0-0_
  6
CONTINUOUS
 62
    7
 10
1891.0846745165591
 20
1857.015635604982
 11
1811.0331182869677
 21
1857.015635604982
  0
LINE
  8
_0-0_
  6
CONTINUOUS
 62
    7
 10
1811.0331182869677
 20
1832.0156370950981
 11
1891.0846745165591
 21
1832.0156370950981
  0
LINE
  8
_0-0_
  6
CONTINUOUS
 62
    7
 10
2031.0331208201651
 20
1857.0155275715633
 11
2031.0233820290186
 21
1857.0153808630021
  0
ARC
  8
_0-0_
  6
CONTINUOUS
 62
    7
 10
2036.8391988319138
 20
1470.950487198636
 40
386.10869693023358
 50
90.863058412214571
 51
90.95259885608634
  0
LINE
  8
_0-0_
  6
CONTINUOUS
 62
    7
 10
2030.4200565963838
 20
1857.0058206135791
 11
2030.3519303385606
 21
1857.0046878429605
  0
ARC
  8
_0-0_
  6
CONTINUOUS
 62
    7
 10
2031.8674479883941
 20
1765.8595394512406
 40
91.157747169923041
 50
90.952598856082815
 51
91.246205490840765
  0
ARC
  8
_0-0_
  6
CONTINUOUS
 62
    7
 10
2032.7438580199075
 20
1725.571900253176
 40
131.45491787329593
 50
91.246205490840254
 51
91.44980798982688
  0
LINE
  8
_0-0_
  6
CONTINUOUS
 62
    7
 10
2029.4178878640034
 20
1856.9847358347772
 11
2029.3684994691744
 21
1856.9834858478448
  0
ARC
  8
_0-0_
  6
CONTINUOUS
 62
    7
 10
2030.4060838119317
 20
1815.9873571260061
 40
41.009256899459615
 50
91.4498079898312
 51
92.240492125435964
  0
LINE
  8
_0-0_
  6
CONTINUOUS
 62
    7
 10
2028.8028679456756
 20
1856.9652639824096
 11
2028.6757162482349
 21
1856.9602893110709
  0
ARC
  8
_0-0_
  6
CONTINUOUS
 62
    7
 10
2031.3864285562054
 20
1787.6749742087327
 40
69.338321655826576
 50
92.240492125433363
 51
92.840508646655294
  0
LINE
  8
_0-0_
  6
CONTINUOUS
 62
    7
 10
2027.9503040470124
 20
1856.9281033683899
 11
2027.927655793558
 21
1856.9269796326148
  0
ARC
  8
_0-0_
  6
CONTINUOUS
 62
    7
 10
2032.5412702879569
 20
1763.9422115840216
 40
93.099154280549641
 50
92.840508646656076
 51
93.259479731375492
  0
ARC
  8
_0-0_
  6
CONTINUOUS
 62
    7
 10
2037.4557753611166
 20
1677.6472825183891
 40
179.53391084616226
 50
93.25947973137832
 51
93.47674220030521
  0
LINE
  8
_0-0_
  6
CONTINUOUS
 62
    7
 10
2026.5682346123858
 20
1856.8507607216941
 11
2026.3571663303765
 21
1856.8379372288455
  0
ARC
  8
_0-0_
  6
CONTINUOUS
 62
    7
 10
2037.5131219729974
 20
1673.2164840489031
 40
183.96003211082024
 50
93.476742200308109
 51
93.820496646372177
  0
LINE
  8
_0-0_
  6
CONTINUOUS
 62
    7
 10
2025.2557098397888
 20
1856.767701048439
 11
2025.0323974549406
 21
1856.7527884154406
  0
ARC
  8
_0-0_
  6
CONTINUOUS
 62
    7
 10
2045.848345213084
 20
1545.0399649838773
 40
312.40708694385688
 50
93.820496646371453
 51
93.973339663761351
  0
ARC
  8
_0-0_
  6
CONTINUOUS
 62
    7
 10
2047.861470166215
 20
1516.0571411323076
 40
341.45974173628582
 50
93.973339663762019
 51
94.113178246761635
  0
LINE
  8
_0-0_
  6
CONTINUOUS
 62
    7
 10
2023.3696358926909
 20
1856.6373890629961
 11
2023.3522716467544
 21
1856.6361403639412
  0
ARC
  8
_0-0_
  6
CONTINUOUS
 62
    7
 10
2057.2202775248711
 20
1385.6720749505575
 40
472.18025449277485
 50
94.113178246760612
 51
94.218528248147479
  0
LINE
  8
_0-0_
  6
CONTINUOUS
 62
    7
 10
2022.4863656905704
 20
1856.5730710225016
 11
2022.4793092622565
 21
1856.5725505365372
  0
ARC
  8
_0-0_
  6
CONTINUOUS
 62
    7
 10
2076.1243133990133
 20
1129.2866058145635
 40
729.26170327185434
 50
94.218528248144764
 51
94.287851787122847
  0
LINE
  8
_0-0_
  6
CONTINUOUS
 62
    7
 10
2021.5993880203314
 20
1856.5071118314222
 11
2021.3626450237382
 21
1856.4893615148173
  0
ARC
  8
_0-0_
  6
CONTINUOUS
 62
    7
 10
2242.7936705063198
 20
-1096.8238485636664
 40
2961.6027106737897
 50
94.287851787119408
 51
94.314107807878713
  0
LINE
  8
_0-0_
  6
CONTINUOUS
 62
    7
 10
2020.0093006975649
 20
1856.3875797697779
 11
2019.5480585264231
 21
1856.3527845819222
  0
ARC
  8
_0-0_
  6
CONTINUOUS
 62
    7
 10
1884.4063165371931
 20
3647.7806896486891
 40
1796.5180849297869
 50
274.26883888181487
 51
274.31410780787189
  0
LINE
  8
_0-0_
  6
CONTINUOUS
 62
    7
 10
2018.1326239795246
 20
1856.2465693546801
 11
2017.9083770652426
 21
1856.2298307888541
  0
ARC
  8
_0-0_
  6
CONTINUOUS
 62
    7
 10
1951.6036472744954
 20
2744.5156739344638
 40
890.75701306558983
 50
274.20646704364611
 51
274.26883888180907
  0
ARC
  8
_0-0_
  6
CONTINUOUS
 62
    7
 10
1976.2392731405896
 20
2409.5598952192845
 40
554.89649475998942
 50
274.10634360777101
 51
274.20646704364651
  0
LINE
  8
_0-0_
  6
CONTINUOUS
 62
    7
 10
2015.9742333003228
 20
1856.087896977253
 11
2015.8060639190469
 21
1856.0758237311147
  0
ARC
  8
_0-0_
  6
CONTINUOUS
 62
    7
 10
1996.9929294289047
 20
2118.1257439422711
 40
262.72437022860532
 50
273.82133619488877
 51
274.10634360777237
  0
LINE
  8
_0-0_
  6
CONTINUOUS
 62
    7
 10
2014.5023169718186
 20
1855.9854836618451
 11
2014.3343678105002
 21
1855.974265671332
  0
ARC
  8
_0-0_
  6
CONTINUOUS
 62
    7
 10
1988.610059489677
 20
2241.103492049212
 40
385.98738457235805
 50
273.6746054871245
 51
273.82133619488968
  0
LINE
  8
_0-0_
  6
CONTINUOUS
 62
    7
 10
2013.3479940172244
 20
1855.9096504002055
 11
2013.3325827218209
 21
1855.9086606553665
  0
ARC
  8
_0-0_
  6
CONTINUOUS
 62
    7
 10
1971.726994340022
 20
2503.7483743946786
 40
649.17433689451184
 50
273.59008800472577
 51
273.67460548713001
  0
LINE
  8
_0-0_
  6
CONTINUOUS
 62
    7
 10
2012.3769040357136
 20
1855.8479927586113
 11
2012.3614900008715
 21
1855.8470256668454
  0
ARC
  8
_0-0_
  6
CONTINUOUS
 62
    7
 10
1883.8964662735139
 20
3903.3924820485477
 40
2051.5715094216489
 50
273.56420696766321
 51
273.59008800473015
  0
LINE
  8
_0-0_
  6
CONTINUOUS
 62
    7
 10
2011.4365815796145
 20
1855.7892057134245
 11
2011.4057508798842
 21
1855.7872844589992
  0
LINE
  8
_0-0_
  6
CONTINUOUS
 62
    7
 10
2011.4057508798842
 20
1855.7872844589992
 11
2011.0331212671999
 21
1855.7656367970749
  0
LINE
  8
_0-0_
  6
CONTINUOUS
 62
    7
 10
2011.0331212671999
 20
1833.2656359030052
 11
2011.4057508798842
 21
1833.2439863784357
  0
LINE
  8
_0-0_
  6
CONTINUOUS
 62
    7
 10
2011.4057508798842
 20
1833.2439863784357
 11
2011.4211671835683
 21
1833.2430264996246
  0
ARC
  8
_0-0_
  6
CONTINUOUS
 62
    7
 10
1883.4652300902997
 20
-221.815968099624
 40
2059.0386575100265
 50
86.410495422946823
 51
86.437142126472622
  0
ARC
  8
_0-0_
  6
CONTINUOUS
 62
    7
 10
1971.8387454015415
 20
1186.9587512507867
 40
647.49479064322077
 50
86.325758704702181
 51
86.410495422948301
  0
LINE
  8
_0-0_
  6
CONTINUOUS
 62
    7
 10
2013.3325844100646
 20
1833.1226354430578
 11
2013.3661164175755
 21
1833.1204821631309
  0
ARC
  8
_0-0_
  6
CONTINUOUS
 62
    7
 10
1989.5774777890981
 20
1462.6712901118203
 40
371.2122077993464
 50
86.178793026736955
 51
86.325758704700121
  0
LINE
  8
_0-0_
  6
CONTINUOUS
 62
    7
 10
2014.3162522495425
 20
1833.0582448732703
 11
2014.3208082528172
 21
1833.0579405700651
  0
ARC
  8
_0-0_
  6
CONTINUOUS
 62
    7
 10
1993.1164530190626
 20
1515.5880280945048
 40
318.17726192818884
 50
86.008975104920751
 51
86.178793026736699
  0
ARC
  8
_0-0_
  6
CONTINUOUS
 62
    7
 10
1988.3821512397444
 20
1447.7316096015675
 40
386.19863462843853
 50
85.869067271877952
 51
86.008975104922357
  0
LINE
  8
_0-0_
  6
CONTINUOUS
 62
    7
 10
2016.202329117285
 20
1832.9269147283726
 11
2016.2158854884603
 21
1832.9259356389275
  0
ARC
  8
_0-0_
  6
CONTINUOUS
 62
    7
 10
1976.0017233503477
 20
1276.1248064947958
 40
558.25144536548237
 50
85.769488991469828
 51
85.869067271876915
  0
LINE
  8
_0-0_
  6
CONTINUOUS
 62
    7
 10
2017.1835272889148
 20
1832.8552037940772
 11
2017.4141247791952
 21
1832.8381463086594
  0
ARC
  8
_0-0_
  6
CONTINUOUS
 62
    7
 10
1937.0368882195571
 20
746.23079636347609
 40
1089.5760795428005
 50
85.694151029050417
 51
85.769488991468251
  0
LINE
  8
_0-0_
  6
CONTINUOUS
 62
    7
 10
2018.8428299936661
 20
1832.7315193279428
 11
2020.9382466218312
 21
1832.5737490411375
  0
ARC
  8
_0-0_
  6
CONTINUOUS
 62
    7
 10
2129.3205079202698
 20
3272.0462702700897
 40
1443.5469697718177
 50
265.69415102904338
 51
265.72920510311047
  0
ARC
  8
_0-0_
  6
CONTINUOUS
 62
    7
 10
2072.4416241478857
 20
2510.3889752040404
 40
679.76883278011064
 50
265.72920510310331
 51
265.80361061169356
  0
ARC
  8
_0-0_
  6
CONTINUOUS
 62
    7
 10
2055.5758036758443
 20
2280.5256131516926
 40
449.28755129701273
 50
265.80364542087523
 51
265.91616775833245
  0
LINE
  8
_0-0_
  6
CONTINUOUS
 62
    7
 10
2023.5793490444905
 20
1832.3788396036848
 11
2023.7706141389094
 21
1832.3651837987627
  0
ARC
  8
_0-0_
  6
CONTINUOUS
 62
    7
 10
2040.8455268052874
 20
2071.5187746641536
 40
239.76236707701901
 50
265.91616775833165
 51
266.21866681653557
  0
LINE
  8
_0-0_
  6
CONTINUOUS
 62
    7
 10
2025.0334826339451
 20
1832.2783685336281
 11
2025.4870242412571
 21
1832.2483927446535
  0
ARC
  8
_0-0_
  6
CONTINUOUS
 62
    7
 10
2036.0185437531782
 20
1991.5930655712532
 40
159.69232186127834
 50
266.21866681653364
 51
266.53750035815074
  0
LINE
  8
_0-0_
  6
CONTINUOUS
 62
    7
 10
2026.3738872380472
 20
1832.1922554661876
 11
2026.5455782546303
 21
1832.1818671822098
  0
ARC
  8
_0-0_
  6
CONTINUOUS
 62
    7
 10
2043.8996968637459
 20
2118.9998124989897
 40
287.34247717390974
 50
266.53750035815517
 51
266.64609923033561
  0
ARC
  8
_0-0_
  6
CONTINUOUS
 62
    7
 10
2032.0269760437554
 20
1916.4059706108101
 40
84.401041605216122
 50
266.64609923033254
 51
267.01581815019517
  0
LINE
  8
_0-0_
  6
CONTINUOUS
 62
    7
 10
2027.6330363963093
 20
1832.1193814140702
 11
2027.7236926937276
 21
1832.1146554212969
  0
ARC
  8
_0-0_
  6
CONTINUOUS
 62
    7
 10
2032.0166619708225
 20
1914.4644850316745
 40
82.461651827211981
 50
267.01582180035086
 51
267.26808300577545
  0
ARC
  8
_0-0_
  6
CONTINUOUS
 62
    7
 10
2031.5692284263912
 20
1905.0876909360413
 40
73.074188682752578
 50
267.26808300577221
 51
267.55275077805038
  0
LINE
  8
_0-0_
  6
CONTINUOUS
 62
    7
 10
2028.4489919530383
 20
1832.0801490243127
 11
2028.5421310178908
 21
1832.0761683957414
  0
ARC
  8
_0-0_
  6
CONTINUOUS
 62
    7
 10
2030.4058527802777
 20
1875.6836788653754
 40
43.647318682444158
 50
267.55275077805373
 51
268.27408230787398
  0
LINE
  8
_0-0_
  6
CONTINUOUS
 62
    7
 10
2029.0912657701072
 20
1832.0561612972222
 11
2029.1844393883316
 21
1832.0533537840965
  0
ARC
  8
_0-0_
  6
CONTINUOUS
 62
    7
 10
2031.3892240883367
 20
1905.2240777370885
 40
73.203933769834507
 50
268.27408230787233
 51
268.76156109773285
  0
LINE
  8
_0-0_
  6
CONTINUOUS
 62
    7
 10
2029.8070562390735
 20
1832.0372437826461
 11
2029.8167689943289
 21
1832.0370338103294
  0
ARC
  8
_0-0_
  6
CONTINUOUS
 62
    7
 10
2032.4487523548619
 20
1953.7855128149033
 40
121.77692505699655
 50
268.76156109773024
 51
269.04545929724139
  0
LINE
  8
_0-0_
  6
CONTINUOUS
 62
    7
 10
2030.4200574747165
 20
1832.0254870534877
 11
2030.4297812113825
 21
1832.0253250422309
  0
ARC
  8
_0-0_
  6
CONTINUOUS
 62
    7
 10
2036.8415365059077
 20
2216.85179524053
 40
384.87988096448885
 50
269.04545929723935
 51
269.13239005912806
  0
LINE
  8
_0-0_
  6
CONTINUOUS
 62
    7
 10
2031.0136578692104
 20
1832.0160398826954
 11
2031.0331208201651
 21
1832.0157432658716
  0
LINE
  8
_0-0_
  6
CONTINUOUS
 62
    7
 10
1891.0331164988283
 20
1832.0157432658716
 11
1891.0428552892263
 21
1832.0158899858063
  0
ARC
  8
_0-0_
  6
CONTINUOUS
 62
    7
 10
1885.2263478815894
 20
2218.0966678451618
 40
386.12458972578804
 50
270.86312537448271
 51
270.95266213418154
  0
LINE
  8
_0-0_
  6
CONTINUOUS
 62
    7
 10
1891.6461807196943
 20
1832.0254509210831
 11
1891.7143069763661
 21
1832.0265837669433
  0
ARC
  8
_0-0_
  6
CONTINUOUS
 62
    7
 10
1890.1986262493826
 20
1923.1754839780183
 40
91.161501181993742
 50
270.95266213418574
 51
271.24625668364985
  0
ARC
  8
_0-0_
  6
CONTINUOUS
 62
    7
 10
1889.3221431116103
 20
1963.4648282268704
 40
131.46037812283822
 50
271.24625668365331
 51
271.44985072964874
  0
LINE
  8
_0-0_
  6
CONTINUOUS
 62
    7
 10
1892.6483494500603
 20
1832.04653662485
 11
1892.6977379588209
 21
1832.0477866515312
  0
ARC
  8
_0-0_
  6
CONTINUOUS
 62
    7
 10
1891.6600806491167
 20
1873.0455892636007
 40
41.01093209999749
 50
271.44985072963709
 51
272.24050290152661
  0
LINE
  8
_0-0_
  6
CONTINUOUS
 62
    7
 10
1893.2633697130302
 20
1832.0660087888309
 11
1893.3905215266375
 21
1832.0709834886657
  0
ARC
  8
_0-0_
  6
CONTINUOUS
 62
    7
 10
1890.6797061362117
 20
1901.3585997672435
 40
69.340625102809668
 50
272.2405029015286
 51
272.84050041861735
  0
LINE
  8
_0-0_
  6
CONTINUOUS
 62
    7
 10
1894.1159348493259
 20
1832.1031694972669
 11
1894.138583139443
 21
1832.1042932316009
  0
ARC
  8
_0-0_
  6
CONTINUOUS
 62
    7
 10
1889.5249019802027
 20
1925.0906746654982
 40
93.100768987207772
 50
272.84050041861713
 51
273.25946488283648
  0
ARC
  8
_0-0_
  6
CONTINUOUS
 62
    7
 10
1884.6108221024544
 20
2011.3785315599634
 40
179.52844064672061
 50
273.25946488283807
 51
273.47673430666549
  0
LINE
  8
_0-0_
  6
CONTINUOUS
 62
    7
 10
1895.4980064317645
 20
1832.1805119882542
 11
1895.7090744441248
 21
1832.1933354355338
  0
ARC
  8
_0-0_
  6
CONTINUOUS
 62
    7
 10
1884.5535265665649
 20
2015.8084949139718
 40
183.95372526464581
 50
273.47673430666339
 51
273.82050069578645
  0
LINE
  8
_0-0_
  6
CONTINUOUS
 62
    7
 10
1896.810531441442
 20
1832.2635716111517
 11
1897.033843755423
 21
1832.278484255271
  0
ARC
  8
_0-0_
  6
CONTINUOUS
 62
    7
 10
1876.2174875375488
 20
2143.9970928761477
 40
312.41288649273855
 50
273.8205006957844
 51
273.97334081511468
  0
ARC
  8
_0-0_
  6
CONTINUOUS
 62
    7
 10
1874.2038028885268
 20
2172.9879662038893
 40
341.47361019623355
 50
273.9733408151161
 51
274.11317366322112
  0
LINE
  8
_0-0_
  6
CONTINUOUS
 62
    7
 10
1898.6966046563002
 20
1832.3938835747076
 11
1898.7139686222467
 21
1832.3951322522321
  0
ARC
  8
_0-0_
  6
CONTINUOUS
 62
    7
 10
1864.8472456196209
 20
2303.3418847759713
 40
472.16289417910929
 50
274.11317366321941
 51
274.21852742974357
  0
LINE
  8
_0-0_
  6
CONTINUOUS
 62
    7
 10
1899.5798736910015
 20
1832.4582014879984
 11
1899.5869300051868
 21
1832.4587219654431
  0
ARC
  8
_0-0_
  6
CONTINUOUS
 62
    7
 10
1845.9551972564209
 20
2559.5648829491329
 40
729.08143036157117
 50
274.21852742974352
 51
274.28786802153405
  0
LINE
  8
_0-0_
  6
CONTINUOUS
 62
    7
 10
1900.4668501196963
 20
1832.5241607057437
 11
1900.7035935616041
 21
1832.541911123194
  0
ARC
  8
_0-0_
  6
CONTINUOUS
 62
    7
 10
1679.602606917324
 20
4781.4420558665606
 40
2957.1773213594279
 50
274.28786802153058
 51
274.31416332995622
  0
LINE
  8
_0-0_
  6
CONTINUOUS
 62
    7
 10
1902.0569376061451
 20
1832.6436936993014
 11
1902.5181807853805
 21
1832.6784894127138
  0
ARC
  8
_0-0_
  6
CONTINUOUS
 62
    7
 10
2037.4436955913338
 20
44.139979771132403
 40
1793.6206106689849
 50
94.268821238524708
 51
94.314163329965623
  0
LINE
  8
_0-0_
  6
CONTINUOUS
 62
    7
 10
1903.9336164351653
 20
1832.7847051932308
 11
1904.1578639550196
 21
1832.8014437348213
  0
ARC
  8
_0-0_
  6
CONTINUOUS
 62
    7
 10
1970.4063686504846
 20
945.26516752802468
 40
890.00534040949015
 50
94.20639672697024
 51
94.268821238535622
  0
ARC
  8
_0-0_
  6
CONTINUOUS
 62
    7
 10
1945.818535582287
 20
1279.576744926298
 40
554.79079371213788
 50
94.106254221641407
 51
94.206396726975811
  0
LINE
  8
_0-0_
  6
CONTINUOUS
 62
    7
 10
1906.0920077476476
 20
1832.9433754471017
 11
1906.2601771322963
 21
1832.955448429771
  0
ARC
  8
_0-0_
  6
CONTINUOUS
 62
    7
 10
1925.076344389814
 20
1570.8575596347755
 40
262.77243284076991
 50
93.821298958468972
 51
94.106254221638963
  0
LINE
  8
_0-0_
  6
CONTINUOUS
 62
    7
 10
1907.5639240874484
 20
1833.0457870520456
 11
1907.7318732514836
 21
1833.0570049331038
  0
ARC
  8
_0-0_
  6
CONTINUOUS
 62
    7
 10
1933.4624006713113
 20
1447.8309049286286
 40
386.08445729653522
 50
93.674605142968716
 51
93.821298958467054
  0
LINE
  8
_0-0_
  6
CONTINUOUS
 62
    7
 10
1908.7182470664111
 20
1833.1216198807765
 11
1908.7336583631575
 21
1833.1226096256087
  0
ARC
  8
_0-0_
  6
CONTINUOUS
 62
    7
 10
1950.3492680608767
 20
1185.1267933360775
 40
649.33076078316844
 50
93.590108021064481
 51
93.674605142969384
  0
LINE
  8
_0-0_
  6
CONTINUOUS
 62
    7
 10
1909.6893370363614
 20
1833.1832776862693
 11
1909.7047510712562
 21
1833.1842447834447
  0
ARC
  8
_0-0_
  6
CONTINUOUS
 62
    7
 10
2038.2014552876456
 20
-214.85470380188644
 40
2052.0660169490125
 50
93.564233220918553
 51
93.590108021067053
  0
LINE
  8
_0-0_
  6
CONTINUOUS
 62
    7
 10
1910.6296594656735
 20
1833.2420651101052
 11
1910.6604901643996
 21
1833.2439863784357
  0
LINE
  8
_0-0_
  6
CONTINUOUS
 62
    7
 10
1910.6604901643996
 20
1833.2439863784357
 11
1911.0331197770838
 21
1833.2656359030052
  0
LINE
  8
_0-0_
  6
CONTINUOUS
 62
    7
 10
1911.0331197770838
 20
1855.7656367970749
 11
1910.6604901643996
 21
1855.7872844589992
  0
LINE
  8
_0-0_
  6
CONTINUOUS
 62
    7
 10
1910.6604901643996
 20
1855.7872844589992
 11
1910.6450738594649
 21
1855.7882443303579
  0
ARC
  8
_0-0_
  6
CONTINUOUS
 62
    7
 10
2038.5676741249156
 20
3910.3279455552506
 40
2058.5182961460287
 50
266.41051656699085
 51
266.43717000646325
  0
ARC
  8
_0-0_
  6
CONTINUOUS
 62
    7
 10
1950.2171175672765
 20
2501.9108968928999
 40
647.33283568846991
 50
266.32575864839657
 51
266.41051656699761
  0
LINE
  8
_0-0_
  6
CONTINUOUS
 62
    7
 10
1908.7336565909197
 20
1855.9086348025119
 11
1908.7001245954943
 21
1855.910788081696
  0
ARC
  8
_0-0_
  6
CONTINUOUS
 62
    7
 10
1932.4825590250155
 20
2226.2633593928736
 40
371.11538807249099
 50
266.17875462551081
 51
266.32575864839509
  0
LINE
  8
_0-0_
  6
CONTINUOUS
 62
    7
 10
1907.7499887634158
 20
1855.9730256918028
 11
1907.7454327804551
 21
1855.9733299967179
  0
ARC
  8
_0-0_
  6
CONTINUOUS
 62
    7
 10
1928.9450880356617
 20
2173.3696756156496
 40
318.10354539865165
 50
266.00889733943791
 51
266.17875462550933
  0
ARC
  8
_0-0_
  6
CONTINUOUS
 62
    7
 10
1933.6829872105268
 20
2241.2763278717061
 40
386.17528042293458
 50
265.8689810362157
 51
266.00889733943779
  0
LINE
  8
_0-0_
  6
CONTINUOUS
 62
    7
 10
1905.8639119539882
 20
1856.104358147009
 11
1905.8503555749714
 21
1856.1053372575304
  0
ARC
  8
_0-0_
  6
CONTINUOUS
 62
    7
 10
1946.0775768997614
 20
2413.0756150739057
 40
558.4210953271413
 50
265.76943299971282
 51
265.86898103621786
  0
LINE
  8
_0-0_
  6
CONTINUOUS
 62
    7
 10
1904.8827137818398
 20
1856.1760703092687
 11
1904.6521159682889
 21
1856.1931280451818
  0
ARC
  8
_0-0_
  6
CONTINUOUS
 62
    7
 10
1985.1433510971233
 20
2944.3271527269226
 40
1091.1070041946614
 50
265.69420070340584
 51
265.76943299970588
  0
LINE
  8
_0-0_
  6
CONTINUOUS
 62
    7
 10
1903.223409998767
 20
1856.2997551614517
 11
1901.127990725947
 21
1856.4575238203934
  0
ARC
  8
_0-0_
  6
CONTINUOUS
 62
    7
 10
1792.5876394675188
 20
414.86864659283913
 40
1445.669221778448
 50
85.694200703404974
 51
85.729203274785391
  0
ARC
  8
_0-0_
  6
CONTINUOUS
 62
    7
 10
1849.6138777338465
 20
1178.4988172570356
 40
679.91271387307154
 50
85.729203274791047
 51
85.803592944848447
  0
ARC
  8
_0-0_
  6
CONTINUOUS
 62
    7
 10
1866.4913025628716
 20
1408.519365919281
 40
449.2738180301817
 50
85.803627748134772
 51
85.916153382072395
  0
LINE
  8
_0-0_
  6
CONTINUOUS
 62
    7
 10
1898.4868916085729
 20
1856.6524330422458
 11
1898.2956263347362
 21
1856.6660889082136
  0
ARC
  8
_0-0_
  6
CONTINUOUS
 62
    7
 10
1881.2217672487877
 20
1617.5280993282206
 40
239.74673037279931
 50
85.916153382075294
 51
86.218671989230074
  0
LINE
  8
_0-0_
  6
CONTINUOUS
 62
    7
 10
1897.0327586006574
 20
1856.7529042229448
 11
1896.5792169213671
 21
1856.7828799755516
  0
ARC
  8
_0-0_
  6
CONTINUOUS
 62
    7
 10
1886.0474898182583
 20
1697.4348476241641
 40
159.69568776279843
 50
86.218671989229293
 51
86.537498931447601
  0
LINE
  8
_0-0_
  6
CONTINUOUS
 62
    7
 10
1895.6923535870983
 20
1856.8390172462723
 11
1895.5206628248552
 21
1856.8494055191518
  0
ARC
  8
_0-0_
  6
CONTINUOUS
 62
    7
 10
1878.1659472372307
 20
1570.0217121918213
 40
287.35224344453002
 50
86.537498931447132
 51
86.646094281208448
  0
ARC
  8
_0-0_
  6
CONTINUOUS
 62
    7
 10
1890.0393003189197
 20
1772.6260432190788
 40
84.400299713002639
 50
86.646094281211006
 51
87.015817024448921
  0
LINE
  8
_0-0_
  6
CONTINUOUS
 62
    7
 10
1894.4332029993157
 20
1856.9118914433204
 11
1894.3425465607313
 21
1856.916617445238
  0
ARC
  8
_0-0_
  6
CONTINUOUS
 62
    7
 10
1890.0496670932262
 20
1774.5685417179004
 40
82.45989564702262
 50
87.015820674944493
 51
87.268087642977648
  0
ARC
  8
_0-0_
  6
CONTINUOUS
 62
    7
 10
1890.4971034384528
 20
1783.9454104498145
 40
73.072357817613963
 50
87.268087642979907
 51
87.552762987958388
  0
LINE
  8
_0-0_
  6
CONTINUOUS
 62
    7
 10
1893.617246176907
 20
1856.9511238311457
 11
1893.5241070516749
 21
1856.9551044424129
  0
ARC
  8
_0-0_
  6
CONTINUOUS
 62
    7
 10
1891.6604527048551
 20
1813.3489535413487
 40
43.64595747524411
 50
87.552762987959923
 51
88.274117907145154
  0
LINE
  8
_0-0_
  6
CONTINUOUS
 62
    7
 10
1892.9749716116548
 20
1856.9751113365805
 11
1892.881797932755
 21
1856.977918793591
  0
ARC
  8
_0-0_
  6
CONTINUOUS
 62
    7
 10
1890.6771309442665
 20
1783.809591257007
 40
73.201534895320933
 50
88.274117907145694
 51
88.761612662385915
  0
LINE
  8
_0-0_
  6
CONTINUOUS
 62
    7
 10
1892.2591810822726
 20
1856.9940283211247
 11
1892.249468328258
 21
1856.9942382846693
  0
ARC
  8
_0-0_
  6
CONTINUOUS
 62
    7
 10
1889.6176800878147
 20
1735.2497143772025
 40
121.77296666665525
 50
88.761612662388785
 51
89.045520085973365
  0
LINE
  8
_0-0_
  6
CONTINUOUS
 62
    7
 10
1891.6461798459623
 20
1857.0057844498256
 11
1891.6364561097964
 21
1857.0059464507544
  0
ARC
  8
_0-0_
  6
CONTINUOUS
 62
    7
 10
1885.2253176104523
 20
1472.1919846871428
 40
384.86736399058833
 50
89.045520085970679
 51
89.132453673906937
  0
LINE
  8
_0-0_
  6
CONTINUOUS
 62
    7
 10
1891.0525794498606
 20
1857.0152309762921
 11
1891.0331164988283
 21
1857.0155275715633
  0
LINE
  8
_0-0_
  6
CONTINUOUS
 62
    7
 10
1809.0331142338518
 20
1844.51563635004
 11
1809.0331142338518
 21
1857.015635604982
  0
LINE
  8
_0-0_
  6
CONTINUOUS
 62
    7
 10
1809.0331142338518
 20
1832.0156370950981
 11
1809.0331142338518
 21
1844.51563635004
  0
LINE
  8
_0-0_
  6
CONTINUOUS
 62
    7
 10
1811.0331182869677
 20
1844.51563635004
 11
1811.0331182869677
 21
1857.015635604982
  0
LINE
  8
_0-0_
  6
CONTINUOUS
 62
    7
 10
1811.0331182869677
 20
1832.0156370950981
 11
1811.0331182869677
 21
1844.51563635004
  0
LINE
  8
_0-0_
  6
CONTINUOUS
 62
    7
 10
2111.0331153067355
 20
1857.015635604982
 11
2111.0331153067355
 21
1832.0156370950981
  0
LINE
  8
_0-0_
  6
CONTINUOUS
 62
    7
 10
2113.0331193598513
 20
1857.015635604982
 11
2113.0331193598513
 21
1832.0156370950981
  0
LINE
  8
_0-0_
  6
CONTINUOUS
 62
    7
 10
1961.0331195908193
 20
1849.9642608417316
 11
2031.0331208201651
 21
1849.9642608417316
  0
LINE
  8
_0-0_
  6
CONTINUOUS
 62
    7
 10
2031.0331208201651
 20
1849.9642608417316
 11
2031.0331208201651
 21
1839.0670137209936
  0
LINE
  8
_0-0_
  6
CONTINUOUS
 62
    7
 10
1961.0331195908193
 20
1839.0670118583485
 11
2031.0331208201651
 21
1839.0670118583485
  0
LINE
  8
_0-0_
  6
CONTINUOUS
 62
    7
 10
1961.0331195908193
 20
1839.0670118583485
 11
1891.0331164988283
 21
1839.0670118583485
  0
LINE
  8
_0-0_
  6
CONTINUOUS
 62
    7
 10
1891.0331164988283
 20
1849.9642608417316
 11
1891.0331164988283
 21
1839.0670137209936
  0
LINE
  8
_0-0_
  6
CONTINUOUS
 62
    7
 10
1961.0331195908193
 20
1849.9642608417316
 11
1891.0331164988283
 21
1849.9642608417316
  0
LINE
  8
_0-0_
  6
CONTINUOUS
 62
    7
 10
2031.0331208201651
 20
1839.0670137209936
 11
2031.0331208201651
 21
1833.2656359030052
  0
LINE
  8
_0-0_
  6
CONTINUOUS
 62
    7
 10
2031.0331208201651
 20
1855.7656367970749
 11
2031.0331208201651
 21
1849.9642608417316
  0
LINE
  8
_0-0_
  6
CONTINUOUS
 62
    7
 10
1811.0331182869677
 20
1857.015635604982
 11
1811.0331182869677
 21
1832.0156370950981
  0
LINE
  8
_0-0_
  6
CONTINUOUS
 62
    7
 10
1891.0331164988283
 20
1855.7656367970749
 11
1891.0331164988283
 21
1849.9642608417316
  0
LINE
  8
_0-0_
  6
CONTINUOUS
 62
    7
 10
1891.0331164988283
 20
1839.0670137209936
 11
1891.0331164988283
 21
1833.2656359030052
  0
LINE
  8
_0-0_
  6
CONTINUOUS
 62
    7
 10
1961.0331195908193
 20
1833.2656359030052
 11
1891.0331164988283
 21
1833.2656359030052
  0
LINE
  8
_0-0_
  6
CONTINUOUS
 62
    7
 10
1961.0331195908193
 20
1839.0670118583485
 11
1961.0331195908193
 21
1833.2656359030052
  0
LINE
  8
_0-0_
  6
CONTINUOUS
 62
    7
 10
2031.0331208201651
 20
1855.7656367970749
 11
1961.0331195908193
 21
1855.7656367970749
  0
LINE
  8
_0-0_
  6
CONTINUOUS
 62
    7
 10
1961.0331195908193
 20
1855.7656367970749
 11
1961.0331195908193
 21
1849.9642608417316
  0
LINE
  8
_0-0_
  6
CONTINUOUS
 62
    7
 10
1891.0331164988283
 20
1855.7656367970749
 11
1961.0331195908193
 21
1855.7656367970749
  0
LINE
  8
_0-0_
  6
CONTINUOUS
 62
    7
 10
1961.0331195908193
 20
1833.2656359030052
 11
2031.0331208201651
 21
1833.2656359030052
  0
LINE
  8
_0-0_
  6
CONTINUOUS
 62
    8
 10
2031.0331208201651
 20
1833.2656359030052
 11
2031.0331208201651
 21
1832.0156370950981
  0
LINE
  8
_0-0_
  6
CONTINUOUS
 62
    8
 10
2031.0331208201651
 20
1857.015635604982
 11
2031.0331208201651
 21
1855.7656367970749
  0
LINE
  8
_0-0_
  6
CONTINUOUS
 62
    8
 10
1891.0331164988283
 20
1857.015635604982
 11
1891.0331164988283
 21
1855.7656367970749
  0
LINE
  8
_0-0_
  6
CONTINUOUS
 62
    8
 10
1891.0331164988283
 20
1833.2656359030052
 11
1891.0331164988283
 21
1832.0156370950981
  0
LINE
  8
_0-0_
  6
CONTINUOUS
 62
    8
 10
1891.0331164988283
 20
1833.2656359030052
 11
1891.0331164988283
 21
1833.2842753930136
  0
LINE
  8
_0-0_
  6
CONTINUOUS
 62
    8
 10
2031.0331208201651
 20
1855.7469954444214
 11
2031.0331208201651
 21
1855.7656367970749
  0
LINE
  8
_0-0_
  6
CONTINUOUS
 62
    7
 10
1809.0331196049735
 20
1605.3759314760014
 11
1811.0331196049733
 21
1605.3759314760014
  0
LINE
  8
_0-0_
  6
CONTINUOUS
 62
    7
 10
1811.0331196049733
 20
1630.3759314760014
 11
1809.0331196049735
 21
1630.3759314760014
  0
LINE
  8
_0-0_
  6
CONTINUOUS
 62
    7
 10
2113.0331196049738
 20
1630.3759314760014
 11
2111.0331196049738
 21
1630.3759314760014
  0
LINE
  8
_0-0_
  6
CONTINUOUS
 62
    7
 10
2111.0331196049738
 20
1605.3759314760014
 11
2113.0331196049738
 21
1605.3759314760014
  0
LINE
  8
_0-0_
  6
CONTINUOUS
 62
    7
 10
1817.0331196049733
 20
1630.3759314760014
 11
1811.0331196049733
 21
1630.3759314760014
  0
LINE
  8
_0-0_
  6
CONTINUOUS
 62
    7
 10
1891.0331196049733
 20
1630.3759314760014
 11
1855.0331196049733
 21
1630.3759314760014
  0
LINE
  8
_0-0_
  6
CONTINUOUS
 62
    7
 10
1811.0331196049733
 20
1605.3759314760014
 11
1891.0331196049733
 21
1605.3759314760014
  0
LINE
  8
_0-0_
  6
CONTINUOUS
 62
    7
 10
2031.0331196049733
 20
1605.3759314760014
 11
2111.0331196049738
 21
1605.3759314760014
  0
LINE
  8
_0-0_
  6
CONTINUOUS
 62
    7
 10
2067.0331196049738
 20
1630.3759314760014
 11
2031.0331196049733
 21
1630.3759314760014
  0
LINE
  8
_0-0_
  6
CONTINUOUS
 62
    7
 10
2111.0331196049738
 20
1630.3759314760014
 11
2105.0331196049733
 21
1630.3759314760014
  0
LINE
  8
_0-0_
  6
CONTINUOUS
 62
    7
 10
2031.0331196049733
 20
1630.3758306430132
 11
2031.0233812669467
 21
1630.3756731598878
  0
ARC
  8
_0-0_
  6
CONTINUOUS
 62
    7
 10
2037.3904933922997
 20
1236.6503773767599
 40
393.776775161167
 50
90.926475540835938
 51
91.014272412596327
  0
LINE
  8
_0-0_
  6
CONTINUOUS
 62
    7
 10
2030.4200661926313
 20
1630.3654543054733
 11
2030.3519415168312
 21
1630.3642482096921
  0
ARC
  8
_0-0_
  6
CONTINUOUS
 62
    7
 10
2031.9976249564493
 20
1537.4100628389237
 40
92.968752018765201
 50
91.014272412593286
 51
91.302160361559885
  0
ARC
  8
_0-0_
  6
CONTINUOUS
 62
    7
 10
2032.9315505538243
 20
1496.3238929244585
 40
134.06553504690169
 50
91.302160361559316
 51
91.501798639648214
  0
LINE
  8
_0-0_
  6
CONTINUOUS
 62
    7
 10
2029.4179168070164
 20
1630.3433768262603
 11
2029.3685287548558
 21
1630.342082003137
  0
ARC
  8
_0-0_
  6
CONTINUOUS
 62
    7
 10
2030.4646819370801
 20
1588.5318381516349
 40
41.824610490964844
 50
91.501798639648982
 51
92.27707288828141
  0
LINE
  8
_0-0_
  6
CONTINUOUS
 62
    7
 10
2028.802908265151
 20
1630.3234228426254
 11
2028.6757583813737
 21
1630.3183669364944
  0
ARC
  8
_0-0_
  6
CONTINUOUS
 62
    7
 10
2031.4862859559362
 20
1559.6370201666218
 40
70.7372027044498
 50
92.277072888281893
 51
92.865226412073767
  0
LINE
  8
_0-0_
  6
CONTINUOUS
 62
    7
 10
2027.9503599455395
 20
1630.2857927936066
 11
2027.9277114737431
 21
1630.2846592520382
  0
ARC
  8
_0-0_
  6
CONTINUOUS
 62
    7
 10
2032.6782441940513
 20
1535.3677110389795
 40
95.035754425412108
 50
92.865226412074477
 51
93.275661006800632
  0
ARC
  8
_0-0_
  6
CONTINUOUS
 62
    7
 10
2037.7338003249622
 20
1447.0355026059894
 40
183.51251801022011
 50
93.275661006800661
 51
93.488213718954952
  0
LINE
  8
_0-0_
  6
CONTINUOUS
 62
    7
 10
2026.5683091909723
 20
1630.2080335001933
 11
2026.3572469882365
 21
1630.1951679622118
  0
ARC
  8
_0-0_
  6
CONTINUOUS
 62
    7
 10
2037.8268921842198
 20
1442.0329175251311
 40
188.5114989873789
 50
93.488213718954896
 51
93.823666921168922
  0
LINE
  8
_0-0_
  6
CONTINUOUS
 62
    7
 10
2025.2558045046294
 20
1630.1247913661359
 11
2025.0324951255398
 21
1630.1098665226175
  0
ARC
  8
_0-0_
  6
CONTINUOUS
 62
    7
 10
2046.4173743641006
 20
1310.1437577528338
 40
320.67993984863563
 50
93.823666921171082
 51
93.972565667172944
  0
ARC
  8
_0-0_
  6
CONTINUOUS
 62
    7
 10
2048.5229767734559
 20
1279.8236169558941
 40
351.07310518975402
 50
93.972565667176454
 51
94.108573936272137
  0
LINE
  8
_0-0_
  6
CONTINUOUS
 62
    7
 10
2023.3697459307903
 20
1629.9944897676569
 11
2023.3523834510179
 21
1629.9932425980728
  0
ARC
  8
_0-0_
  6
CONTINUOUS
 62
    7
 10
2058.2781777320656
 20
1143.7735619718442
 40
487.47244941066526
 50
94.108573936272123
 51
94.210617804816607
  0
LINE
  8
_0-0_
  6
CONTINUOUS
 62
    7
 10
2022.4864813260399
 20
1629.9302686033711
 11
2022.4794257301417
 21
1629.9297491582149
  0
ARC
  8
_0-0_
  6
CONTINUOUS
 62
    7
 10
2078.1976236331598
 20
873.11243363681217
 40
758.86557877570317
 50
94.210617804818057
 51
94.277236035131637
  0
LINE
  8
_0-0_
  6
CONTINUOUS
 62
    7
 10
2021.5995064515666
 20
1629.8644536420989
 11
2021.3627631997965
 21
1629.8467474160805
  0
ARC
  8
_0-0_
  6
CONTINUOUS
 62
    7
 10
2277.8987339120417
 20
-1800.1986976879612
 40
3439.6253371186026
 50
94.277236035138671
 51
94.299842809475251
  0
LINE
  8
_0-0_
  6
CONTINUOUS
 62
    7
 10
2020.0094153988698
 20
1629.7452609132683
 11
2019.5481713649112
 21
1629.7105810727162
  0
ARC
  8
_0-0_
  6
CONTINUOUS
 62
    7
 10
1891.7634830955012
 20
3329.2548741736646
 40
1704.3414360884708
 50
274.25212612181667
 51
274.29984280948162
  0
LINE
  8
_0-0_
  6
CONTINUOUS
 62
    7
 10
2018.1327241095455
 20
1629.604749679318
 11
2017.9084761971083
 21
1629.5880768134821
  0
ARC
  8
_0-0_
  6
CONTINUOUS
 62
    7
 10
1952.6387650613001
 20
2507.4573412590744
 40
880.29232681535814
 50
274.1890133582649
 51
274.25212612182196
  0
ARC
  8
_0-0_
  6
CONTINUOUS
 62
    7
 10
1976.5609043519501
 20
2180.8423511472374
 40
552.80244832443941
 50
274.08851150082501
 51
274.18901335826854
  0
LINE
  8
_0-0_
  6
CONTINUOUS
 62
    7
 10
2015.9743059069456
 20
1629.4467303345955
 11
2015.8061335613511
 21
1629.4347094843438
  0
ARC
  8
_0-0_
  6
CONTINUOUS
 62
    7
 10
1997.0397945677705
 20
1891.9768076411215
 40
263.2119465065847
 50
273.8040341669211
 51
274.08851150082569
  0
LINE
  8
_0-0_
  6
CONTINUOUS
 62
    7
 10
2014.5023687271532
 20
1629.3447698248769
 11
2014.3344169886709
 21
1629.3336026050933
  0
ARC
  8
_0-0_
  6
CONTINUOUS
 62
    7
 10
1988.6523670576353
 20
2015.5841660743272
 40
387.10342993696213
 50
273.65772669845239
 51
273.80403416692201
  0
LINE
  8
_0-0_
  6
CONTINUOUS
 62
    7
 10
2013.3480253443877
 20
1629.2692816461647
 11
2013.3326137800418
 21
1629.2682964427927
  0
ARC
  8
_0-0_
  6
CONTINUOUS
 62
    7
 10
1971.8047143992817
 20
2278.8904066751911
 40
650.94811815518233
 50
273.57343963746382
 51
273.65772669845342
  0
LINE
  8
_0-0_
  6
CONTINUOUS
 62
    7
 10
2012.3769187229623
 20
1629.2079082453115
 11
2012.3615044308119
 21
1629.2069456338636
  0
ARC
  8
_0-0_
  6
CONTINUOUS
 62
    7
 10
1884.1418853412986
 20
3682.3870443335732
 40
2057.1798143127908
 50
273.54762919365066
 51
273.5734396374657
  0
LINE
  8
_0-0_
  6
CONTINUOUS
 62
    7
 10
2011.4365805770231
 20
1629.1493939431336
 11
2011.4057493662467
 21
1629.1474816143632
  0
LINE
  8
_0-0_
  6
CONTINUOUS
 62
    7
 10
2011.4057492743855
 20
1606.604281682467
 11
2011.4211655882409
 21
1606.6033218095749
  0
ARC
  8
_0-0_
  6
CONTINUOUS
 62
    7
 10
1883.482579076544
 20
-448.19103612695983
 40
2058.7734541047553
 50
86.41051623059478
 51
86.437166382857853
  0
ARC
  8
_0-0_
  6
CONTINUOUS
 62
    7
 10
1971.8441476755897
 20
960.40142573018284
 40
647.41223513703505
 50
86.325768655496987
 51
86.410516230589579
  0
LINE
  8
_0-0_
  6
CONTINUOUS
 62
    7
 10
2013.3325840170971
 20
1606.4829313121554
 11
2013.3661160937652
 21
1606.480778033635
  0
ARC
  8
_0-0_
  6
CONTINUOUS
 62
    7
 10
1989.580705120344
 20
1236.080842830245
 40
371.16284535746593
 50
86.178783358018308
 51
86.325768655494684
  0
LINE
  8
_0-0_
  6
CONTINUOUS
 62
    7
 10
2014.3162524038776
 20
1606.4185407148034
 11
2014.3208084915605
 21
1606.4182364051881
  0
ARC
  8
_0-0_
  6
CONTINUOUS
 62
    7
 10
1993.1189085304563
 20
1288.9858896544929
 40
318.13961608956225
 50
86.008945285657077
 51
86.17878335801872
  0
ARC
  8
_0-0_
  6
CONTINUOUS
 62
    7
 10
1988.3828173528691
 20
1221.1043326673437
 40
386.18619086480004
 50
85.869032898497238
 51
86.008945285658314
  0
LINE
  8
_0-0_
  6
CONTINUOUS
 62
    7
 10
2016.2023299145765
 20
1606.2872096692854
 11
2016.2158862608292
 21
1606.2862305734648
  0
ARC
  8
_0-0_
  6
CONTINUOUS
 62
    7
 10
1975.9952885257144
 20
1049.4006447458473
 40
558.33614622800371
 50
85.769469697539179
 51
85.869032898501501
  0
LINE
  8
_0-0_
  6
CONTINUOUS
 62
    7
 10
2017.1835282887255
 20
1606.2154982563868
 11
2017.4141257942963
 21
1606.1984406917611
  0
ARC
  8
_0-0_
  6
CONTINUOUS
 62
    7
 10
1936.9821412757244
 20
518.85593868137209
 40
1090.3132672823026
 50
85.694182657029586
 51
85.769469697543443
  0
LINE
  8
_0-0_
  6
CONTINUOUS
 62
    7
 10
2018.8428313231364
 20
1606.091813842218
 11
2020.9382483064728
 21
1605.9340446919241
  0
ARC
  8
_0-0_
  6
CONTINUOUS
 62
    7
 10
2129.4192830728389
 20
3046.7290429277541
 40
1444.8731300170834
 50
265.69418265702524
 51
265.72920452837394
  0
ARC
  8
_0-0_
  6
CONTINUOUS
 62
    7
 10
2072.4526958254464
 20
2283.8974257521563
 40
679.9174004318013
 50
265.72920452837332
 51
265.8035937171316
  0
ARC
  8
_0-0_
  6
CONTINUOUS
 62
    7
 10
2055.5802522761533
 20
2053.9447255057075
 40
449.34653561613464
 50
265.80362851924338
 51
265.91613599222876
  0
LINE
  8
_0-0_
  6
CONTINUOUS
 62
    7
 10
2023.5793485229915
 20
1605.7391351465481
 11
2023.7706136494162
 21
1605.7254792327581
  0
ARC
  8
_0-0_
  6
CONTINUOUS
 62
    7
 10
2040.8457289427793
 20
1844.8800415396754
 40
239.76335048229313
 50
265.9161359922291
 51
266.21863365247077
  0
LINE
  8
_0-0_
  6
CONTINUOUS
 62
    7
 10
2025.0334814388184
 20
1605.6386632971805
 11
2025.4870229267999
 21
1605.6086872524265
  0
ARC
  8
_0-0_
  6
CONTINUOUS
 62
    7
 10
2036.0173614476007
 20
1764.9340899471338
 40
159.67301579538486
 50
266.21863365247145
 51
266.53750574750723
  0
LINE
  8
_0-0_
  6
CONTINUOUS
 62
    7
 10
2026.3738859187511
 20
1605.5525497584476
 11
2026.5455767206977
 21
1605.5421615036653
  0
ARC
  8
_0-0_
  6
CONTINUOUS
 62
    7
 10
2043.897494142866
 20
1892.3241744509774
 40
287.30647745628369
 50
266.53750574750666
 51
266.64611831527282
  0
ARC
  8
_0-0_
  6
CONTINUOUS
 62
    7
 10
2032.0267824078996
 20
1689.7634599235607
 40
84.39823004639598
 50
266.64611831527407
 51
267.01584985156308
  0
LINE
  8
_0-0_
  6
CONTINUOUS
 62
    7
 10
2027.6330357645668
 20
1605.4796760419708
 11
2027.7236921376898
 21
1605.4749500955472
  0
ARC
  8
_0-0_
  6
CONTINUOUS
 62
    7
 10
2032.016596600552
 20
1687.8244127990342
 40
82.461282043637198
 50
267.01585350159917
 51
267.26811604389252
  0
ARC
  8
_0-0_
  6
CONTINUOUS
 62
    7
 10
2031.5692004371456
 20
1678.4482885306841
 40
73.074489746873823
 50
267.26811604389474
 51
267.55278287542069
  0
LINE
  8
_0-0_
  6
CONTINUOUS
 62
    7
 10
2028.4489920078281
 20
1605.4404440814494
 11
2028.5421310634797
 21
1605.436463505544
  0
ARC
  8
_0-0_
  6
CONTINUOUS
 62
    7
 10
2030.4058635985314
 20
1649.0447986844852
 40
43.648143099576224
 50
267.55278287541728
 51
268.27410113970535
  0
LINE
  8
_0-0_
  6
CONTINUOUS
 62
    7
 10
2029.0912660978961
 20
1605.4164566411248
 11
2029.1844397061448
 21
1605.413649158952
  0
ARC
  8
_0-0_
  6
CONTINUOUS
 62
    7
 10
2031.389248553061
 20
1678.585973362425
 40
73.20553402161309
 50
268.27410113970677
 51
268.76156886891613
  0
LINE
  8
_0-0_
  6
CONTINUOUS
 62
    7
 10
2029.8070560440581
 20
1605.3975393154114
 11
2029.8167687923058
 21
1605.3973293445642
  0
ARC
  8
_0-0_
  6
CONTINUOUS
 62
    7
 10
2032.4487918053921
 20
1727.1484067939859
 40
121.77952375188781
 50
268.76156886891636
 51
269.04546077363068
  0
LINE
  8
_0-0_
  6
CONTINUOUS
 62
    7
 10
2030.420056770871
 20
1605.3857826460307
 11
2030.4297804998446
 21
1605.3856206351525
  0
ARC
  8
_0-0_
  6
CONTINUOUS
 62
    7
 10
2036.8416630137503
 20
1990.2203217359695
 40
384.8881128441451
 50
269.04546077363204
 51
269.13238960369307
  0
LINE
  8
_0-0_
  6
CONTINUOUS
 62
    7
 10
2031.0136566702806
 20
1605.3763354885712
 11
2031.0331196049733
 21
1605.376038871882
  0
LINE
  8
_0-0_
  6
CONTINUOUS
 62
    7
 10
1891.0331196049733
 20
1605.376038871882
 11
1891.0428583869057
 21
1605.3761855915116
  0
ARC
  8
_0-0_
  6
CONTINUOUS
 62
    7
 10
1885.2262587634395
 20
1991.4635522463868
 40
386.13117916282795
 50
270.86312432881948
 51
270.95265948596057
  0
LINE
  8
_0-0_
  6
CONTINUOUS
 62
    7
 10
1891.6461833150811
 20
1605.3857464993753
 11
1891.7143095145702
 21
1605.3868793411345
  0
ARC
  8
_0-0_
  6
CONTINUOUS
 62
    7
 10
1890.1986071109311
 20
1696.5373365550727
 40
91.163058330040116
 50
270.95265948596261
 51
271.24624877662774
  0
ARC
  8
_0-0_
  6
CONTINUOUS
 62
    7
 10
1889.3221131907374
 20
1736.827432146561
 40
131.46268667030435
 50
271.24624877662524
 51
271.44983907824366
  0
LINE
  8
_0-0_
  6
CONTINUOUS
 62
    7
 10
1892.6483512148961
 20
1605.4068320597355
 11
1892.6977396909367
 21
1605.4080820755389
  0
ARC
  8
_0-0_
  6
CONTINUOUS
 62
    7
 10
1891.6600732438451
 20
1646.4065753212044
 40
41.011622743684185
 50
271.4498390782415
 51
272.24047730137994
  0
LINE
  8
_0-0_
  6
CONTINUOUS
 62
    7
 10
1893.2633709976467
 20
1605.4263040143553
 11
1893.3905227163723
 21
1605.4312786535786
  0
ARC
  8
_0-0_
  6
CONTINUOUS
 62
    7
 10
1890.6797269627968
 20
1674.7191855166227
 40
69.340914697452945
 50
272.2404773013767
 51
272.84047187326951
  0
LINE
  8
_0-0_
  6
CONTINUOUS
 62
    7
 10
1894.1159355230855
 20
1605.4634642958479
 11
1894.138583798125
 21
1605.4645880181226
  0
ARC
  8
_0-0_
  6
CONTINUOUS
 62
    7
 10
1889.5250471590621
 20
1698.4489926928272
 40
93.098787494946947
 50
272.84047187327155
 51
273.25944494653373
  0
ARC
  8
_0-0_
  6
CONTINUOUS
 62
    7
 10
1884.6119236428183
 20
1784.720585352939
 40
179.51016685436994
 50
273.25944494653481
 51
273.47673632817413
  0
LINE
  8
_0-0_
  6
CONTINUOUS
 62
    7
 10
1895.4980061121726
 20
1605.5408063248519
 11
1895.7090741583461
 21
1605.5536297816604
  0
ARC
  8
_0-0_
  6
CONTINUOUS
 62
    7
 10
1884.5545610617662
 20
1789.1516502299442
 40
183.93655502631927
 50
273.47673632817555
 51
273.82053467273505
  0
LINE
  8
_0-0_
  6
CONTINUOUS
 62
    7
 10
1896.8105307017117
 20
1605.6238662757562
 11
1897.0338429384301
 21
1605.6387790477329
  0
ARC
  8
_0-0_
  6
CONTINUOUS
 62
    7
 10
1876.216991067452
 20
1917.3620294325924
 40
312.41755096716292
 50
273.82053467273624
 51
273.97337250572156
  0
ARC
  8
_0-0_
  6
CONTINUOUS
 62
    7
 10
1874.2016045585262
 20
1946.3771721524472
 40
341.50260365465044
 50
273.97337250572167
 51
274.11319347804448
  0
LINE
  8
_0-0_
  6
CONTINUOUS
 62
    7
 10
1898.696603732632
 20
1605.7541792139705
 11
1898.7139678431606
 21
1605.7554279079277
  0
ARC
  8
_0-0_
  6
CONTINUOUS
 62
    7
 10
1864.8426621569217
 20
2076.7636298501679
 40
472.22451402458228
 50
274.11319347804749
 51
274.21853352949421
  0
LINE
  8
_0-0_
  6
CONTINUOUS
 62
    7
 10
1899.5798731637883
 20
1605.8184973589005
 11
1899.5869295363668
 21
1605.8190178414077
  0
ARC
  8
_0-0_
  6
CONTINUOUS
 62
    7
 10
1845.9423781521818
 20
2333.09791061341
 40
729.25463712264491
 50
274.21853352949393
 51
274.28785768222883
  0
LINE
  8
_0-0_
  6
CONTINUOUS
 62
    7
 10
1900.4668500362686
 20
1605.8844565776353
 11
1900.7035931344658
 21
1605.9022069263533
  0
ARC
  8
_0-0_
  6
CONTINUOUS
 62
    7
 10
1679.3941303232143
 20
4557.5900142644068
 40
2959.9727685095236
 50
274.28785768222798
 51
274.31412815089629
  0
LINE
  8
_0-0_
  6
CONTINUOUS
 62
    7
 10
1902.0569369086193
 20
1606.0039889415054
 11
1902.5181792082969
 21
1606.0387843037552
  0
ARC
  8
_0-0_
  6
CONTINUOUS
 62
    7
 10
2037.5476096557368
 20
-183.89185578632862
 40
1795.0166136892037
 50
94.268821350821739
 51
94.31412815089962
  0
LINE
  8
_0-0_
  6
CONTINUOUS
 62
    7
 10
1903.9336140049977
 20
1606.1449995846726
 11
1904.157860961087
 21
1606.1617380846235
  0
ARC
  8
_0-0_
  6
CONTINUOUS
 62
    7
 10
1970.4344515002267
 20
718.24921712822641
 40
890.38263197607148
 50
94.206423275478613
 51
94.268821350824922
  0
ARC
  8
_0-0_
  6
CONTINUOUS
 62
    7
 10
1945.8226033579331
 20
1052.8851988636277
 40
554.84279329667515
 50
94.106290130419239
 51
94.206423275480887
  0
LINE
  8
_0-0_
  6
CONTINUOUS
 62
    7
 10
1906.0920051823587
 20
1606.3036705845025
 11
1906.260174642417
 21
1606.3157436785252
  0
ARC
  8
_0-0_
  6
CONTINUOUS
 62
    7
 10
1925.0747411038269
 20
1344.2424526811612
 40
262.74778355929033
 50
93.821308045587827
 51
94.106290130418344
  0
LINE
  8
_0-0_
  6
CONTINUOUS
 62
    7
 10
1907.5639219690879
 20
1606.4060828409338
 11
1907.7318712039255
 21
1606.4173007534771
  0
ARC
  8
_0-0_
  6
CONTINUOUS
 62
    7
 10
1933.4591619151943
 20
1221.2405780001934
 40
386.03497411284116
 50
93.674595337414189
 51
93.821308045586534
  0
LINE
  8
_0-0_
  6
CONTINUOUS
 62
    7
 10
1908.7182456175299
 20
1606.4819157341572
 11
1908.7336569230893
 21
1606.482905476907
  0
ARC
  8
_0-0_
  6
CONTINUOUS
 62
    7
 10
1950.344041662647
 20
958.56671321314434
 40
649.25096558707298
 50
93.590087779123522
 51
93.674595337412555
  0
LINE
  8
_0-0_
  6
CONTINUOUS
 62
    7
 10
1909.6893361933928
 20
1606.5435733238701
 11
1909.7047502377748
 21
1606.5445404161737
  0
ARC
  8
_0-0_
  6
CONTINUOUS
 62
    7
 10
2038.1849349686538
 20
-441.24268931042991
 40
2051.8137576543927
 50
93.564209782061567
 51
93.590087779128936
  0
LINE
  8
_0-0_
  6
CONTINUOUS
 62
    7
 10
1910.6296592172785
 20
1606.6023604254701
 11
1910.6604899355614
 21
1606.604281682467
  0
LINE
  8
_0-0_
  6
CONTINUOUS
 62
    7
 10
2091.0331196049733
 20
1681.3759314760018
 11
2091.0331196049733
 21
1680.3759314760014
  0
LINE
  8
_0-0_
  6
CONTINUOUS
 62
    7
 10
2092.0331196049738
 20
1681.3759314760018
 11
2092.0331196049738
 21
1680.3759314760014
  0
LINE
  8
_0-0_
  6
CONTINUOUS
 62
    7
 10
2091.0331196049733
 20
1681.3759314760018
 11
2092.0331196049738
 21
1681.3759314760018
  0
LINE
  8
_0-0_
  6
CONTINUOUS
 62
    7
 10
2101.2831196049733
 20
1680.3759314760014
 11
2101.2831196049733
 21
1681.3759314760018
  0
LINE
  8
_0-0_
  6
CONTINUOUS
 62
    7
 10
2101.2831196049733
 20
1681.3759314760018
 11
2092.0331196049738
 21
1681.3759314760018
  0
LINE
  8
_0-0_
  6
CONTINUOUS
 62
    7
 10
2080.0331196049733
 20
1680.3759314760014
 11
2080.0331196049733
 21
1681.3759314760018
  0
LINE
  8
_0-0_
  6
CONTINUOUS
 62
    7
 10
2081.0331196049733
 20
1680.3759314760014
 11
2081.0331196049733
 21
1681.3759314760018
  0
LINE
  8
_0-0_
  6
CONTINUOUS
 62
    7
 10
2080.0331196049733
 20
1681.3759314760018
 11
2081.0331196049733
 21
1681.3759314760018
  0
LINE
  8
_0-0_
  6
CONTINUOUS
 62
    7
 10
2102.2831196049733
 20
1681.3759314760018
 11
2102.2831196049733
 21
1680.3759314760014
  0
LINE
  8
_0-0_
  6
CONTINUOUS
 62
    7
 10
2101.2831196049733
 20
1681.3759314760018
 11
2102.2831196049733
 21
1681.3759314760018
  0
LINE
  8
_0-0_
  6
CONTINUOUS
 62
    7
 10
2070.7831196049738
 20
1681.3759314760018
 11
2070.7831196049738
 21
1680.3759314760014
  0
LINE
  8
_0-0_
  6
CONTINUOUS
 62
    7
 10
2080.0331196049733
 20
1681.3759314760018
 11
2070.7831196049738
 21
1681.3759314760018
  0
LINE
  8
_0-0_
  6
CONTINUOUS
 62
    7
 10
2069.7831196049733
 20
1680.3759314760014
 11
2069.7831196049733
 21
1681.3759314760018
  0
LINE
  8
_0-0_
  6
CONTINUOUS
 62
    7
 10
2069.7831196049733
 20
1681.3759314760018
 11
2070.7831196049738
 21
1681.3759314760018
  0
LINE
  8
_0-0_
  6
CONTINUOUS
 62
    7
 10
2082.0331196049738
 20
1681.3759314760018
 11
2082.0331196049738
 21
1680.3759314760014
  0
LINE
  8
_0-0_
  6
CONTINUOUS
 62
    7
 10
2081.0331196049733
 20
1681.3759314760018
 11
2082.0331196049738
 21
1681.3759314760018
  0
LINE
  8
_0-0_
  6
CONTINUOUS
 62
    7
 10
2090.0331196049733
 20
1680.3759314760014
 11
2090.0331196049733
 21
1681.3759314760018
  0
LINE
  8
_0-0_
  6
CONTINUOUS
 62
    7
 10
2090.0331196049733
 20
1681.3759314760018
 11
2091.0331196049733
 21
1681.3759314760018
  0
LINE
  8
_0-0_
  6
CONTINUOUS
 62
    7
 10
2090.0331196049733
 20
1681.3759314760018
 11
2082.0331196049738
 21
1681.3759314760018
  0
LINE
  8
_0-0_
  6
CONTINUOUS
 62
    7
 10
1841.0331196049733
 20
1681.3759314760018
 11
1841.0331196049733
 21
1680.3759314760014
  0
LINE
  8
_0-0_
  6
CONTINUOUS
 62
    7
 10
1841.0331196049733
 20
1681.3759314760018
 11
1842.0331196049733
 21
1681.3759314760018
  0
LINE
  8
_0-0_
  6
CONTINUOUS
 62
    7
 10
1842.0331196049733
 20
1681.3759314760018
 11
1842.0331196049733
 21
1680.3759314760014
  0
LINE
  8
_0-0_
  6
CONTINUOUS
 62
    7
 10
1851.2831196049733
 20
1680.3759314760014
 11
1851.2831196049733
 21
1681.3759314760018
  0
LINE
  8
_0-0_
  6
CONTINUOUS
 62
    7
 10
1851.2831196049733
 20
1681.3759314760018
 11
1852.2831196049733
 21
1681.3759314760018
  0
LINE
  8
_0-0_
  6
CONTINUOUS
 62
    7
 10
1852.2831196049733
 20
1681.3759314760018
 11
1852.2831196049733
 21
1680.3759314760014
  0
LINE
  8
_0-0_
  6
CONTINUOUS
 62
    7
 10
1820.7831196049733
 20
1681.3759314760018
 11
1820.7831196049733
 21
1680.3759314760014
  0
LINE
  8
_0-0_
  6
CONTINUOUS
 62
    7
 10
1830.0331196049733
 20
1681.3759314760018
 11
1820.7831196049733
 21
1681.3759314760018
  0
LINE
  8
_0-0_
  6
CONTINUOUS
 62
    7
 10
1830.0331196049733
 20
1680.3759314760014
 11
1830.0331196049733
 21
1681.3759314760018
  0
LINE
  8
_0-0_
  6
CONTINUOUS
 62
    7
 10
1831.0331196049733
 20
1680.3759314760014
 11
1831.0331196049733
 21
1681.3759314760018
  0
LINE
  8
_0-0_
  6
CONTINUOUS
 62
    7
 10
1830.0331196049733
 20
1681.3759314760018
 11
1831.0331196049733
 21
1681.3759314760018
  0
LINE
  8
_0-0_
  6
CONTINUOUS
 62
    7
 10
1851.2831196049733
 20
1681.3759314760018
 11
1842.0331196049733
 21
1681.3759314760018
  0
LINE
  8
_0-0_
  6
CONTINUOUS
 62
    7
 10
1819.7831196049733
 20
1680.3759314760014
 11
1819.7831196049733
 21
1681.3759314760018
  0
LINE
  8
_0-0_
  6
CONTINUOUS
 62
    7
 10
1819.7831196049733
 20
1681.3759314760018
 11
1820.7831196049733
 21
1681.3759314760018
  0
LINE
  8
_0-0_
  6
CONTINUOUS
 62
    7
 10
1840.0331196049733
 20
1680.3759314760014
 11
1840.0331196049733
 21
1681.3759314760018
  0
LINE
  8
_0-0_
  6
CONTINUOUS
 62
    7
 10
1840.0331196049733
 20
1681.3759314760018
 11
1841.0331196049733
 21
1681.3759314760018
  0
LINE
  8
_0-0_
  6
CONTINUOUS
 62
    7
 10
1832.0331196049733
 20
1681.3759314760018
 11
1832.0331196049733
 21
1680.3759314760014
  0
LINE
  8
_0-0_
  6
CONTINUOUS
 62
    7
 10
1831.0331196049733
 20
1681.3759314760018
 11
1832.0331196049733
 21
1681.3759314760018
  0
LINE
  8
_0-0_
  6
CONTINUOUS
 62
    7
 10
1840.0331196049733
 20
1681.3759314760018
 11
1832.0331196049733
 21
1681.3759314760018
  0
LINE
  8
_0-0_
  6
CONTINUOUS
 62
    7
 10
1809.0331196049735
 20
1605.3759314760014
 11
1809.0331196049735
 21
1630.3759314760014
  0
LINE
  8
_0-0_
  6
CONTINUOUS
 62
    7
 10
1811.0331196049733
 20
1605.3759314760014
 11
1811.0331196049733
 21
1630.3759314760014
  0
LINE
  8
_0-0_
  6
CONTINUOUS
 62
    7
 10
2113.0331196049738
 20
1630.3759314760014
 11
2113.0331196049738
 21
1605.3759314760014
  0
LINE
  8
_0-0_
  6
CONTINUOUS
 62
    7
 10
2111.0331196049738
 20
1630.3759314760014
 11
2111.0331196049738
 21
1605.3759314760014
  0
LINE
  8
_0-0_
  6
CONTINUOUS
 62
    7
 10
1817.3331196049733
 20
1626.8759314760018
 11
1854.7331196049734
 21
1626.8759314760018
  0
LINE
  8
_0-0_
  6
CONTINUOUS
 62
    7
 10
1817.3331196049733
 20
1680.3759314760014
 11
1854.7331196049734
 21
1680.3759314760014
  0
LINE
  8
_0-0_
  6
CONTINUOUS
 62
    7
 10
1855.0331196049733
 20
1680.3759314760014
 11
1855.0331196049733
 21
1626.8759314760018
  0
LINE
  8
_0-0_
  6
CONTINUOUS
 62
    7
 10
1855.0331196049733
 20
1626.8759314760018
 11
1854.7331196049734
 21
1626.8759314760018
  0
LINE
  8
_0-0_
  6
CONTINUOUS
 62
    7
 10
1854.7331196049734
 20
1680.3759314760014
 11
1855.0331196049733
 21
1680.3759314760014
  0
LINE
  8
_0-0_
  6
CONTINUOUS
 62
    7
 10
1817.0331196049733
 20
1626.8759314760018
 11
1817.0331196049733
 21
1680.3759314760014
  0
LINE
  8
_0-0_
  6
CONTINUOUS
 62
    7
 10
1817.3331196049733
 20
1626.8759314760018
 11
1817.0331196049733
 21
1626.8759314760018
  0
LINE
  8
_0-0_
  6
CONTINUOUS
 62
    7
 10
1817.0331196049733
 20
1680.3759314760014
 11
1817.3331196049733
 21
1680.3759314760014
  0
LINE
  8
_0-0_
  6
CONTINUOUS
 62
    7
 10
2104.7331196049736
 20
1680.3759314760014
 11
2105.0331196049733
 21
1680.3759314760014
  0
LINE
  8
_0-0_
  6
CONTINUOUS
 62
    7
 10
2105.0331196049733
 20
1680.3759314760014
 11
2105.0331196049733
 21
1626.8759314760018
  0
LINE
  8
_0-0_
  6
CONTINUOUS
 62
    7
 10
2105.0331196049733
 20
1626.8759314760018
 11
2104.7331196049736
 21
1626.8759314760018
  0
LINE
  8
_0-0_
  6
CONTINUOUS
 62
    7
 10
2067.3331196049735
 20
1680.3759314760014
 11
2104.7331196049736
 21
1680.3759314760014
  0
LINE
  8
_0-0_
  6
CONTINUOUS
 62
    7
 10
2067.3331196049735
 20
1626.8759314760018
 11
2104.7331196049736
 21
1626.8759314760018
  0
LINE
  8
_0-0_
  6
CONTINUOUS
 62
    7
 10
2067.0331196049738
 20
1626.8759314760018
 11
2067.0331196049738
 21
1680.3759314760014
  0
LINE
  8
_0-0_
  6
CONTINUOUS
 62
    7
 10
2067.3331196049735
 20
1626.8759314760018
 11
2067.0331196049738
 21
1626.8759314760018
  0
LINE
  8
_0-0_
  6
CONTINUOUS
 62
    7
 10
2067.0331196049738
 20
1680.3759314760014
 11
2067.3331196049735
 21
1680.3759314760014
  0
LINE
  8
_0-0_
  6
CONTINUOUS
 62
    7
 10
1961.0331196049733
 20
1623.3245551554273
 11
2031.0331196049733
 21
1623.3245551554273
  0
LINE
  8
_0-0_
  6
CONTINUOUS
 62
    7
 10
2031.0331196049733
 20
1623.3245543896219
 11
2031.0331196049733
 21
1612.4273084808583
  0
LINE
  8
_0-0_
  6
CONTINUOUS
 62
    7
 10
2031.0331196049733
 20
1612.4273077965756
 11
1961.0331196049733
 21
1612.4273077965756
  0
LINE
  8
_0-0_
  6
CONTINUOUS
 62
    7
 10
1961.0331196049733
 20
1623.3245551554273
 11
1961.0331196049733
 21
1612.4273077965756
  0
LINE
  8
_0-0_
  6
CONTINUOUS
 62
    7
 10
1891.0331196049733
 20
1612.4273077965756
 11
1961.0331196049733
 21
1612.4273077965756
  0
LINE
  8
_0-0_
  6
CONTINUOUS
 62
    7
 10
1891.0331196049733
 20
1623.3245541284664
 11
1891.0331196049733
 21
1612.4273089454887
  0
LINE
  8
_0-0_
  6
CONTINUOUS
 62
    7
 10
1961.0331196049733
 20
1623.3245551554273
 11
1891.0331196049733
 21
1623.3245551554273
  0
LINE
  8
_0-0_
  6
CONTINUOUS
 62
    7
 10
1891.0331196049733
 20
1612.4273089454887
 11
1891.0331196049733
 21
1606.6259309786215
  0
LINE
  8
_0-0_
  6
CONTINUOUS
 62
    7
 10
1891.0331196049733
 20
1629.1580634080765
 11
1891.0331196049733
 21
1623.3245541284664
  0
LINE
  8
_0-0_
  6
CONTINUOUS
 62
    7
 10
2031.0331196049733
 20
1612.4273084808583
 11
2031.0331196049733
 21
1606.6259311051049
  0
LINE
  8
_0-0_
  6
CONTINUOUS
 62
    7
 10
2031.0331196049733
 20
1629.1580632245518
 11
2031.0331196049733
 21
1623.3245543896219
  0
LINE
  8
_0-0_
  6
CONTINUOUS
 62
    7
 10
1961.0331196049733
 20
1606.6259314760014
 11
1891.0331196049733
 21
1606.6259314760014
  0
LINE
  8
_0-0_
  6
CONTINUOUS
 62
    7
 10
1961.0331196049733
 20
1612.4273077965756
 11
1961.0331196049733
 21
1606.6259314760014
  0
LINE
  8
_0-0_
  6
CONTINUOUS
 62
    7
 10
1961.0331196049733
 20
1606.6259314760014
 11
2031.0331196049733
 21
1606.6259314760014
  0
ARC
  8
_0-0_
  6
CONTINUOUS
 62
    7
 10
2089.845057599337
 20
257181.62169525502
 40
255552.52822778263
 50
269.97111990727825
 51
269.97351912880526
  0
LINE
  8
_0-0_
  6
CONTINUOUS
 62
    7
 10
1971.7342054549745
 20
1629.1207616146369
 11
1972.2777621301896
 21
1629.1205103944703
  0
ARC
  8
_0-0_
  6
CONTINUOUS
 62
    7
 10
1990.7021828107968
 20
41493.423448853006
 40
39864.307196143156
 50
269.97351912884471
 51
269.99046195773519
  0
LINE
  8
_0-0_
  6
CONTINUOUS
 62
    7
 10
1984.0659619866819
 20
1629.11680507649
 11
1986.1400926006261
 21
1629.1164597954621
  0
ARC
  8
_0-0_
  6
CONTINUOUS
 62
    7
 10
1989.8635443444846
 20
23996.187403269309
 40
22367.071253395803
 50
269.9904619577274
 51
270.03128500315785
  0
LINE
  8
_0-0_
  6
CONTINUOUS
 62
    7
 10
2002.0765531554184
 20
1629.1194841856657
 11
2006.5712522197223
 21
1629.1219384098611
  0
ARC
  8
_0-0_
  6
CONTINUOUS
 62
    7
 10
2000.0291196279691
 20
13610.471195471635
 40
11981.351043150078
 50
270.03128500315188
 51
270.08681237857405
  0
LINE
  8
_0-0_
  6
CONTINUOUS
 62
    7
 10
2018.1827985455498
 20
1629.1339052049375
 11
2021.5352172658063
 21
1629.138984665733
  0
ARC
  8
_0-0_
  6
CONTINUOUS
 62
    7
 10
2005.6879885794299
 20
12088.230657921253
 40
10459.103678815885
 50
270.08681237857479
 51
270.1136917082348
  0
LINE
  8
_0-0_
  6
CONTINUOUS
 62
    7
 10
2026.4419183385482
 20
1629.1475700679234
 11
2026.7857199308473
 21
1629.1482522724755
  0
ARC
  8
_0-0_
  6
CONTINUOUS
 62
    7
 10
2013.8461070718499
 20
8150.1535546146242
 40
6521.0181403485876
 50
270.11369170824588
 51
270.15076212412771
  0
LINE
  8
_0-0_
  6
CONTINUOUS
 62
    7
 10
2031.0048126552781
 20
1629.1579890910548
 11
2031.0331196049733
 21
1629.1580629670739
  0
LINE
  8
_0-0_
  6
CONTINUOUS
 62
    7
 10
1961.0331196049733
 20
1629.1259314760014
 11
1961.0331196049733
 21
1623.3245551554273
  0
ARC
  8
_0-0_
  6
CONTINUOUS
 62
    7
 10
1832.2211816095701
 20
257181.6216963036
 40
255552.52822883133
 50
270.02648087119485
 51
270.02888009272186
  0
LINE
  8
_0-0_
  6
CONTINUOUS
 62
    7
 10
1950.3320337549285
 20
1629.1207616146369
 11
1949.7884770797573
 21
1629.1205103944703
  0
ARC
  8
_0-0_
  6
CONTINUOUS
 62
    7
 10
1931.3640563990782
 20
41493.423448849411
 40
39864.307196139554
 50
270.00953804226492
 51
270.02648087115534
  0
LINE
  8
_0-0_
  6
CONTINUOUS
 62
    7
 10
1938.000277223266
 20
1629.11680507649
 11
1935.926146609321
 21
1629.1164597954621
  0
ARC
  8
_0-0_
  6
CONTINUOUS
 62
    7
 10
1932.2026948656423
 20
23996.187403268144
 40
22367.071253394635
 50
269.9687149968417
 51
270.00953804227214
  0
LINE
  8
_0-0_
  6
CONTINUOUS
 62
    7
 10
1919.9896860545296
 20
1629.1194841856657
 11
1915.494986990225
 21
1629.1219384098611
  0
ARC
  8
_0-0_
  6
CONTINUOUS
 62
    7
 10
1922.0371195848052
 20
13610.471198300947
 40
11981.351045979394
 50
269.91318762143294
 51
269.96871499684204
  0
LINE
  8
_0-0_
  6
CONTINUOUS
 62
    7
 10
1903.8834406643969
 20
1629.1339052049375
 11
1900.5310219441353
 21
1629.138984665733
  0
ARC
  8
_0-0_
  6
CONTINUOUS
 62
    7
 10
1916.3782506029538
 20
12088.230642081289
 40
10459.1036629759
 50
269.88630829174406
 51
269.91318762144465
  0
LINE
  8
_0-0_
  6
CONTINUOUS
 62
    7
 10
1895.6243208713981
 20
1629.1475700679234
 11
1895.2805192791004
 21
1629.1482522724755
  0
ARC
  8
_0-0_
  6
CONTINUOUS
 62
    7
 10
1908.2201321300818
 20
8150.1535511568909
 40
6521.018136890847
 50
269.84923787586274
 51
269.88630829176424
  0
LINE
  8
_0-0_
  6
CONTINUOUS
 62
    7
 10
1891.061426554669
 20
1629.1579890910548
 11
1891.0331196049733
 21
1629.1580629670739
  0
LINE
  8
_0-0_
  6
CONTINUOUS
 62
    8
 10
1891.0331196049733
 20
1606.6259309786215
 11
1891.0331196049733
 21
1605.3759314760014
  0
LINE
  8
_0-0_
  6
CONTINUOUS
 62
    8
 10
1891.0331196049733
 20
1630.3759314760014
 11
1891.0331196049733
 21
1629.1580634080765
  0
LINE
  8
_0-0_
  6
CONTINUOUS
 62
    8
 10
2031.0331196049733
 20
1630.3759314760014
 11
2031.0331196049733
 21
1629.1580632245518
  0
LINE
  8
_0-0_
  6
CONTINUOUS
 62
    8
 10
2031.0331196049733
 20
1606.6259311051049
 11
2031.0331196049733
 21
1605.3759314760014
  0
TEXT
  8
_0-2_FRF74-1708
 62
    7
 10
2462.1155190402424
 20
1023.5323172556662
 40
15
 41
1
 50
0
  1
1/5
  0
TEXT
  8
_0-2_FRF74-1708
 62
    7
 10
1614.6943364596746
 20
1066.3317848654224
 40
15
 41
1
 50
0
  1
グラブレール　-LANGBERGER,Viola-
  0
TEXT
  8
_0-2_FRF74-1708
 62
    7
 10
1613.3328545189092
 20
1014.2375076531813
 40
15
 41
1
 50
0
  1
クローム
  0
LINE
  8
_0-1_
  6
CONTINUOUS
 62
    4
 10
2423.3273787221847
 20
1853.5156370950983
 11
2423.3273787221847
 21
1835.5156370950981
  0
POINT
  8
_0-1_
 62
    7
 10
2423.3273787221847
 20
1853.5156370950983
  0
POINT
  8
_0-1_
 62
    7
 10
2423.3273787221847
 20
1835.5156370950981
  0
LINE
  8
_0-1_
  6
CONTINUOUS
 62
    4
 10
2423.3273787221847
 20
1853.5156370950983
 11
2388.3273787221847
 21
1853.5156370950983
  0
LINE
  8
_0-1_
  6
CONTINUOUS
 62
    4
 10
2423.3273787221847
 20
1835.5156370950981
 11
2388.3273787221847
 21
1835.5156370950981
  0
LINE
  8
_0-1_
  6
CONTINUOUS
 62
    4
 10
2248.3273787221847
 20
1832.0156403885112
 11
2248.3273787221847
 21
1857.0156403885112
  0
LINE
  8
_0-1_
  6
CONTINUOUS
 62
    4
 10
2248.3273787221847
 20
1857.0156403885112
 11
2248.3273787221847
 21
1888.2656403885112
  0
POINT
  8
_0-1_
 62
    7
 10
2248.3273787221847
 20
1832.0156403885112
  0
POINT
  8
_0-1_
 62
    7
 10
2248.3273787221847
 20
1857.0156403885112
  0
LINE
  8
_0-1_
  6
CONTINUOUS
 62
    4
 10
2295.8273787221847
 20
1832.0156403885112
 11
2248.3273787221847
 21
1832.0156403885112
  0
LINE
  8
_0-1_
  6
CONTINUOUS
 62
    4
 10
2295.8273787221847
 20
1857.0156403885112
 11
2248.3273787221847
 21
1857.0156403885112
  0
LINE
  8
_0-0_
  6
CONTINUOUS
 62
    7
 10
2365.7438922616038
 20
1835.5156370950981
 11
2365.0773787221847
 21
1834.8491235556794
  0
LINE
  8
_0-0_
  6
CONTINUOUS
 62
    7
 10
2360.5773787221847
 20
1834.8491235556794
 11
2359.9108651827655
 21
1835.5156370950981
  0
LINE
  8
_0-0_
  6
CONTINUOUS
 62
    7
 10
2373.3273787221847
 20
1849.7656370950983
 11
2374.3273787221847
 21
1849.7656370950983
  0
LINE
  8
_0-0_
  6
CONTINUOUS
 62
    7
 10
2374.3273787221847
 20
1839.2656370950981
 11
2373.3273787221847
 21
1839.2656370950981
  0
LINE
  8
_0-0_
  6
CONTINUOUS
 62
    7
 10
2374.3273787221847
 20
1849.7656370950983
 11
2374.3273787221847
 21
1839.2656370950981
  0
LINE
  8
_0-0_
  6
CONTINUOUS
 62
    7
 10
2373.3273787221847
 20
1838.2656370950983
 11
2374.3273787221847
 21
1838.2656370950983
  0
LINE
  8
_0-0_
  6
CONTINUOUS
 62
    7
 10
2374.3273787221847
 20
1838.2656370950983
 11
2374.3273787221847
 21
1839.2656370950981
  0
LINE
  8
_0-0_
  6
CONTINUOUS
 62
    7
 10
2374.3273787221847
 20
1850.7656370950983
 11
2373.3273787221847
 21
1850.7656370950983
  0
LINE
  8
_0-0_
  6
CONTINUOUS
 62
    7
 10
2374.3273787221847
 20
1849.7656370950983
 11
2374.3273787221847
 21
1850.7656370950983
  0
LINE
  8
_0-0_
  6
CONTINUOUS
 62
    7
 10
2364.8980012322154
 20
1834.8491235556794
 11
2365.0773787221847
 21
1834.8491235556794
  0
LINE
  8
_0-0_
  6
CONTINUOUS
 62
    7
 10
2360.5773787221847
 20
1834.8491235556794
 11
2364.8980012322154
 21
1834.8491235556794
  0
CIRCLE
  8
_0-0_
  6
CONTINUOUS
 62
    7
 10
2310.8273787221847
 20
1844.5156370950983
 40
12.500000000000057
  0
LINE
  8
_0-0_
  6
CONTINUOUS
 62
    7
 10
2319.8273787221847
 20
1835.5156370950981
 11
2373.3273787221847
 21
1835.5156370950981
  0
LINE
  8
_0-0_
  6
CONTINUOUS
 62
    7
 10
2319.8273787221847
 20
1835.8156370950983
 11
2319.8273787221847
 21
1835.5156370950981
  0
LINE
  8
_0-0_
  6
CONTINUOUS
 62
    7
 10
2373.3273787221847
 20
1853.5156370950983
 11
2319.8273787221847
 21
1853.5156370950983
  0
LINE
  8
_0-0_
  6
CONTINUOUS
 62
    7
 10
2319.8273787221847
 20
1853.5156370950983
 11
2319.8273787221847
 21
1853.2156370950984
  0
LINE
  8
_0-0_
  6
CONTINUOUS
 62
    7
 10
2373.3273787221847
 20
1835.5156370950981
 11
2373.3273787221847
 21
1853.5156370950983
  0
TEXT
  8
_0-1_
 62
    4
 10
2245.7187440006119
 20
1863.2582639600812
 40
12.5
 41
1
 50
90
  1
φ25
  0
TEXT
  8
_0-1_
 62
    4
 10
2421.4199293565152
 20
1837.8820505960186
 40
12.5
 41
1
 50
90
  1
18
  0
ENDSEC
  0
EOF
