  0
SECTION
  2
HEADER
  9
$ACADVER
  1
AC1009
  9
$INSBASE
 10
0
 20
0
 30
0
  9
$EXTMIN
 10
0
 20
0
  9
$EXTMAX
 10
4205
 20
2970
  9
$LIMMIN
 10
0
 20
0
  9
$LIMMAX
 10
4205
 20
2970
  9
$LTSCALE
 40
5
  0
ENDSEC
  0
SECTION
  2
TABLES
  0
TABLE
  2
LTYPE
 70
     9
  0
LTYPE
  2
CONTINUOUS
 70
    64
  3
実線
 72
    65
 73
     0
 40
0.0
  0
LTYPE
  2
DASHED1
 70
    64
  3
--  --  --  --  --  --  --  --  
 72
    65
 73
     2
 40
2.5
 49
1.25
 49
-1.25
  0
LTYPE
  2
DASHED2
 70
    64
  3
----    ----    ----    ----    
 72
    65
 73
     2
 40
5.0
 49
2.5
 49
-2.5
  0
LTYPE
  2
DASHED3
 70
    64
  3
------  ------  ------  ------  
 72
    65
 73
     2
 40
5.0
 49
3.75
 49
-1.25
  0
LTYPE
  2
CENTER1
 70
    64
  3
----- - ----- - ----- - ----- - 
 72
    65
 73
     4
 40
10.0
 49
6.25
 49
-1.25
 49
1.25
 49
-1.25
  0
LTYPE
  2
CENTER2
 70
    64
  3
----------  --  ----------  --  
 72
    65
 73
     4
 40
20.0
 49
12.5
 49
-2.5
 49
2.5
 49
-2.5
  0
LTYPE
  2
PHANTOM1
 70
    64
  3
--- - - --- - - --- - - --- - - 
 72
    65
 73
     6
 40
10.0
 49
3.25
 49
-1.25
 49
1.25
 49
-1.25
 49
1.25
 49
-1.25
  0
LTYPE
  2
PHANTOM2
 70
    64
  3
--------  -  -  --------  -  -  
 72
    65
 73
     6
 40
20.0
 49
10.0
 49
-2.5
 49
1.25
 49
-2.5
 49
1.25
 49
-2.5
  0
LTYPE
  2
DOT
 70
    64
  3
-   -   -   -   -   -   -   -   
 72
    65
 73
     2
 40
2.5
 49
0.625
 49
-1.875
  0
LTYPE
  2
DUMMY
 70
    64
  3
ダミー
 72
    65
 73
     0
 40
0.0
  0
LTYPE
  2
RAND1
 70
    64
  3
ランダム線1
 72
    65
 73
     4
 40
10.0
 49
1.0
 49
-2.0
 49
3.0
 49
-4.0
  0
LTYPE
  2
RAND2
 70
    64
  3
ランダム線2
 72
    65
 73
     4
 40
14.0
 49
2.0
 49
-3.0
 49
4.0
 49
-5.0
  0
LTYPE
  2
RAND3
 70
    64
  3
ランダム線3
 72
    65
 73
     4
 40
18.0
 49
3.0
 49
-4.0
 49
5.0
 49
-6.0
  0
LTYPE
  2
RAND4
 70
    64
  3
ランダム線4
 72
    65
 73
     4
 40
22.0
 49
4.0
 49
-5.0
 49
6.0
 49
-7.0
  0
LTYPE
  2
RAND5
 70
    64
  3
ランダム線5
 72
    65
 73
     4
 40
26.0
 49
5.0
 49
-6.0
 49
7.0
 49
-8.0
  0
LTYPE
  2
LONG1
 70
    64
  3
----------  --  ----------  --  
 72
    65
 73
     4
 40
40.0
 49
32.5
 49
-2.5
 49
2.5
 49
-2.5
  0
LTYPE
  2
LONG2
 70
    64
  3
--------  -  -  --------  -  -  
 72
    65
 73
     6
 40
40.0
 49
30.0
 49
-2.5
 49
1.25
 49
-2.5
 49
1.25
 49
-2.5
  0
LTYPE
  2
LONG3
 70
    64
  3
+++++++++++++++..+++++++++++++++
 72
    65
 73
     2
 40
40.0
 49
37.5
 49
-2.5
  0
LTYPE
  2
LONG4
 70
    64
  3
+++++++++++++++..+++++++++++++++
 72
    65
 73
     2
 40
80.0
 49
75.0
 49
-5.0
  0
LTYPE
  2
LONG5
 70
    64
  3
----------  --  ----------  --  
 72
    65
 73
     4
 40
60.0
 49
37.5
 49
-7.5
 49
7.5
 49
-7.5
  0
LTYPE
  2
dashed
 70
   64
  3
-------   -------------   ------
 72
   65
 73
    2
 40
7.5
 49
6
 49
-1.5
  0
LTYPE
  2
dashed_spaced
 70
   64
  3
----        --------        ----
 72
   65
 73
    2
 40
12
 49
6
 49
-6
  0
LTYPE
  2
long_dashed_dotted
 70
   64
  3
------------- --- --------------
 72
   65
 73
    4
 40
15.25
 49
12
 49
-1.5
 49
0.25
 49
-1.5
  0
LTYPE
  2
long_dashed_double-dotted
 70
   64
  3
----------- --- --- ------------
 72
   65
 73
    6
 40
17
 49
12
 49
-1.5
 49
0.25
 49
-1.5
 49
0.25
 49
-1.5
  0
LTYPE
  2
long_dashed_triplicate-dotted
 70
   64
  3
--------- --- --- --- ----------
 72
   65
 73
    8
 40
18.75
 49
12
 49
-1.5
 49
0.25
 49
-1.5
 49
0.25
 49
-1.5
 49
0.25
 49
-1.5
  0
LTYPE
  2
dotted
 70
   64
  3
   -       -       -       -    
 72
   65
 73
    2
 40
1.75
 49
0.25
 49
-1.5
  0
LTYPE
  2
chain
 70
   64
  3
-------------- -- --------------
 72
   65
 73
    4
 40
18.5
 49
12
 49
-1.5
 49
3.5
 49
-1.5
  0
LTYPE
  2
chain_double_dash
 70
   64
  3
------------ -- -- -------------
 72
   65
 73
    6
 40
23.5
 49
12
 49
-1.5
 49
3.5
 49
-1.5
 49
3.5
 49
-1.5
  0
LTYPE
  2
dashed_dotted
 70
   64
  3
-----------     -     ----------
 72
   65
 73
    4
 40
9.25
 49
6
 49
-1.5
 49
0.25
 49
-1.5
  0
LTYPE
  2
double-dashed_dotted
 70
   64
  3
------   -----------   -   -----
 72
   65
 73
    6
 40
16.75
 49
6
 49
-1.5
 49
6
 49
-1.5
 49
0.25
 49
-1.5
  0
LTYPE
  2
dashed_double-dotted
 70
   64
  3
---------    -    -    ---------
 72
   65
 73
    6
 40
11
 49
6
 49
-1.5
 49
0.25
 49
-1.5
 49
0.25
 49
-1.5
  0
LTYPE
  2
double-dashed_double-dotted
 70
   64
  3
-----   ---------   -   -   ----
 72
   65
 73
    8
 40
18.5
 49
6
 49
-1.5
 49
6
 49
-1.5
 49
0.25
 49
-1.5
 49
0.25
 49
-1.5
  0
LTYPE
  2
dashed_triplicate-dotted
 70
   64
  3
-------    -    -    -    ------
 72
   65
 73
    8
 40
12.75
 49
6
 49
-1.5
 49
0.25
 49
-1.5
 49
0.25
 49
-1.5
 49
0.25
 49
-1.5
  0
LTYPE
  2
double-dashed_triplicate-dotted
 70
   64
  3
-----  ---------  -  -  -  -----
 72
   65
 73
   10
 40
20.25
 49
6
 49
-1.5
 49
6
 49
-1.5
 49
0.25
 49
-1.5
 49
0.25
 49
-1.5
 49
0.25
 49
-1.5
  0
LTYPE
  2
undefined
 70
   64
  3
--------------------------------
 72
   65
 73
    0
 40
0
  0
ENDTAB
  0
TABLE
  2
STYLE
  5
3
100
AcDbSymbolTable
 70
     1
  0
STYLE
  5
10
100
AcDbSymbolTableRecord
100
AcDbTextStyleTableRecord
  2
STANDARD
 70
     0
 40
0.0
 41
1.0
 50
0.0
 71
     0
 42
0.2
  3
txt
  4
bigfont.shx
  0
STYLE
  5
26
100
AcDbSymbolTableRecord
100
AcDbTextStyleTableRecord
  2
TATEGAKI
 70
    68
 40
0.0
 41
1.0
 50
0.0
 71
     0
 42
1.0
  3
txt
  4
bigfont.shx
  0
ENDTAB
  0
TABLE
  2
LAYER
 70
    4
  0
LAYER
  2
_0-0_
 70
   64
 62
    7
  6
CONTINUOUS
  0
LAYER
  2
_0-1_
 70
   64
 62
    7
  6
CONTINUOUS
  0
LAYER
  2
_0-2_FRF74-1711
 70
   64
 62
    7
  6
CONTINUOUS
  0
LAYER
  2
ADD_LINE
 70
   64
 62
    7
  6
CONTINUOUS
  0
ENDTAB
  0
ENDSEC
  0
SECTION
  2
BLOCKS
  0
ENDSEC
  0
SECTION
  2
ENTITIES
  0
LINE
  8
_0-2_FRF74-1711
  6
CONTINUOUS
 62
    7
 10
2552.566283385414
 20
1056.1979530071658
 11
1577.5662833854144
 21
1056.1979530071658
  0
LINE
  8
_0-2_FRF74-1711
  6
CONTINUOUS
 62
    7
 10
2552.5662833856559
 20
2371.1979530071658
 11
1577.5662833856554
 21
2371.1979530071658
  0
LINE
  8
_0-2_FRF74-1711
  6
CONTINUOUS
 62
    7
 10
1577.5662833856554
 20
2371.1979530071658
 11
1577.5662833856554
 21
971.19795300716578
  0
LINE
  8
_0-2_FRF74-1711
  6
CONTINUOUS
 62
    7
 10
1577.5662833856554
 20
971.19795300716578
 11
2552.5662833856559
 21
971.19795300716578
  0
LINE
  8
_0-2_FRF74-1711
  6
CONTINUOUS
 62
    7
 10
2552.5662833856559
 20
971.19795300716578
 11
2552.5662833856559
 21
2371.1979530071658
  0
LINE
  8
_0-2_FRF74-1711
  6
CONTINUOUS
 62
    7
 10
2552.566283385414
 20
1098.6979530071658
 11
1577.5662833854144
 21
1098.6979530071658
  0
LINE
  8
_0-2_FRF74-1711
  6
CONTINUOUS
 62
    7
 10
2552.5662833856559
 20
1013.6979530071658
 11
2176.0662833856559
 21
1013.6979530071658
  0
LINE
  8
_0-2_FRF74-1711
  6
CONTINUOUS
 62
    7
 10
2427.066283385785
 20
1013.6979530071658
 11
2427.066283385785
 21
1056.1979530071658
  0
LINE
  8
_0-2_FRF74-1711
  6
CONTINUOUS
 62
    7
 10
2301.566283385785
 20
1013.6979530071658
 11
2301.566283385785
 21
1056.1979530071658
  0
LINE
  8
_0-2_FRF74-1711
  6
CONTINUOUS
 62
    7
 10
2176.066283385785
 20
971.19795300716578
 11
2176.066283385785
 21
1098.6979530071658
  0
TEXT
  8
_0-2_FRF74-1711
 62
    7
 10
2196.3388549397118
 20
983.13221232091132
 40
15
 41
1
 50
0
  1
大洋金物株式会社 ティーフォルム事業部
  0
TEXT
  8
_0-2_FRF74-1711
 62
    7
 10
1582.8750828572131
 20
1080.7343511503877
 40
11
 41
1
 50
0
  1
品名
  0
TEXT
  8
_0-2_FRF74-1711
 62
    7
 10
1584.6653190366922
 20
1037.1766457401898
 40
11
 41
1
 50
0
  1
仕様
  0
TEXT
  8
_0-2_FRF74-1711
 62
    7
 10
2183.0590642652819
 20
1080.1315954814579
 40
11
 41
1
 50
0
  1
品番
  0
TEXT
  8
_0-2_FRF74-1711
 62
    7
 10
2183.0568574992371
 20
1037.182349606808
 40
11
 41
1
 50
0
  1
重量
  0
TEXT
  8
_0-2_FRF74-1711
 62
    7
 10
2308.1776163454042
 20
1037.5114084130682
 40
11
 41
1
 50
0
  1
容量
  0
TEXT
  8
_0-2_FRF74-1711
 62
    7
 10
2433.6646030852935
 20
1037.4114153200876
 40
11
 41
1
 50
0
  1
縮尺
  0
TEXT
  8
_0-2_FRF74-1711
 62
    7
 10
1578.1476923649509
 20
947.26970852156592
 40
15
 41
1
 50
0
  1
120911S
  0
TEXT
  8
_0-2_FRF74-1711
 62
    7
 10
2211.5256034060785
 20
1065.334252852228
 40
15
 41
1
 50
0
  1
FRF74-1711
  0
LINE
  8
_0-1_
  6
CONTINUOUS
 62
    4
 10
2085.8267223573207
 20
1947.9423904488449
 11
2050.9962726686258
 21
1947.9423904488449
  0
LINE
  8
_0-1_
  6
CONTINUOUS
 62
    4
 10
2085.8267223573207
 20
1947.9423904488449
 11
2085.8267223573207
 21
1972.9423896572207
  0
POINT
  8
_0-1_
 62
    7
 10
2085.8267223573207
 20
1947.9423904488449
  0
POINT
  8
_0-1_
 62
    7
 10
2085.8267223573207
 20
1972.9423896572207
  0
LINE
  8
_0-1_
  6
CONTINUOUS
 62
    4
 10
2085.8267223573207
 20
1972.9423896572207
 11
2050.9962726686258
 21
1972.9423896572207
  0
TEXT
  8
_0-1_
 62
    4
 10
2083.3267223573207
 20
1955.4423900530328
 40
10
 41
1
 50
89.999999999999986
  1
25
  0
POINT
  8
_0-1_
 62
    7
 10
2085.8267223573207
 20
1685.0288406670131
  0
LINE
  8
_0-1_
  6
CONTINUOUS
 62
    4
 10
2085.8267223573207
 20
1685.0288406670131
 11
2041.9962691509822
 21
1685.0288406670131
  0
LINE
  8
_0-1_
  6
CONTINUOUS
 62
    4
 10
2085.8267223573207
 20
1685.0288406670131
 11
2085.8267223573207
 21
1575.0288406670131
  0
POINT
  8
_0-1_
 62
    7
 10
2085.8267223573207
 20
1575.0288406670131
  0
LINE
  8
_0-1_
  6
CONTINUOUS
 62
    4
 10
2085.8267223573207
 20
1575.0288406670131
 11
2041.9962691509822
 21
1575.0288406670131
  0
TEXT
  8
_0-1_
 62
    4
 10
2083.3267223573207
 20
1622.5288406670131
 40
10
 41
1
 50
90
  1
110
  0
LINE
  8
_0-1_
  6
CONTINUOUS
 62
    4
 10
1790.9962691509822
 20
1524.8543554660064
 11
2035.996272668626
 21
1524.8543554660064
  0
POINT
  8
_0-1_
 62
    7
 10
1790.9962691509822
 20
1524.8543554660064
  0
POINT
  8
_0-1_
 62
    7
 10
2035.996272668626
 20
1524.8543554660064
  0
LINE
  8
_0-1_
  6
CONTINUOUS
 62
    4
 10
1790.9962691509822
 20
1524.8543554660064
 11
1790.9962691509822
 21
1569.0288406670129
  0
LINE
  8
_0-1_
  6
CONTINUOUS
 62
    4
 10
2035.996272668626
 20
1524.8543554660064
 11
2035.996272668626
 21
1569.0288415099662
  0
TEXT
  8
_0-1_
 62
    4
 10
1905.9962709098043
 20
1527.3543554660064
 40
10
 41
1
 50
0
  1
245
  0
LINE
  8
_0-1_
  6
CONTINUOUS
 62
    4
 10
1894.4962690327427
 20
1760.0288406843488
 11
1932.4962687421701
 21
1760.0288406843488
  0
POINT
  8
_0-1_
 62
    7
 10
1894.4962690327427
 20
1760.0288406843488
  0
POINT
  8
_0-1_
 62
    7
 10
1932.4962687421701
 20
1760.0288406843488
  0
LINE
  8
_0-1_
  6
CONTINUOUS
 62
    4
 10
1894.4962690327427
 20
1760.0288406843488
 11
1894.4962690327427
 21
1725.0288406843488
  0
LINE
  8
_0-1_
  6
CONTINUOUS
 62
    4
 10
1932.4962687421701
 20
1760.0288406843488
 11
1932.4962687421701
 21
1725.0288406843488
  0
TEXT
  8
_0-1_
 62
    4
 10
1908.4962688874564
 20
1762.5288406843488
 40
10
 41
1
 50
0
  1
38
  0
LINE
  8
_0-0_
  6
CONTINUOUS
 62
    7
 10
2035.996272668626
 20
1972.9423896572207
 11
2026.9962693307659
 21
1972.9423896572207
  0
LINE
  8
_0-0_
  6
CONTINUOUS
 62
    7
 10
2035.996272668626
 20
1972.9423896572207
 11
2035.996272668626
 21
1947.9423904488449
  0
LINE
  8
_0-0_
  6
CONTINUOUS
 62
    7
 10
2035.996272668626
 20
1947.9423904488449
 11
2026.9962693307659
 21
1947.9423904488449
  0
LINE
  8
_0-0_
  6
CONTINUOUS
 62
    7
 10
2026.9962693307659
 20
1947.9423904488449
 11
1799.9962712381146
 21
1947.9423904488449
  0
LINE
  8
_0-0_
  6
CONTINUOUS
 62
    7
 10
2026.9962693307659
 20
1972.9423896572207
 11
1799.9962712381146
 21
1972.9423896572207
  0
LINE
  8
_0-0_
  6
CONTINUOUS
 62
    7
 10
1790.996275350835
 20
1972.9423896572207
 11
1790.996275350835
 21
1947.9423904488449
  0
LINE
  8
_0-0_
  6
CONTINUOUS
 62
    7
 10
1799.9962712381146
 20
1947.9423904488449
 11
1790.996275350835
 21
1947.9423904488449
  0
LINE
  8
_0-0_
  6
CONTINUOUS
 62
    7
 10
1799.9962712381146
 20
1972.9423896572207
 11
1790.996275350835
 21
1972.9423896572207
  0
LINE
  8
_0-0_
  6
CONTINUOUS
 62
    7
 10
1894.796268523123
 20
1710.0288406843488
 11
1932.1962692517898
 21
1710.0288406843488
  0
LINE
  8
_0-0_
  6
CONTINUOUS
 62
    7
 10
1834.4962666485569
 20
1682.0288408096117
 11
1834.4962666485569
 21
1578.0288442517799
  0
LINE
  8
_0-0_
  6
CONTINUOUS
 62
    7
 10
1837.4962727282307
 20
1578.0288442517799
 11
1837.4962727282307
 21
1682.0288408096117
  0
LINE
  8
_0-0_
  6
CONTINUOUS
 62
    7
 10
1849.9962682578823
 20
1682.0288408096117
 11
1849.9962682578823
 21
1578.0288442517799
  0
LINE
  8
_0-0_
  6
CONTINUOUS
 62
    7
 10
1852.9962668869755
 20
1578.0288442517799
 11
1852.9962668869755
 21
1682.0288408096117
  0
LINE
  8
_0-0_
  6
CONTINUOUS
 62
    7
 10
1865.4962698672077
 20
1682.0288408096117
 11
1865.4962698672077
 21
1578.0288442517799
  0
LINE
  8
_0-0_
  6
CONTINUOUS
 62
    7
 10
1868.4962684963009
 20
1578.0288442517799
 11
1868.4962684963009
 21
1682.0288408096117
  0
LINE
  8
_0-0_
  6
CONTINUOUS
 62
    7
 10
1880.9962677512428
 20
1682.0288408096117
 11
1880.9962677512428
 21
1578.0288442517799
  0
LINE
  8
_0-0_
  6
CONTINUOUS
 62
    7
 10
1883.9962701056263
 20
1578.0288442517799
 11
1883.9962701056263
 21
1682.0288408096117
  0
LINE
  8
_0-0_
  6
CONTINUOUS
 62
    7
 10
2004.9962694499752
 20
1682.0288408096117
 11
2004.9962694499752
 21
1578.0288442517799
  0
LINE
  8
_0-0_
  6
CONTINUOUS
 62
    7
 10
2007.9962680790684
 20
1578.0288442517799
 11
2007.9962680790684
 21
1682.0288408096117
  0
LINE
  8
_0-0_
  6
CONTINUOUS
 62
    7
 10
2020.4962710593006
 20
1682.0288408096117
 11
2020.4962710593006
 21
1578.0288442517799
  0
LINE
  8
_0-0_
  6
CONTINUOUS
 62
    7
 10
2023.4962696883938
 20
1578.0288442517799
 11
2023.4962696883938
 21
1682.0288408096117
  0
LINE
  8
_0-0_
  6
CONTINUOUS
 62
    7
 10
1958.4962683472893
 20
1682.0288408096117
 11
1958.4962683472893
 21
1578.0288442517799
  0
LINE
  8
_0-0_
  6
CONTINUOUS
 62
    7
 10
1961.4962707016728
 20
1578.0288442517799
 11
1961.4962707016728
 21
1682.0288408096117
  0
LINE
  8
_0-0_
  6
CONTINUOUS
 62
    7
 10
1973.9962699566147
 20
1682.0288408096117
 11
1973.9962699566147
 21
1578.0288442517799
  0
LINE
  8
_0-0_
  6
CONTINUOUS
 62
    7
 10
1976.9962685857079
 20
1578.0288442517799
 11
1976.9962685857079
 21
1682.0288408096117
  0
LINE
  8
_0-0_
  6
CONTINUOUS
 62
    7
 10
1989.4962678406498
 20
1682.0288408096117
 11
1989.4962678406498
 21
1578.0288442517799
  0
LINE
  8
_0-0_
  6
CONTINUOUS
 62
    7
 10
1992.496266469743
 20
1578.0288442517799
 11
1992.496266469743
 21
1682.0288408096117
  0
LINE
  8
_0-0_
  6
CONTINUOUS
 62
    7
 10
1818.9962724898121
 20
1682.0288408096117
 11
1818.9962724898121
 21
1578.0288442517799
  0
LINE
  8
_0-0_
  6
CONTINUOUS
 62
    7
 10
1821.9962711189053
 20
1578.0288442517799
 11
1821.9962711189053
 21
1682.0288408096117
  0
LINE
  8
_0-0_
  6
CONTINUOUS
 62
    7
 10
1927.4962693195901
 20
1682.0288408096117
 11
1927.4962693195901
 21
1578.0288442517799
  0
LINE
  8
_0-0_
  6
CONTINUOUS
 62
    7
 10
1930.4962693456671
 20
1578.0288442517799
 11
1930.4962693456671
 21
1682.0288408096117
  0
LINE
  8
_0-0_
  6
CONTINUOUS
 62
    7
 10
1942.996268600609
 20
1682.0288408096117
 11
1942.996268600609
 21
1578.0288442517799
  0
LINE
  8
_0-0_
  6
CONTINUOUS
 62
    7
 10
1945.9962690923473
 20
1578.0288442517799
 11
1945.9962690923473
 21
1682.0288408096117
  0
LINE
  8
_0-0_
  6
CONTINUOUS
 62
    7
 10
1896.4962693605682
 20
1682.0288408096117
 11
1896.4962693605682
 21
1578.0288442517799
  0
LINE
  8
_0-0_
  6
CONTINUOUS
 62
    7
 10
1899.4962698523066
 20
1578.0288442517799
 11
1899.4962698523066
 21
1682.0288408096117
  0
LINE
  8
_0-0_
  6
CONTINUOUS
 62
    7
 10
1803.4962708804867
 20
1682.0288408096117
 11
1803.4962708804867
 21
1578.0288442517799
  0
LINE
  8
_0-0_
  6
CONTINUOUS
 62
    7
 10
1806.4962695095799
 20
1578.0288442517799
 11
1806.4962695095799
 21
1682.0288408096117
  0
LINE
  8
_0-0_
  6
CONTINUOUS
 62
    7
 10
1911.9962691072485
 20
1682.0288408096117
 11
1911.9962691072485
 21
1578.0288442517799
  0
LINE
  8
_0-0_
  6
CONTINUOUS
 62
    7
 10
1914.9962695989868
 20
1578.0288442517799
 11
1914.9962695989868
 21
1682.0288408096117
  0
ARC
  8
_0-0_
  6
CONTINUOUS
 62
    7
 10
2026.9962691509822
 20
1584.0288406670129
 40
8.9999999999999787
 50
270.0000000000008
 51
0.0000000000000127
  0
LINE
  8
_0-0_
  6
CONTINUOUS
 62
    7
 10
2026.9962693307659
 20
1575.0288381721061
 11
1799.9962712381146
 21
1575.0288381721061
  0
ARC
  8
_0-0_
  6
CONTINUOUS
 62
    7
 10
1799.9962691509825
 20
1584.0288406670129
 40
9.0000000000000426
 50
180
 51
270.00000000000051
  0
LINE
  8
_0-0_
  6
CONTINUOUS
 62
    7
 10
1790.996275350835
 20
1584.0288415099662
 11
1790.996275350835
 21
1676.0288416887802
  0
ARC
  8
_0-0_
  6
CONTINUOUS
 62
    7
 10
1799.9962691509825
 20
1676.0288406670131
 40
9
 50
90.000000000000284
 51
180
  0
ARC
  8
_0-0_
  6
CONTINUOUS
 62
    7
 10
2026.9962691509822
 20
1676.0288406670131
 40
9
 50
0
 51
90
  0
LINE
  8
_0-0_
  6
CONTINUOUS
 62
    7
 10
2035.996272668626
 20
1676.0288416887802
 11
2035.996272668626
 21
1643.0288418675941
  0
LINE
  8
_0-0_
  6
CONTINUOUS
 62
    7
 10
2032.9962665889523
 20
1643.0288418675941
 11
2035.996272668626
 21
1643.0288418675941
  0
LINE
  8
_0-0_
  6
CONTINUOUS
 62
    7
 10
2032.9962665889523
 20
1676.0288416887802
 11
2032.9962665889523
 21
1643.0288418675941
  0
ARC
  8
_0-0_
  6
CONTINUOUS
 62
    7
 10
2026.9962691509822
 20
1676.0288406670131
 40
6.0000000000000009
 50
0
 51
90
  0
LINE
  8
_0-0_
  6
CONTINUOUS
 62
    7
 10
1799.9962712381146
 20
1682.0288408096117
 11
2026.9962693307659
 21
1682.0288408096117
  0
ARC
  8
_0-0_
  6
CONTINUOUS
 62
    7
 10
1799.9962691509825
 20
1676.0288406670131
 40
6.0000000000000009
 50
90.000000000000426
 51
180
  0
LINE
  8
_0-0_
  6
CONTINUOUS
 62
    7
 10
1793.9962665293476
 20
1584.0288415099662
 11
1793.9962665293476
 21
1676.0288416887802
  0
ARC
  8
_0-0_
  6
CONTINUOUS
 62
    7
 10
1799.9962691509825
 20
1584.0288406670129
 40
6.0000000000000009
 50
180
 51
270.0000000000004
  0
LINE
  8
_0-0_
  6
CONTINUOUS
 62
    7
 10
2026.9962693307659
 20
1578.0288442517799
 11
1799.9962712381146
 21
1578.0288442517799
  0
ARC
  8
_0-0_
  6
CONTINUOUS
 62
    7
 10
2026.9962691509822
 20
1584.0288406670129
 40
5.9999999999999787
 50
270.0000000000008
 51
0.0000000000000127
  0
LINE
  8
_0-0_
  6
CONTINUOUS
 62
    7
 10
2032.9962665889523
 20
1617.0288413311523
 11
2032.9962665889523
 21
1584.0288415099662
  0
LINE
  8
_0-0_
  6
CONTINUOUS
 62
    7
 10
2035.996272668626
 20
1617.0288413311523
 11
2032.9962665889523
 21
1617.0288413311523
  0
LINE
  8
_0-0_
  6
CONTINUOUS
 62
    7
 10
2035.996272668626
 20
1617.0288413311523
 11
2035.996272668626
 21
1584.0288415099662
  0
LINE
  8
_0-0_
  6
CONTINUOUS
 62
    7
 10
1799.9962712381146
 20
1685.02884130135
 11
2026.9962693307659
 21
1685.02884130135
  0
LINE
  8
_0-0_
  6
CONTINUOUS
 62
    7
 10
2035.996272668626
 20
1640.0288432385009
 11
2032.9962665889523
 21
1640.0288432385009
  0
LINE
  8
_0-0_
  6
CONTINUOUS
 62
    7
 10
2032.9962665889523
 20
1640.0288432385009
 11
2032.9962665889523
 21
1643.0288418675941
  0
LINE
  8
_0-0_
  6
CONTINUOUS
 62
    7
 10
2035.996272668626
 20
1643.0288418675941
 11
2035.996272668626
 21
1640.0288432385009
  0
LINE
  8
_0-0_
  6
CONTINUOUS
 62
    7
 10
2032.9962665889523
 20
1620.0288399602455
 11
2035.996272668626
 21
1620.0288399602455
  0
LINE
  8
_0-0_
  6
CONTINUOUS
 62
    7
 10
2032.9962665889523
 20
1617.0288413311523
 11
2032.9962665889523
 21
1620.0288399602455
  0
LINE
  8
_0-0_
  6
CONTINUOUS
 62
    7
 10
2035.996272668626
 20
1620.0288399602455
 11
2035.996272668626
 21
1617.0288413311523
  0
LINE
  8
_0-0_
  6
CONTINUOUS
 62
    7
 10
1932.1962692517898
 20
1710.0288406843488
 11
1932.4962687421701
 21
1710.0288406843488
  0
LINE
  8
_0-0_
  6
CONTINUOUS
 62
    7
 10
1932.4962687421701
 20
1710.0288406843488
 11
1932.4962687421701
 21
1685.02884130135
  0
LINE
  8
_0-0_
  6
CONTINUOUS
 62
    7
 10
1894.4962690327427
 20
1685.02884130135
 11
1894.4962690327427
 21
1710.0288406843488
  0
LINE
  8
_0-0_
  6
CONTINUOUS
 62
    7
 10
1894.4962690327427
 20
1710.0288406843488
 11
1894.796268523123
 21
1710.0288406843488
  0
TEXT
  8
_0-0_
 62
    7
 10
1613.0064757688504
 20
1013.0097018791503
 40
15
 41
1
 50
0
  1
クローム
  0
LINE
  8
_0-1_
  6
CONTINUOUS
 62
    4
 10
2383.1187130285275
 20
2022.9423896572207
 11
2248.1187105162849
 21
2022.9423896572207
  0
POINT
  8
_0-1_
 62
    7
 10
2383.1187130285275
 20
2022.9423896572207
  0
POINT
  8
_0-1_
 62
    7
 10
2248.1187105162849
 20
2022.9423896572207
  0
LINE
  8
_0-1_
  6
CONTINUOUS
 62
    4
 10
2383.1187130285275
 20
2022.9423896572207
 11
2383.1187130285275
 21
1984.4423900148486
  0
LINE
  8
_0-1_
  6
CONTINUOUS
 62
    4
 10
2248.1187105162849
 20
2022.9423896572207
 11
2248.1187105162849
 21
1987.9423896572207
  0
TEXT
  8
_0-1_
 62
    4
 10
2308.1187117724062
 20
2025.4423896572207
 40
10
 41
1
 50
0
  1
135
  0
LINE
  8
_0-1_
  6
CONTINUOUS
 62
    4
 10
2433.1187130285275
 20
1969.4423900148486
 11
2433.1187130285275
 21
1951.4423903822553
  0
POINT
  8
_0-1_
 62
    7
 10
2433.1187130285275
 20
1969.4423900148486
  0
POINT
  8
_0-1_
 62
    7
 10
2433.1187130285275
 20
1951.4423903822553
  0
LINE
  8
_0-1_
  6
CONTINUOUS
 62
    4
 10
2433.1187130285275
 20
1969.4423900148486
 11
2398.1187130285275
 21
1969.4423900148486
  0
LINE
  8
_0-1_
  6
CONTINUOUS
 62
    4
 10
2433.1187130285275
 20
1951.4423903822553
 11
2398.1187130285275
 21
1951.4423903822553
  0
TEXT
  8
_0-1_
 62
    4
 10
2445.6187130285275
 20
1955.4423901985519
 40
10
 41
1
 50
90
  1
18
  0
LINE
  8
_0-0_
  6
CONTINUOUS
 62
    7
 10
2383.1187130285275
 20
1969.1423905244683
 11
2383.1187130285275
 21
1951.7423903965046
  0
LINE
  8
_0-0_
  6
CONTINUOUS
 62
    7
 10
2383.1187130285275
 20
1969.1423905244683
 11
2383.1187130285275
 21
1969.4423900148486
  0
LINE
  8
_0-0_
  6
CONTINUOUS
 62
    7
 10
2383.1187130285275
 20
1969.4423900148486
 11
2358.1187136455287
 21
1969.4423900148486
  0
LINE
  8
_0-0_
  6
CONTINUOUS
 62
    7
 10
2358.1187136455287
 20
1972.9423896572207
 11
2358.1187136455287
 21
1947.9423904488449
  0
LINE
  8
_0-0_
  6
CONTINUOUS
 62
    7
 10
2349.1187140329589
 20
1972.9423896572207
 11
2358.1187136455287
 21
1972.9423896572207
  0
LINE
  8
_0-0_
  6
CONTINUOUS
 62
    7
 10
2349.1187140329589
 20
1972.9423896572207
 11
2349.1187140329589
 21
1947.9423904488449
  0
LINE
  8
_0-0_
  6
CONTINUOUS
 62
    7
 10
2349.1187140329589
 20
1947.9423904488449
 11
2358.1187136455287
 21
1947.9423904488449
  0
LINE
  8
_0-0_
  6
CONTINUOUS
 62
    7
 10
2257.118713854145
 20
1972.9423896572207
 11
2257.118713854145
 21
1947.9423904488449
  0
LINE
  8
_0-0_
  6
CONTINUOUS
 62
    7
 10
2257.118713854145
 20
1947.9423904488449
 11
2349.1187140329589
 21
1947.9423904488449
  0
LINE
  8
_0-0_
  6
CONTINUOUS
 62
    7
 10
2257.118713854145
 20
1972.9423896572207
 11
2349.1187140329589
 21
1972.9423896572207
  0
LINE
  8
_0-0_
  6
CONTINUOUS
 62
    7
 10
2248.1187105162849
 20
1972.9423896572207
 11
2248.1187105162849
 21
1947.9423904488449
  0
LINE
  8
_0-0_
  6
CONTINUOUS
 62
    7
 10
2248.1187105162849
 20
1947.9423904488449
 11
2257.118713854145
 21
1947.9423904488449
  0
LINE
  8
_0-0_
  6
CONTINUOUS
 62
    7
 10
2248.1187105162849
 20
1972.9423896572207
 11
2257.118713854145
 21
1972.9423896572207
  0
LINE
  8
_0-0_
  6
CONTINUOUS
 62
    7
 10
2358.1187136455287
 20
1951.4423903822553
 11
2383.1187130285275
 21
1951.4423903822553
  0
LINE
  8
_0-0_
  6
CONTINUOUS
 62
    7
 10
2383.1187130285275
 20
1951.4423903822553
 11
2383.1187130285275
 21
1951.7423903965046
  0
TEXT
  8
_0-2_FRF74-1711
 62
    7
 10
1614.6943364596746
 20
1066.3317848654224
 40
15
 41
1
 50
0
  1
シェルフ　-LANGBERGER,Viola-
  0
ENDSEC
  0
EOF
