  0
SECTION
  2
HEADER
  9
$ACADVER
  1
AC1009
  9
$INSBASE
 10
0
 20
0
 30
0
  9
$EXTMIN
 10
0
 20
0
  9
$EXTMAX
 10
841
 20
594
  9
$LIMMIN
 10
0
 20
0
  9
$LIMMAX
 10
841
 20
594
  9
$LTSCALE
 40
1
  0
ENDSEC
  0
SECTION
  2
TABLES
  0
TABLE
  2
LTYPE
 70
     9
  0
LTYPE
  2
CONTINUOUS
 70
    64
  3
実線
 72
    65
 73
     0
 40
0.0
  0
LTYPE
  2
DASHED1
 70
    64
  3
--  --  --  --  --  --  --  --  
 72
    65
 73
     2
 40
2.5
 49
1.25
 49
-1.25
  0
LTYPE
  2
DASHED2
 70
    64
  3
----    ----    ----    ----    
 72
    65
 73
     2
 40
5.0
 49
2.5
 49
-2.5
  0
LTYPE
  2
DASHED3
 70
    64
  3
------  ------  ------  ------  
 72
    65
 73
     2
 40
5.0
 49
3.75
 49
-1.25
  0
LTYPE
  2
CENTER1
 70
    64
  3
----- - ----- - ----- - ----- - 
 72
    65
 73
     4
 40
10.0
 49
6.25
 49
-1.25
 49
1.25
 49
-1.25
  0
LTYPE
  2
CENTER2
 70
    64
  3
----------  --  ----------  --  
 72
    65
 73
     4
 40
20.0
 49
12.5
 49
-2.5
 49
2.5
 49
-2.5
  0
LTYPE
  2
PHANTOM1
 70
    64
  3
--- - - --- - - --- - - --- - - 
 72
    65
 73
     6
 40
10.0
 49
3.25
 49
-1.25
 49
1.25
 49
-1.25
 49
1.25
 49
-1.25
  0
LTYPE
  2
PHANTOM2
 70
    64
  3
--------  -  -  --------  -  -  
 72
    65
 73
     6
 40
20.0
 49
10.0
 49
-2.5
 49
1.25
 49
-2.5
 49
1.25
 49
-2.5
  0
LTYPE
  2
DOT
 70
    64
  3
-   -   -   -   -   -   -   -   
 72
    65
 73
     2
 40
2.5
 49
0.625
 49
-1.875
  0
LTYPE
  2
DUMMY
 70
    64
  3
ダミー
 72
    65
 73
     0
 40
0.0
  0
LTYPE
  2
RAND1
 70
    64
  3
ランダム線1
 72
    65
 73
     4
 40
10.0
 49
1.0
 49
-2.0
 49
3.0
 49
-4.0
  0
LTYPE
  2
RAND2
 70
    64
  3
ランダム線2
 72
    65
 73
     4
 40
14.0
 49
2.0
 49
-3.0
 49
4.0
 49
-5.0
  0
LTYPE
  2
RAND3
 70
    64
  3
ランダム線3
 72
    65
 73
     4
 40
18.0
 49
3.0
 49
-4.0
 49
5.0
 49
-6.0
  0
LTYPE
  2
RAND4
 70
    64
  3
ランダム線4
 72
    65
 73
     4
 40
22.0
 49
4.0
 49
-5.0
 49
6.0
 49
-7.0
  0
LTYPE
  2
RAND5
 70
    64
  3
ランダム線5
 72
    65
 73
     4
 40
26.0
 49
5.0
 49
-6.0
 49
7.0
 49
-8.0
  0
LTYPE
  2
LONG1
 70
    64
  3
----------  --  ----------  --  
 72
    65
 73
     4
 40
40.0
 49
32.5
 49
-2.5
 49
2.5
 49
-2.5
  0
LTYPE
  2
LONG2
 70
    64
  3
--------  -  -  --------  -  -  
 72
    65
 73
     6
 40
40.0
 49
30.0
 49
-2.5
 49
1.25
 49
-2.5
 49
1.25
 49
-2.5
  0
LTYPE
  2
LONG3
 70
    64
  3
+++++++++++++++..+++++++++++++++
 72
    65
 73
     2
 40
40.0
 49
37.5
 49
-2.5
  0
LTYPE
  2
LONG4
 70
    64
  3
+++++++++++++++..+++++++++++++++
 72
    65
 73
     2
 40
80.0
 49
75.0
 49
-5.0
  0
LTYPE
  2
LONG5
 70
    64
  3
----------  --  ----------  --  
 72
    65
 73
     4
 40
60.0
 49
37.5
 49
-7.5
 49
7.5
 49
-7.5
  0
LTYPE
  2
dashed
 70
   64
  3
-------   -------------   ------
 72
   65
 73
    2
 40
7.5
 49
6
 49
-1.5
  0
LTYPE
  2
dashed_spaced
 70
   64
  3
----        --------        ----
 72
   65
 73
    2
 40
12
 49
6
 49
-6
  0
LTYPE
  2
long_dashed_dotted
 70
   64
  3
------------- --- --------------
 72
   65
 73
    4
 40
15.25
 49
12
 49
-1.5
 49
0.25
 49
-1.5
  0
LTYPE
  2
long_dashed_double-dotted
 70
   64
  3
----------- --- --- ------------
 72
   65
 73
    6
 40
17
 49
12
 49
-1.5
 49
0.25
 49
-1.5
 49
0.25
 49
-1.5
  0
LTYPE
  2
long_dashed_triplicate-dotted
 70
   64
  3
--------- --- --- --- ----------
 72
   65
 73
    8
 40
18.75
 49
12
 49
-1.5
 49
0.25
 49
-1.5
 49
0.25
 49
-1.5
 49
0.25
 49
-1.5
  0
LTYPE
  2
dotted
 70
   64
  3
   -       -       -       -    
 72
   65
 73
    2
 40
1.75
 49
0.25
 49
-1.5
  0
LTYPE
  2
chain
 70
   64
  3
-------------- -- --------------
 72
   65
 73
    4
 40
18.5
 49
12
 49
-1.5
 49
3.5
 49
-1.5
  0
LTYPE
  2
chain_double_dash
 70
   64
  3
------------ -- -- -------------
 72
   65
 73
    6
 40
23.5
 49
12
 49
-1.5
 49
3.5
 49
-1.5
 49
3.5
 49
-1.5
  0
LTYPE
  2
dashed_dotted
 70
   64
  3
-----------     -     ----------
 72
   65
 73
    4
 40
9.25
 49
6
 49
-1.5
 49
0.25
 49
-1.5
  0
LTYPE
  2
double-dashed_dotted
 70
   64
  3
------   -----------   -   -----
 72
   65
 73
    6
 40
16.75
 49
6
 49
-1.5
 49
6
 49
-1.5
 49
0.25
 49
-1.5
  0
LTYPE
  2
dashed_double-dotted
 70
   64
  3
---------    -    -    ---------
 72
   65
 73
    6
 40
11
 49
6
 49
-1.5
 49
0.25
 49
-1.5
 49
0.25
 49
-1.5
  0
LTYPE
  2
double-dashed_double-dotted
 70
   64
  3
-----   ---------   -   -   ----
 72
   65
 73
    8
 40
18.5
 49
6
 49
-1.5
 49
6
 49
-1.5
 49
0.25
 49
-1.5
 49
0.25
 49
-1.5
  0
LTYPE
  2
dashed_triplicate-dotted
 70
   64
  3
-------    -    -    -    ------
 72
   65
 73
    8
 40
12.75
 49
6
 49
-1.5
 49
0.25
 49
-1.5
 49
0.25
 49
-1.5
 49
0.25
 49
-1.5
  0
LTYPE
  2
double-dashed_triplicate-dotted
 70
   64
  3
-----  ---------  -  -  -  -----
 72
   65
 73
   10
 40
20.25
 49
6
 49
-1.5
 49
6
 49
-1.5
 49
0.25
 49
-1.5
 49
0.25
 49
-1.5
 49
0.25
 49
-1.5
  0
LTYPE
  2
undefined
 70
   64
  3
--------------------------------
 72
   65
 73
    0
 40
0
  0
ENDTAB
  0
TABLE
  2
STYLE
  5
3
100
AcDbSymbolTable
 70
     1
  0
STYLE
  5
10
100
AcDbSymbolTableRecord
100
AcDbTextStyleTableRecord
  2
STANDARD
 70
     0
 40
0.0
 41
1.0
 50
0.0
 71
     0
 42
0.2
  3
txt
  4
bigfont.shx
  0
STYLE
  5
26
100
AcDbSymbolTableRecord
100
AcDbTextStyleTableRecord
  2
TATEGAKI
 70
    68
 40
0.0
 41
1.0
 50
0.0
 71
     0
 42
1.0
  3
txt
  4
bigfont.shx
  0
ENDTAB
  0
TABLE
  2
LAYER
 70
    4
  0
LAYER
  2
_0-0_FRF74-1712
 70
   64
 62
    7
  6
CONTINUOUS
  0
LAYER
  2
_0-1_
 70
   64
 62
    7
  6
CONTINUOUS
  0
LAYER
  2
_0-2_
 70
   64
 62
    7
  6
CONTINUOUS
  0
LAYER
  2
ADD_LINE
 70
   64
 62
    7
  6
CONTINUOUS
  0
ENDTAB
  0
ENDSEC
  0
SECTION
  2
BLOCKS
  0
ENDSEC
  0
SECTION
  2
ENTITIES
  0
LINE
  8
_0-2_
  6
CONTINUOUS
 62
    7
 10
85.432636807045981
 20
222.78431921145977
 11
-109.56736319295396
 21
222.78431921145977
  0
LINE
  8
_0-2_
  6
CONTINUOUS
 62
    7
 10
85.432636807094241
 20
485.78431921145977
 11
-109.56736319290576
 21
485.78431921145977
  0
LINE
  8
_0-2_
  6
CONTINUOUS
 62
    7
 10
-109.56736319290576
 20
485.78431921145977
 11
-109.56736319290576
 21
205.78431921145977
  0
LINE
  8
_0-2_
  6
CONTINUOUS
 62
    7
 10
-109.56736319290576
 20
205.78431921145977
 11
85.432636807094241
 21
205.78431921145977
  0
LINE
  8
_0-2_
  6
CONTINUOUS
 62
    7
 10
85.432636807094241
 20
205.78431921145977
 11
85.432636807094241
 21
485.78431921145977
  0
LINE
  8
_0-2_
  6
CONTINUOUS
 62
    7
 10
85.432636807045981
 20
231.28431921145983
 11
-109.56736319295396
 21
231.28431921145983
  0
LINE
  8
_0-2_
  6
CONTINUOUS
 62
    7
 10
85.432636807094241
 20
214.28431921145977
 11
10.132636807094229
 21
214.28431921145977
  0
LINE
  8
_0-2_
  6
CONTINUOUS
 62
    7
 10
60.332636807120139
 20
214.28431921145977
 11
60.332636807120139
 21
222.78431921145977
  0
LINE
  8
_0-2_
  6
CONTINUOUS
 62
    7
 10
35.232636807120116
 20
214.28431921145977
 11
35.232636807120116
 21
222.78431921145977
  0
LINE
  8
_0-2_
  6
CONTINUOUS
 62
    7
 10
10.132636807120093
 20
205.78431921145977
 11
10.132636807120093
 21
231.28431921145983
  0
TEXT
  8
_0-2_
 62
    7
 10
13.665785211464083
 20
208.11324446189548
 40
3
 41
1
 50
0
  1
大洋金物株式会社 ティーフォルム事業部
  0
TEXT
  8
_0-2_
 62
    7
 10
-108.5013363963742
 20
219.62979474920604
 40
2.2000000000000002
 41
1
 50
0
  1
仕様
  0
TEXT
  8
_0-2_
 62
    7
 10
-108.46175739836542
 20
228.01451400968296
 40
2.2000000000000002
 41
1
 50
0
  1
品名
  0
TEXT
  8
_0-2_
 62
    7
 10
11.273271547607976
 20
228.16241768348573
 40
2.2000000000000002
 41
1
 50
0
  1
品番
  0
TEXT
  8
_0-2_
 62
    7
 10
11.183435184562711
 20
219.57861246087958
 40
2.2000000000000002
 41
1
 50
0
  1
重量
  0
TEXT
  8
_0-2_
 62
    7
 10
36.300295993281736
 20
219.79254132352884
 40
2.2000000000000002
 41
1
 50
0
  1
容量
  0
TEXT
  8
_0-2_
 62
    7
 10
61.407009855576291
 20
219.74983416093033
 40
2.2000000000000002
 41
1
 50
0
  1
縮尺
  0
TEXT
  8
_0-2_
 62
    7
 10
16.930906057853861
 20
224.733188728215
 40
3
 41
1
 50
0
  1
FRF74-1712
  0
TEXT
  8
_0-2_
 62
    4
 10
-109.21746733112866
 20
201.60538484166796
 40
2.5
 41
1
 50
0
  1
120911S
  0
LINE
  8
_0-1_
  6
CONTINUOUS
 62
    4
 10
-70.251755819836546
 20
362.93721031244377
 11
-70.251755819836546
 21
350.93721031244377
  0
POINT
  8
_0-1_
 62
    7
 10
-70.251755819836546
 20
362.93721031244377
  0
POINT
  8
_0-1_
 62
    7
 10
-70.251755819836546
 20
350.93721031244377
  0
LINE
  8
_0-1_
  6
CONTINUOUS
 62
    4
 10
-70.251755819836546
 20
362.93721031244377
 11
-58.251755819836546
 21
362.93721031244377
  0
LINE
  8
_0-1_
  6
CONTINUOUS
 62
    4
 10
-70.251755819836546
 20
350.93721031244377
 11
-58.251755819836546
 21
350.93721031244377
  0
TEXT
  8
_0-1_
 62
    4
 10
-70.751755819836546
 20
355.68721031244377
 40
2.5
 41
1
 50
90
  1
12
  0
LINE
  8
_0-1_
  6
CONTINUOUS
 62
    4
 10
-55.251755819836546
 20
335.93721031244377
 11
-21.251755819836546
 21
335.93721031244377
  0
POINT
  8
_0-1_
 62
    7
 10
-55.251755819836546
 20
335.93721031244377
  0
POINT
  8
_0-1_
 62
    7
 10
-21.251755819836546
 20
335.93721031244377
  0
LINE
  8
_0-1_
  6
CONTINUOUS
 62
    4
 10
-55.251755819836546
 20
335.93721031244377
 11
-55.251755819836546
 21
347.93721031244377
  0
LINE
  8
_0-1_
  6
CONTINUOUS
 62
    4
 10
-21.251755819836546
 20
335.93721031244377
 11
-21.251755819836546
 21
344.43721031244377
  0
TEXT
  8
_0-1_
 62
    4
 10
-39.501755819836546
 20
336.43721031244377
 40
2.5
 41
1
 50
0
  1
34
  0
LINE
  8
_0-1_
  6
CONTINUOUS
 62
    4
 10
-6.2517558198365464
 20
366.43721031244377
 11
-6.2517558198365464
 21
347.43721031244377
  0
POINT
  8
_0-1_
 62
    7
 10
-6.2517558198365464
 20
366.43721031244377
  0
POINT
  8
_0-1_
 62
    7
 10
-6.2517558198365464
 20
347.43721031244377
  0
LINE
  8
_0-1_
  6
CONTINUOUS
 62
    4
 10
-6.2517558198365464
 20
366.43721031244377
 11
-18.251755819836546
 21
366.43721031244377
  0
LINE
  8
_0-1_
  6
CONTINUOUS
 62
    4
 10
-6.2517558198365464
 20
347.43721031244377
 11
-18.251755819836546
 21
347.43721031244377
  0
TEXT
  8
_0-1_
 62
    4
 10
-6.7517558198365464
 20
355.68721031244377
 40
2.5
 41
1
 50
90
  1
19
  0
LINE
  8
_0-1_
  6
CONTINUOUS
 62
    4
 10
25.248244180163454
 20
356.93721031244377
 11
44.248244180163454
 21
356.93721031244377
  0
TEXT
  8
_0-1_
 62
    4
 10
45.498244180163454
 20
357.43721031244377
 40
2.5
 41
1
 50
0
  1
φ19
  0
LINE
  8
_0-1_
  6
CONTINUOUS
 62
    4
 10
44.248244180163454
 20
356.93721031244377
 11
50.498244180163454
 21
356.93721031244377
  0
POINT
  8
_0-1_
 62
    7
 10
25.248244180163454
 20
356.93721031244377
  0
POINT
  8
_0-1_
 62
    7
 10
44.248244180163454
 20
356.93721031244377
  0
LINE
  8
_0-0_FRF74-1712
  6
CONTINUOUS
 62
    7
 10
-25.251755819836546
 20
347.43721031244377
 11
-21.251755819836546
 21
347.43721031244377
  0
LINE
  8
_0-0_FRF74-1712
  6
CONTINUOUS
 62
    7
 10
-21.251755819836546
 20
366.43721031244377
 11
-25.251755819836546
 21
366.43721031244377
  0
ARC
  8
_0-0_FRF74-1712
  6
CONTINUOUS
 62
    7
 10
-25.751755819836546
 20
350.43721031244377
 40
0.5000000000000142
 50
0.0000000000007958
 51
90
  0
ARC
  8
_0-0_FRF74-1712
  6
CONTINUOUS
 62
    7
 10
-25.751755819836546
 20
363.43721031244377
 40
0.5000000000000142
 50
270
 51
359.99999999999835
  0
LINE
  8
_0-0_FRF74-1712
  6
CONTINUOUS
 62
    7
 10
-55.251755819836546
 20
350.93721031244377
 11
-25.751755819836546
 21
350.93721031244377
  0
LINE
  8
_0-0_FRF74-1712
  6
CONTINUOUS
 62
    7
 10
-25.751755819836546
 20
362.93721031244377
 11
-55.251755819836546
 21
362.93721031244377
  0
LINE
  8
_0-0_FRF74-1712
  6
CONTINUOUS
 62
    7
 10
-25.251755819836546
 20
356.93721031244377
 11
-25.251755819836546
 21
366.43721031244377
  0
LINE
  8
_0-0_FRF74-1712
  6
CONTINUOUS
 62
    7
 10
-25.251755819836546
 20
347.43721031244377
 11
-25.251755819836546
 21
356.93721031244377
  0
LINE
  8
_0-0_FRF74-1712
  6
CONTINUOUS
 62
    7
 10
-21.251755819836546
 20
356.93721031244377
 11
-21.251755819836546
 21
366.43721031244377
  0
LINE
  8
_0-0_FRF74-1712
  6
CONTINUOUS
 62
    7
 10
-21.251755819836546
 20
347.43721031244377
 11
-21.251755819836546
 21
356.93721031244377
  0
LINE
  8
_0-0_FRF74-1712
  6
CONTINUOUS
 62
    7
 10
-55.251755819836546
 20
356.93721031244377
 11
-55.251755819836546
 21
362.93721031244377
  0
LINE
  8
_0-0_FRF74-1712
  6
CONTINUOUS
 62
    7
 10
-55.251755819836546
 20
350.93721031244377
 11
-55.251755819836546
 21
356.93721031244377
  0
LINE
  8
_0-0_FRF74-1712
  6
CONTINUOUS
 62
    8
 10
-25.751755819836546
 20
356.93721031244377
 11
-25.751755819836546
 21
362.93721031244371
  0
LINE
  8
_0-0_FRF74-1712
  6
CONTINUOUS
 62
    8
 10
-25.751755819836546
 20
350.93721031244377
 11
-25.751755819836546
 21
356.93721031244377
  0
CIRCLE
  8
_0-0_FRF74-1712
  6
CONTINUOUS
 62
    7
 10
34.748244180163454
 20
356.93721031244377
 40
9.5
  0
CIRCLE
  8
_0-0_FRF74-1712
  6
DASHED1
 62
    7
 10
34.748244180163454
 20
356.93721031244377
 40
6
  0
TEXT
  8
_0-2_
 62
    7
 10
-102.25356961893203
 20
224.64639311296872
 40
3
 41
1
 50
0
  1
フック　-LANGBERGER,Viola-
  0
TEXT
  8
_0-2_
 62
    7
 10
-103.09923875432537
 20
215.65785467128023
 40
3
 41
1
 50
0
  1
クローム
  0
ENDSEC
  0
EOF
