  0
SECTION
  2
HEADER
  9
$ACADVER
  1
AC1009
  9
$INSBASE
 10
0.0
 20
0.0
 30
0.0
  9
$EXTMIN
 10
-4.7010300000000003
 20
-21.071000000000002
 30
0.0
  9
$EXTMAX
 10
205.30099999999999
 20
275.93099999999998
 30
0.0
  9
$LIMMIN
 10
0.0
 20
0.0
  9
$LIMMAX
 10
12.0
 20
9.0
  9
$ORTHOMODE
 70
     0
  9
$REGENMODE
 70
     1
  9
$FILLMODE
 70
     1
  9
$QTEXTMODE
 70
     0
  9
$MIRRTEXT
 70
     1
  9
$DRAGMODE
 70
     2
  9
$LTSCALE
 40
1.0
  9
$OSMODE
 70
    37
  9
$ATTMODE
 70
     1
  9
$TEXTSIZE
 40
0.0
  9
$TRACEWID
 40
0.05
  9
$TEXTSTYLE
  7
STANDARD
  9
$CLAYER
  8
0
  9
$CELTYPE
  6
CONTINUOUS
  9
$CECOLOR
 62
   256
  9
$DIMSCALE
 40
1.0
  9
$DIMASZ
 40
0.18
  9
$DIMEXO
 40
0.0625
  9
$DIMDLI
 40
0.38
  9
$DIMRND
 40
0.0
  9
$DIMDLE
 40
0.0
  9
$DIMEXE
 40
0.18
  9
$DIMTP
 40
0.0
  9
$DIMTM
 40
0.0
  9
$DIMTXT
 40
0.18
  9
$DIMCEN
 40
0.09
  9
$DIMTSZ
 40
0.0
  9
$DIMTOL
 70
     0
  9
$DIMLIM
 70
     0
  9
$DIMTIH
 70
     1
  9
$DIMTOH
 70
     1
  9
$DIMSE1
 70
     0
  9
$DIMSE2
 70
     0
  9
$DIMTAD
 70
     0
  9
$DIMZIN
 70
     0
  9
$DIMBLK
  1

  9
$DIMASO
 70
     1
  9
$DIMSHO
 70
     1
  9
$DIMPOST
  1

  9
$DIMAPOST
  1

  9
$DIMALT
 70
     0
  9
$DIMALTD
 70
     2
  9
$DIMALTF
 40
25.399999999999999
  9
$DIMLFAC
 40
1.0
  9
$DIMTOFL
 70
     0
  9
$DIMTVP
 40
0.0
  9
$DIMTIX
 70
     0
  9
$DIMSOXD
 70
     0
  9
$DIMSAH
 70
     0
  9
$DIMBLK1
  1

  9
$DIMBLK2
  1

  9
$DIMSTYLE
  2
STANDARD
  9
$DIMCLRD
 70
     0
  9
$DIMCLRE
 70
     0
  9
$DIMCLRT
 70
     0
  9
$DIMTFAC
 40
1.0
  9
$DIMGAP
 40
0.09
  9
$LUNITS
 70
     2
  9
$LUPREC
 70
     4
  9
$SKETCHINC
 40
0.1
  9
$FILLETRAD
 40
0.0
  9
$AUNITS
 70
     0
  9
$AUPREC
 70
     0
  9
$MENU
  1
.
  9
$ELEVATION
 40
0.0
  9
$PELEVATION
 40
0.0
  9
$THICKNESS
 40
0.0
  9
$LIMCHECK
 70
     0
  9
$BLIPMODE
 70
     0
  9
$CHAMFERA
 40
0.0
  9
$CHAMFERB
 40
0.0
  9
$SKPOLY
 70
     0
  9
$TDCREATE
 40
2444972.375
  9
$TDUPDATE
 40
2457827.247029827
  9
$TDINDWG
 40
0.0000324769
  9
$TDUSRTIMER
 40
0.0000324769
  9
$USRTIMER
 70
     1
  9
$ANGBASE
 50
0.0
  9
$ANGDIR
 70
     0
  9
$PDMODE
 70
     0
  9
$PDSIZE
 40
0.0
  9
$PLINEWID
 40
0.0
  9
$COORDS
 70
     1
  9
$SPLFRAME
 70
     0
  9
$SPLINETYPE
 70
     6
  9
$SPLINESEGS
 70
     8
  9
$ATTDIA
 70
     1
  9
$ATTREQ
 70
     1
  9
$HANDLING
 70
     1
  9
$HANDSEED
  5
2DE
  9
$SURFTAB1
 70
     6
  9
$SURFTAB2
 70
     6
  9
$SURFTYPE
 70
     6
  9
$SURFU
 70
     6
  9
$SURFV
 70
     6
  9
$UCSNAME
  2

  9
$UCSORG
 10
0.0
 20
0.0
 30
0.0
  9
$UCSXDIR
 10
1.0
 20
0.0
 30
0.0
  9
$UCSYDIR
 10
0.0
 20
1.0
 30
0.0
  9
$PUCSNAME
  2

  9
$PUCSORG
 10
0.0
 20
0.0
 30
0.0
  9
$PUCSXDIR
 10
1.0
 20
0.0
 30
0.0
  9
$PUCSYDIR
 10
0.0
 20
1.0
 30
0.0
  9
$USERI1
 70
     0
  9
$USERI2
 70
     0
  9
$USERI3
 70
     0
  9
$USERI4
 70
     0
  9
$USERI5
 70
     0
  9
$USERR1
 40
0.0
  9
$USERR2
 40
0.0
  9
$USERR3
 40
0.0
  9
$USERR4
 40
0.0
  9
$USERR5
 40
0.0
  9
$WORLDVIEW
 70
     1
  9
$SHADEDGE
 70
     3
  9
$SHADEDIF
 70
    70
  9
$TILEMODE
 70
     1
  9
$MAXACTVP
 70
    48
  9
$PLIMCHECK
 70
     0
  9
$PEXTMIN
 10
1.0000000000000000E+020
 20
1.0000000000000000E+020
 30
1.0000000000000000E+020
  9
$PEXTMAX
 10
-1.0000000000000000E+020
 20
-1.0000000000000000E+020
 30
-1.0000000000000000E+020
  9
$PLIMMIN
 10
0.0
 20
0.0
  9
$PLIMMAX
 10
12.0
 20
9.0
  9
$UNITMODE
 70
     0
  9
$VISRETAIN
 70
     1
  9
$PLINEGEN
 70
     0
  9
$PSLTSCALE
 70
     1
  0
ENDSEC
  0
SECTION
  2
TABLES
  0
TABLE
  2
VPORT
 70
     1
  0
VPORT
  2
*ACTIVE
 70
     0
 10
0.0
 20
0.0
 11
1.0
 21
1.0
 12
242.9425313879114
 22
127.42999999999989
 13
0.0
 23
0.0
 14
1.0
 24
1.0
 15
0.0
 25
0.0
 16
0.0
 26
0.0
 36
1.0
 17
0.0
 27
0.0
 37
0.0
 40
271.07266271200172
 41
1.5328467153284671
 42
50.0
 43
0.0
 44
0.0
 50
0.0
 51
0.0
 71
     0
 72
   100
 73
     1
 74
     1
 75
     0
 76
     0
 77
     0
 78
     0
  0
ENDTAB
  0
TABLE
  2
LTYPE
 70
     3
  0
LTYPE
  2
CONTINUOUS
 70
     0
  3
Solid line
 72
    65
 73
     0
 40
0.0
  0
LTYPE
  2
AIGENLINE001
 70
     0
  3
generate AI->DXF Converter
 72
    65
 73
     4
 40
5.8561449999999988
 49
3.5278
 49
-0.776115
 49
0.776115
 49
-0.776115
  0
LTYPE
  2
AIGENLINE002
 70
     0
  3
generate AI->DXF Converter
 72
    65
 73
     2
 40
1.5522299999999991
 49
0.776115
 49
-0.776115
  0
ENDTAB
  0
TABLE
  2
LAYER
 70
     2
  0
LAYER
  2
0
 70
     0
 62
     7
  6
CONTINUOUS
  0
LAYER
  2
_________2
 70
     0
 62
     7
  6
CONTINUOUS
  0
ENDTAB
  0
TABLE
  2
STYLE
 70
     1
  0
STYLE
  2
STANDARD
 70
     0
 40
0.0
 41
0.0
 50
0.0
 71
     0
 42
0.0
  3
TXT
  4
EXTFONT.SHX
  0
ENDTAB
  0
TABLE
  2
VIEW
 70
     0
  0
ENDTAB
  0
TABLE
  2
UCS
 70
     0
  0
ENDTAB
  0
TABLE
  2
APPID
 70
     3
  0
APPID
  2
ACAD
 70
     0
  0
APPID
  2
ACAD_NAV_VCDISPLAY
 70
     0
  0
APPID
  2
ACAD_MLEADERVER
 70
     0
  0
ENDTAB
  0
TABLE
  2
DIMSTYLE
 70
     1
  0
DIMSTYLE
  2
STANDARD
 70
     0
  3

  4

  5

  6

  7

 40
1.0
 41
0.18
 42
0.0625
 43
0.38
 44
0.18
 45
0.0
 46
0.0
 47
0.0
 48
0.0
140
0.18
141
0.09
142
0.0
143
25.399999999999999
144
1.0
145
0.0
146
1.0
147
0.09
 71
     0
 72
     0
 73
     1
 74
     1
 75
     0
 76
     0
 77
     0
 78
     0
170
     0
171
     2
172
     0
173
     0
174
     0
175
     0
176
     0
177
     0
178
     0
  0
ENDTAB
  0
ENDSEC
  0
SECTION
  2
BLOCKS
  0
BLOCK
  8
0
  2
$MODEL_SPACE
 70
     0
 10
0.0
 20
0.0
 30
0.0
  3
$MODEL_SPACE
  1

  0
ENDBLK
  5
1A
  8
0
  0
BLOCK
 67
     1
  8
0
  2
$PAPER_SPACE
 70
     0
 10
0.0
 20
0.0
 30
0.0
  3
$PAPER_SPACE
  1

  0
ENDBLK
  5
17
 67
     1
  8
0
  0
ENDSEC
  0
SECTION
  2
ENTITIES
  0
TEXT
  5
23
  8
0
 62
     7
 10
173.84999999999999
 20
118.663918
 30
0.0
 40
3.0923400000000001
  1
カウンター厚さ：max.25
 50
90.0
 41
0.5
 72
     2
 11
173.84999999999999
 21
141.238
 31
0.0
  0
TEXT
  5
24
  8
0
 62
     7
 10
26.039200000000001
 20
98.08628250000001
 30
0.0
 40
3.0923400000000001
  1
150
 50
90.0
 41
0.5
 72
     1
 11
26.039200000000001
 21
99.761300000000006
 31
0.0
  0
TEXT
  5
25
  8
0
 62
     7
 10
102.501
 20
94.752782499999995
 30
0.0
 40
3.0923400000000001
  1
190
 50
90.0
 41
0.5
 72
     1
 11
102.501
 21
96.427800000000005
 31
0.0
  0
TEXT
  5
26
  8
0
 62
     7
 10
30.866499999999998
 20
115.76522
 30
0.0
 40
3.0923400000000001
  1
5
 50
90.0
 41
0.5
 72
     2
 11
30.866499999999998
 21
116.79600000000001
 31
0.0
  0
TEXT
  5
27
  8
0
 62
     7
 10
130.55575999999999
 20
158.35400000000001
 30
0.0
 40
3.0923400000000001
  1
カウンター切込寸法
 41
0.5
 72
     1
 11
138.80199999999999
 21
158.35400000000001
 31
0.0
  0
TEXT
  5
28
  8
0
 62
     7
 10
130.0137122392324
 20
188.91571223923239
 30
0.0
 40
3.0923400000000001
  1
%%c320
 50
45.0
 41
0.5
 72
     1
 11
131.92699999999999
 21
190.82900000000001
 31
0.0
  0
TEXT
  5
29
  8
0
 62
     7
 10
51.479700000000001
 20
190.41499999999999
 30
0.0
 40
3.0923400000000001
  1
%%c46
 41
0.5
  0
TEXT
  5
2A
  8
0
 62
     7
 10
61.309255
 20
149.38999999999999
 30
0.0
 40
3.0923400000000001
  1
%%c338
 41
0.5
 72
     1
 11
64.143900000000002
 21
149.38999999999999
 31
0.0
  0
TEXT
  5
2B
  8
0
 62
     7
 10
96.155640000000005
 20
156.505
 30
0.0
 40
3.0923400000000001
  1
19
 41
0.5
 72
     2
 11
98.217200000000005
 21
156.505
 31
0.0
  0
TEXT
  5
2C
  8
0
 62
     7
 10
29.549800000000001
 20
156.505
 30
0.0
 40
3.0923400000000001
  1
19
 41
0.5
  0
TEXT
  5
2D
  8
0
 62
     7
 10
61.566949999999999
 20
156.505
 30
0.0
 40
3.0923400000000001
  1
%%c300
 41
0.5
 72
     1
 11
64.143900000000002
 21
156.505
 31
0.0
  0
TEXT
  5
2E
  8
0
 62
     7
 10
96.405199999999994
 20
97.457234999999997
 30
0.0
 40
3.0923400000000001
  1
156
 50
90.0
 41
0.5
 72
     1
 11
96.405199999999994
 21
99.261100000000013
 31
0.0
  0
LINE
  5
2F
  8
0
 62
     7
 10
173.958
 20
113.639
 30
0.0
 11
174.55000000000001
 21
111.428
 31
0.0
  0
LINE
  5
30
  8
0
 62
     7
 10
174.55000000000001
 20
111.428
 30
0.0
 11
175.142
 21
113.639
 31
0.0
  0
LINE
  5
31
  8
0
 62
     7
 10
175.142
 20
113.639
 30
0.0
 11
173.958
 21
113.639
 31
0.0
  0
LINE
  5
32
  8
0
 62
     7
 10
175.142
 20
104.693
 30
0.0
 11
174.55000000000001
 21
106.904
 31
0.0
  0
LINE
  5
33
  8
0
 62
     7
 10
174.55000000000001
 20
106.904
 30
0.0
 11
173.958
 21
104.693
 31
0.0
  0
LINE
  5
34
  8
0
 62
     7
 10
173.958
 20
104.693
 30
0.0
 11
175.142
 21
104.693
 31
0.0
  0
LINE
  5
35
  8
0
 62
     7
 10
174.55000000000001
 20
102.715
 30
0.0
 11
174.55000000000001
 21
141.238
 31
0.0
  0
LINE
  5
36
  8
0
 62
     7
 10
164.47900000000001
 20
106.904
 30
0.0
 11
175.25
 21
106.904
 31
0.0
  0
LINE
  5
37
  8
0
 62
     7
 10
167.834
 20
111.428
 30
0.0
 11
175.24299999999999
 21
111.428
 31
0.0
  0
LINE
  5
38
  8
0
 62
     7
 10
26.146699999999999
 20
89.471800000000016
 30
0.0
 11
26.7393
 21
87.261399999999995
 31
0.0
  0
LINE
  5
39
  8
0
 62
     7
 10
26.7393
 20
87.261399999999995
 30
0.0
 11
27.331099999999999
 21
89.471800000000016
 31
0.0
  0
LINE
  5
3A
  8
0
 62
     7
 10
27.331099999999999
 20
89.471800000000016
 30
0.0
 11
26.146699999999999
 21
89.471800000000016
 31
0.0
  0
LINE
  5
3B
  8
0
 62
     7
 10
27.324300000000001
 20
110.051
 30
0.0
 11
26.732399999999998
 21
112.261
 31
0.0
  0
LINE
  5
3C
  8
0
 62
     7
 10
26.732399999999998
 20
112.261
 30
0.0
 11
26.139800000000001
 21
110.051
 31
0.0
  0
LINE
  5
3D
  8
0
 62
     7
 10
26.139800000000001
 20
110.051
 30
0.0
 11
27.324300000000001
 21
110.051
 31
0.0
  0
LINE
  5
3E
  8
0
 62
     7
 10
26.7393
 20
87.261399999999995
 30
0.0
 11
26.7393
 21
112.261
 31
0.0
  0
LINE
  5
3F
  8
0
 62
     7
 10
26.039200000000001
 20
87.261399999999995
 30
0.0
 11
56.741399999999999
 21
87.261399999999995
 31
0.0
  0
LINE
  5
40
  8
0
 62
     7
 10
102.616
 20
82.8048
 30
0.0
 11
103.209
 21
80.594399999999993
 31
0.0
  0
LINE
  5
41
  8
0
 62
     7
 10
103.209
 20
80.594399999999993
 30
0.0
 11
103.801
 21
82.8048
 31
0.0
  0
LINE
  5
42
  8
0
 62
     7
 10
103.801
 20
82.8048
 30
0.0
 11
102.616
 21
82.8048
 31
0.0
  0
LINE
  5
43
  8
0
 62
     7
 10
103.786
 20
110.051
 30
0.0
 11
103.194
 21
112.261
 31
0.0
  0
LINE
  5
44
  8
0
 62
     7
 10
103.194
 20
112.261
 30
0.0
 11
102.602
 21
110.051
 31
0.0
  0
LINE
  5
45
  8
0
 62
     7
 10
102.602
 20
110.051
 30
0.0
 11
103.786
 21
110.051
 31
0.0
  0
LINE
  5
46
  8
0
 62
     7
 10
103.20099999999999
 20
80.594399999999993
 30
0.0
 11
103.20099999999999
 21
112.261
 31
0.0
  0
LINE
  5
47
  8
0
 62
     7
 10
70.344499999999996
 20
80.594399999999993
 30
0.0
 11
103.90900000000001
 21
80.594399999999993
 31
0.0
  0
ARC
  5
48
  8
0
 62
     7
 10
137.60464400000001
 20
112.514574
 30
0.0
 40
26.126429000000002
 50
284.8552279999999
 51
349.336859
  0
ARC
  5
49
  8
0
 62
     7
 10
139.31956299999999
 20
111.65037100000001
 30
0.0
 40
24.287042
 50
350.59191200000009
 51
359.4579470000001
  0
ARC
  5
4A
  8
0
 62
     7
 10
140.00083799999999
 20
112.514574
 30
0.0
 40
26.126429000000002
 50
190.663161
 51
255.144792
  0
ARC
  5
4B
  8
0
 62
     7
 10
138.28591900000001
 20
111.65037100000001
 30
0.0
 40
24.287042
 50
180.54207199999999
 51
189.40810799999991
  0
LINE
  5
4C
  8
0
 62
     7
 10
133.303
 20
87.261399999999995
 30
0.0
 11
144.303
 21
87.261399999999995
 31
0.0
  0
LINE
  5
4D
  8
0
 62
     7
 10
133.303
 20
87.261399999999995
 30
0.0
 11
133.83199999999999
 21
86.943399999999997
 31
0.0
  0
LINE
  5
4E
  8
0
  6
AIGENLINE002
 62
     7
 10
133.83199999999999
 20
86.943399999999997
 30
0.0
 11
134.96899999999999
 21
86.260900000000007
 31
0.0
  0
LINE
  5
4F
  8
0
 62
     7
 10
144.303
 20
87.261399999999995
 30
0.0
 11
143.774
 21
86.943700000000007
 31
0.0
  0
LINE
  5
50
  8
0
  6
AIGENLINE002
 62
     7
 10
143.774
 20
86.943700000000007
 30
0.0
 11
142.636
 21
86.260900000000007
 31
0.0
  0
LINE
  5
51
  8
0
  6
AIGENLINE002
 62
     7
 10
134.96899999999999
 20
86.260900000000007
 30
0.0
 11
142.636
 21
86.260900000000007
 31
0.0
  0
ARC
  5
52
  8
0
 62
     7
 10
62.94617800000001
 20
112.514652
 30
0.0
 40
26.126508999999999
 50
284.85522300000002
 51
349.33671800000008
  0
ARC
  5
53
  8
0
 62
     7
 10
64.672200000000004
 20
111.649096
 30
0.0
 40
24.275946999999999
 50
350.59062299999999
 51
359.46070900000001
  0
ARC
  5
54
  8
0
 62
     7
 10
65.342406999999994
 20
112.51464300000001
 30
0.0
 40
26.1265
 50
190.663286
 51
255.14479600000001
  0
ARC
  5
55
  8
0
 62
     7
 10
63.616871000000003
 20
111.649173
 30
0.0
 40
24.276430000000001
 50
180.53948
 51
189.409391
  0
ARC
  5
56
  8
0
 62
     7
 10
166.320156
 20
112.004273
 30
0.0
 40
0.256665
 50
7.0787680000000002
 51
88.666815000000014
  0
ARC
  5
57
  8
0
 62
     7
 10
166.86985000000001
 20
111.686305
 30
0.0
 40
0.258579
 50
187.4437089999999
 51
268.30191400000012
  0
LINE
  5
58
  8
0
 62
     7
 10
166.613
 20
111.65300000000001
 30
0.0
 11
166.57499999999999
 21
112.036
 31
0.0
  0
ARC
  5
59
  8
0
 62
     7
 10
111.28429300000001
 20
112.004273
 30
0.0
 40
0.256665
 50
91.333165000000022
 51
172.92121299999999
  0
ARC
  5
5A
  8
0
 62
     7
 10
110.734588
 20
111.686328
 30
0.0
 40
0.258592
 50
271.62392299999999
 51
352.55159600000002
  0
LINE
  5
5B
  8
0
 62
     7
 10
110.991
 20
111.65300000000001
 30
0.0
 11
111.03
 21
112.036
 31
0.0
  0
LINE
  5
5C
  8
0
 62
     7
 10
110.63500000000001
 20
111.428
 30
0.0
 11
110.968
 21
111.428
 31
0.0
  0
LINE
  5
5D
  8
0
 62
     7
 10
166.96899999999999
 20
111.428
 30
0.0
 11
166.636
 21
111.428
 31
0.0
  0
LINE
  5
5E
  8
0
 62
     7
 10
110.96899999999999
 20
111.428
 30
0.0
 11
166.636
 21
111.428
 31
0.0
  0
LINE
  5
5F
  8
0
 62
     7
 10
111.27800000000001
 20
112.261
 30
0.0
 11
166.32599999999999
 21
112.261
 31
0.0
  0
LINE
  5
60
  8
0
 62
     7
 10
110.63500000000001
 20
111.428
 30
0.0
 11
110.96899999999999
 21
111.428
 31
0.0
  0
ARC
  5
61
  8
0
 62
     7
 10
91.661535999999984
 20
112.004273
 30
0.0
 40
0.256665
 50
7.0787680000000002
 51
88.666815000000014
  0
ARC
  5
62
  8
0
 62
     7
 10
92.211241000000001
 20
111.686328
 30
0.0
 40
0.258592
 50
187.44842299999999
 51
268.37609700000002
  0
LINE
  5
63
  8
0
 62
     7
 10
91.954800000000006
 20
111.65300000000001
 30
0.0
 11
91.916200000000003
 21
112.036
 31
0.0
  0
ARC
  5
64
  8
0
 62
     7
 10
36.62584600000001
 20
112.004273
 30
0.0
 40
0.256665
 50
91.333165000000022
 51
172.92121299999999
  0
ARC
  5
65
  8
0
 62
     7
 10
36.076566
 20
111.685858
 30
0.0
 40
0.258111
 50
271.53268300000002
 51
352.64283599999999
  0
LINE
  5
66
  8
0
 62
     7
 10
36.332599999999999
 20
111.65300000000001
 30
0.0
 11
36.371099999999998
 21
112.036
 31
0.0
  0
LINE
  5
67
  8
0
 62
     7
 10
35.976999999999997
 20
111.428
 30
0.0
 11
36.309800000000003
 21
111.428
 31
0.0
  0
ARC
  5
68
  8
0
 62
     7
 10
64.143945000000002
 20
196.44558699999999
 30
0.0
 40
27.750252
 50
270.00002000000001
 51
359.99999000000003
  0
ARC
  5
69
  8
0
 62
     7
 10
64.143945000000002
 20
196.44557699999999
 30
0.0
 40
27.750243000000001
 50
179.99996999999999
 51
270.00002000000001
  0
ARC
  5
6A
  8
0
 62
     7
 10
64.143953999999994
 20
196.44557699999999
 30
0.0
 40
27.750252
 50
90.0
 51
179.99996999999999
  0
ARC
  5
6B
  8
0
 62
     7
 10
64.143945000000002
 20
196.44557699999999
 30
0.0
 40
27.750252
 50
0.00001
 51
89.999980000000008
  0
LINE
  5
6C
  8
0
 62
     7
 10
133.30199999999999
 20
86.943399999999997
 30
0.0
 11
144.303
 21
86.943399999999997
 31
0.0
  0
LINE
  5
6D
  8
0
 62
     7
 10
133.30199999999999
 20
86.943399999999997
 30
0.0
 11
133.30199999999999
 21
80.593999999999994
 31
0.0
  0
LINE
  5
6E
  8
0
  6
AIGENLINE001
 62
     7
 10
138.80199999999999
 20
79.168499999999995
 30
0.0
 11
138.80199999999999
 21
114.748
 31
0.0
  0
LINE
  5
6F
  8
0
 62
     7
 10
133.30199999999999
 20
80.593999999999994
 30
0.0
 11
144.303
 21
80.593999999999994
 31
0.0
  0
LINE
  5
70
  8
0
 62
     7
 10
153.422
 20
82.390699999999995
 30
0.0
 11
153.262
 21
82.344800000000006
 31
0.0
  0
LINE
  5
71
  8
0
 62
     7
 10
152.36500000000001
 20
86.076300000000003
 30
0.0
 11
152.334
 21
86.065899999999999
 31
0.0
  0
ARC
  5
72
  8
0
 62
     7
 10
153.576538
 20
82.442115000000001
 30
0.0
 40
0.171585
 50
287.37236899999999
 51
13.783982999999999
  0
ARC
  5
73
  8
0
 62
     7
 10
153.585463
 20
82.445862000000005
 30
0.0
 40
0.172765
 50
198.63116199999999
 51
284.1748
  0
ARC
  5
74
  8
0
 62
     7
 10
152.53495599999999
 20
86.117660000000015
 30
0.0
 40
0.174462
 50
108.649199
 51
193.72921999999991
  0
ARC
  5
75
  8
0
 62
     7
 10
152.520028
 20
86.112493000000001
 30
0.0
 40
0.175297
 50
18.899280000000001
 51
103.479119
  0
LINE
  5
76
  8
0
 62
     7
 10
152.68600000000001
 20
86.169300000000007
 30
0.0
 11
153.74299999999999
 21
82.482999999999976
 31
0.0
  0
LINE
  5
77
  8
0
 62
     7
 10
152.36500000000001
 20
86.076300000000003
 30
0.0
 11
153.422
 21
82.390699999999995
 31
0.0
  0
LINE
  5
78
  8
0
 62
     7
 10
152.93799999999999
 20
82.263900000000007
 30
0.0
 11
152.77699999999999
 21
82.2239
 31
0.0
  0
LINE
  5
79
  8
0
 62
     7
 10
152.011
 20
85.984600000000015
 30
0.0
 11
151.97900000000001
 21
85.977000000000004
 31
0.0
  0
ARC
  5
7A
  8
0
 62
     7
 10
153.095023
 20
82.309573999999984
 30
0.0
 40
0.170563
 50
285.269116
 51
11.935714000000001
  0
ARC
  5
7B
  8
0
 62
     7
 10
153.10315
 20
82.312944999999999
 30
0.0
 40
0.171897
 50
196.58192199999999
 51
282.35869300000002
  0
ARC
  5
7C
  8
0
 62
     7
 10
152.18005600000001
 20
86.020374000000004
 30
0.0
 40
0.173157
 50
106.384702
 51
191.918126
  0
ARC
  5
7D
  8
0
 62
     7
 10
152.166664
 20
86.015609999999995
 30
0.0
 40
0.174528
 50
16.753969999999999
 51
101.720578
  0
LINE
  5
7E
  8
0
 62
     7
 10
152.334
 20
86.065899999999999
 30
0.0
 11
153.262
 21
82.344800000000006
 31
0.0
  0
LINE
  5
7F
  8
0
 62
     7
 10
152.011
 20
85.984600000000015
 30
0.0
 11
152.93799999999999
 21
82.263900000000007
 31
0.0
  0
LINE
  5
80
  8
0
 62
     7
 10
152.45099999999999
 20
82.154300000000006
 30
0.0
 11
152.2879999999999
 21
82.120199999999997
 31
0.0
  0
LINE
  5
81
  8
0
 62
     7
 10
151.65299999999999
 20
85.9054
 30
0.0
 11
151.62100000000001
 21
85.898799999999994
 31
0.0
  0
ARC
  5
82
  8
0
 62
     7
 10
152.60754299999999
 20
82.195268999999996
 30
0.0
 40
0.171691
 50
283.38535400000001
 51
9.6077790000000007
  0
ARC
  5
83
  8
0
 62
     7
 10
152.616849
 20
82.197246999999976
 30
0.0
 40
0.171725
 50
194.47160600000001
 51
280.21024299999999
  0
ARC
  5
84
  8
0
 62
     7
 10
151.822731
 20
85.935506999999987
 30
0.0
 40
0.172357
 50
103.94779200000001
 51
190.067767
  0
ARC
  5
85
  8
0
 62
     7
 10
151.81103400000001
 20
85.931624999999997
 30
0.0
 40
0.17374
 50
14.446349
 51
99.892015000000001
  0
LINE
  5
86
  8
0
 62
     7
 10
151.97900000000001
 20
85.974999999999994
 30
0.0
 11
152.77699999999999
 21
82.2239
 31
0.0
  0
LINE
  5
87
  8
0
 62
     7
 10
151.65299999999999
 20
85.9054
 30
0.0
 11
152.45099999999999
 21
82.154300000000006
 31
0.0
  0
LINE
  5
88
  8
0
 62
     7
 10
151.959
 20
82.062299999999993
 30
0.0
 11
151.79499999999999
 21
82.033800000000014
 31
0.0
  0
LINE
  5
89
  8
0
 62
     7
 10
151.29300000000001
 20
85.839200000000005
 30
0.0
 11
151.261
 21
85.833699999999993
 31
0.0
  0
ARC
  5
8A
  8
0
 62
     7
 10
152.11714799999999
 20
82.098380000000006
 30
0.0
 40
0.172207
 50
281.63619799999998
 51
7.2884539999999989
  0
ARC
  5
8B
  8
0
 62
     7
 10
152.12734599999999
 20
82.100653000000008
 30
0.0
 40
0.172693
 50
192.81498999999999
 51
278.16799099999997
  0
ARC
  5
8C
  8
0
 62
     7
 10
151.46269899999999
 20
85.863279999999989
 30
0.0
 40
0.171381
 50
101.659958
 51
188.06656799999999
  0
ARC
  5
8D
  8
0
 62
     7
 10
151.45252600000001
 20
85.860032999999987
 30
0.0
 40
0.172831
 50
12.387419
 51
98.137332000000015
  0
LINE
  5
8E
  8
0
 62
     7
 10
151.62100000000001
 20
85.897099999999995
 30
0.0
 11
152.2879999999999
 21
82.120199999999997
 31
0.0
  0
LINE
  5
8F
  8
0
 62
     7
 10
151.29300000000001
 20
85.839200000000005
 30
0.0
 11
151.959
 21
82.062299999999993
 31
0.0
  0
LINE
  5
90
  8
0
 62
     7
 10
151.261
 20
85.831299999999999
 30
0.0
 11
151.79499999999999
 21
82.033800000000014
 31
0.0
  0
LINE
  5
91
  8
0
 62
     7
 10
151.464
 20
81.987899999999996
 30
0.0
 11
151.30000000000001
 21
81.964500000000001
 31
0.0
  0
LINE
  5
92
  8
0
 62
     7
 10
150.93100000000001
 20
85.784800000000004
 30
0.0
 11
150.899
 21
85.780299999999997
 31
0.0
  0
ARC
  5
93
  8
0
 62
     7
 10
151.624752
 20
82.016559999999984
 30
0.0
 40
0.171081
 50
279.27952199999999
 51
5.7681269999999998
  0
ARC
  5
94
  8
0
 62
     7
 10
151.63318000000001
 20
82.018295999999992
 30
0.0
 40
0.171651
 50
190.18824000000001
 51
276.40852999999998
  0
ARC
  5
95
  8
0
 62
     7
 10
151.102878
 20
85.802086000000003
 30
0.0
 40
0.172813
 50
100.115516
 51
185.74132599999999
  0
ARC
  5
96
  8
0
 62
     7
 10
151.090644
 20
85.799897000000001
 30
0.0
 40
0.173265
 50
10.560286
 51
96.002170000000007
  0
LINE
  5
97
  8
0
 62
     7
 10
151.261
 20
85.831699999999998
 30
0.0
 11
151.79499999999999
 21
82.033800000000014
 31
0.0
  0
LINE
  5
98
  8
0
 62
     7
 10
150.93100000000001
 20
85.784800000000004
 30
0.0
 11
151.464
 21
81.987899999999996
 31
0.0
  0
LINE
  5
99
  8
0
 62
     7
 10
150.899
 20
85.778599999999983
 30
0.0
 11
151.30000000000001
 21
81.964500000000001
 31
0.0
  0
LINE
  5
9A
  8
0
 62
     7
 10
150.96799999999999
 20
81.930099999999996
 30
0.0
 11
150.80199999999999
 21
81.912499999999994
 31
0.0
  0
LINE
  5
9B
  8
0
 62
     7
 10
150.56700000000001
 20
85.743099999999998
 30
0.0
 11
150.535
 21
85.739999999999995
 31
0.0
  0
ARC
  5
9C
  8
0
 62
     7
 10
151.12717900000001
 20
81.954033999999993
 30
0.0
 40
0.172698
 50
277.83790299999998
 51
3.4768050000000001
  0
ARC
  5
9D
  8
0
 62
     7
 10
151.13833199999999
 20
81.954830999999999
 30
0.0
 40
0.172328
 50
188.26579899999999
 51
274.12570499999998
  0
ARC
  5
9E
  8
0
 62
     7
 10
150.739328
 20
85.755114000000006
 30
0.0
 40
0.172618
 50
98.012296000000006
 51
183.98710299999999
  0
ARC
  5
9F
  8
0
 62
     7
 10
150.72703100000001
 20
85.752635999999995
 30
0.0
 40
0.173811
 50
8.5901029999999992
 51
93.880826999999996
  0
LINE
  5
A0
  8
0
 62
     7
 10
150.899
 20
85.778599999999983
 30
0.0
 11
151.30000000000001
 21
81.964500000000001
 31
0.0
  0
LINE
  5
A1
  8
0
 62
     7
 10
150.56700000000001
 20
85.743099999999998
 30
0.0
 11
150.96799999999999
 21
81.930099999999996
 31
0.0
  0
LINE
  5
A2
  8
0
 62
     7
 10
150.46899999999999
 20
81.889700000000005
 30
0.0
 11
150.304
 21
81.877700000000004
 31
0.0
  0
LINE
  5
A3
  8
0
 62
     7
 10
150.202
 20
85.714200000000005
 30
0.0
 11
150.16999999999999
 21
85.712500000000006
 31
0.0
  0
ARC
  5
A4
  8
0
 62
     7
 10
150.62917300000001
 20
81.908136999999996
 30
0.0
 40
0.17331
 50
275.92195199999998
 51
1.4379169999999999
  0
ARC
  5
A5
  8
0
 62
     7
 10
150.640704
 20
81.908023999999997
 30
0.0
 40
0.172389
 50
186.08557999999999
 51
272.11105099999997
  0
ARC
  5
A6
  8
0
 62
     7
 10
150.376003
 20
85.718602000000004
 30
0.0
 40
0.174114
 50
96.502043000000015
 51
181.45776000000001
  0
ARC
  5
A7
  8
0
 62
     7
 10
150.36264700000001
 20
85.718182999999996
 30
0.0
 40
0.17353
 50
6.424523999999999
 51
92.100688000000005
  0
LINE
  5
A8
  8
0
 62
     7
 10
150.535
 20
85.7376
 30
0.0
 11
150.80199999999999
 21
81.912499999999994
 31
0.0
  0
LINE
  5
A9
  8
0
 62
     7
 10
150.202
 20
85.714200000000005
 30
0.0
 11
150.46899999999999
 21
81.889700000000005
 31
0.0
  0
LINE
  5
AA
  8
0
 62
     7
 10
149.97
 20
81.866699999999994
 30
0.0
 11
149.803
 21
81.860799999999998
 31
0.0
  0
LINE
  5
AB
  8
0
 62
     7
 10
149.83600000000001
 20
85.697599999999994
 30
0.0
 11
149.803
 21
85.696600000000004
 31
0.0
  0
ARC
  5
AC
  8
0
 62
     7
 10
150.13101599999999
 20
81.878681000000014
 30
0.0
 40
0.172562
 50
273.64933100000002
 51
359.671244
  0
ARC
  5
AD
  8
0
 62
     7
 10
150.14134999999999
 20
81.878109999999992
 30
0.0
 40
0.171643
 50
183.82293999999999
 51
270.21702499999998
  0
ARC
  5
AE
  8
0
 62
     7
 10
150.00888800000001
 20
85.697513999999984
 30
0.0
 40
0.172815
 50
94.072162999999989
 51
179.95938599999999
  0
ARC
  5
AF
  8
0
 62
     7
 10
149.99616499999999
 20
85.695953000000003
 30
0.0
 40
0.17394
 50
4.5311799999999991
 51
89.851251000000005
  0
LINE
  5
B0
  8
0
 62
     7
 10
150.16999999999999
 20
85.709699999999998
 30
0.0
 11
150.304
 21
81.877700000000004
 31
0.0
  0
LINE
  5
B1
  8
0
 62
     7
 10
149.83600000000001
 20
85.697599999999994
 30
0.0
 11
149.97
 21
81.866699999999994
 31
0.0
  0
LINE
  5
B2
  8
0
 62
     7
 10
149.47
 20
81.860799999999998
 30
0.0
 11
149.303
 21
81.860799999999998
 31
0.0
  0
LINE
  5
B3
  8
0
 62
     7
 10
149.47
 20
85.693799999999996
 30
0.0
 11
149.303
 21
85.693799999999996
 31
0.0
  0
ARC
  5
B4
  8
0
 62
     7
 10
149.63009
 20
81.866962999999984
 30
0.0
 40
0.173019
 50
272.15661
 51
357.96190200000001
  0
ARC
  5
B5
  8
0
 62
     7
 10
149.64316700000001
 20
81.867733999999984
 30
0.0
 40
0.173792
 50
182.283422
 51
267.83486600000009
  0
ARC
  5
B6
  8
0
 62
     7
 10
149.64245099999999
 20
85.687639999999988
 30
0.0
 40
0.173049
 50
91.937113999999994
 51
177.94459900000001
  0
ARC
  5
B7
  8
0
 62
     7
 10
149.63001800000001
 20
85.687620999999979
 30
0.0
 40
0.173094
 50
2.0610889999999991
 51
87.820398999999995
  0
LINE
  5
B8
  8
0
 62
     7
 10
149.803
 20
85.693799999999996
 30
0.0
 11
149.803
 21
81.860799999999998
 31
0.0
  0
LINE
  5
B9
  8
0
 62
     7
 10
149.47
 20
85.693799999999996
 30
0.0
 11
149.47
 21
81.860799999999998
 31
0.0
  0
LINE
  5
BA
  8
0
 62
     7
 10
148.97
 20
81.860799999999998
 30
0.0
 11
148.803
 21
81.860799999999998
 31
0.0
  0
LINE
  5
BB
  8
0
 62
     7
 10
148.97
 20
85.693799999999996
 30
0.0
 11
148.803
 21
85.693799999999996
 31
0.0
  0
ARC
  5
BC
  8
0
 62
     7
 10
149.13018099999999
 20
81.867011000000005
 30
0.0
 40
0.173044
 50
271.935721
 51
357.946031
  0
ARC
  5
BD
  8
0
 62
     7
 10
149.14261999999999
 20
81.867046000000002
 30
0.0
 40
0.173106
 50
182.0645889999999
 51
267.81693899999999
  0
ARC
  5
BE
  8
0
 62
     7
 10
149.14254099999999
 20
85.687689000000006
 30
0.0
 40
0.173024
 50
92.158004000000005
 51
177.96046899999999
  0
ARC
  5
BF
  8
0
 62
     7
 10
149.129471
 20
85.686933999999994
 30
0.0
 40
0.173781
 50
2.2799269999999998
 51
87.838319999999996
  0
LINE
  5
C0
  8
0
 62
     7
 10
149.303
 20
85.693799999999996
 30
0.0
 11
149.303
 21
81.860799999999998
 31
0.0
  0
LINE
  5
C1
  8
0
 62
     7
 10
148.97
 20
85.693799999999996
 30
0.0
 11
148.97
 21
81.860799999999998
 31
0.0
  0
LINE
  5
C2
  8
0
 62
     7
 10
148.46899999999999
 20
81.860799999999998
 30
0.0
 11
148.303
 21
81.860799999999998
 31
0.0
  0
LINE
  5
C3
  8
0
 62
     7
 10
148.46899999999999
 20
85.693799999999996
 30
0.0
 11
148.303
 21
85.693799999999996
 31
0.0
  0
ARC
  5
C4
  8
0
 62
     7
 10
148.629628
 20
81.866962999999984
 30
0.0
 40
0.173019
 50
272.15661
 51
357.96190200000001
  0
ARC
  5
C5
  8
0
 62
     7
 10
148.64270500000001
 20
81.867733999999984
 30
0.0
 40
0.173792
 50
182.283422
 51
267.83486600000009
  0
ARC
  5
C6
  8
0
 62
     7
 10
148.641989
 20
85.687639999999988
 30
0.0
 40
0.173049
 50
91.937113999999994
 51
177.94459900000001
  0
ARC
  5
C7
  8
0
 62
     7
 10
148.62955600000001
 20
85.687620999999979
 30
0.0
 40
0.173094
 50
2.0610889999999991
 51
87.820398999999995
  0
LINE
  5
C8
  8
0
 62
     7
 10
148.803
 20
85.693799999999996
 30
0.0
 11
148.803
 21
81.860799999999998
 31
0.0
  0
LINE
  5
C9
  8
0
 62
     7
 10
148.46899999999999
 20
85.693799999999996
 30
0.0
 11
148.46899999999999
 21
81.860799999999998
 31
0.0
  0
ARC
  5
CA
  8
0
 62
     7
 10
148.12971899999999
 20
81.867011000000005
 30
0.0
 40
0.173044
 50
271.935721
 51
357.946031
  0
ARC
  5
CB
  8
0
 62
     7
 10
148.14215799999999
 20
81.867046000000002
 30
0.0
 40
0.173106
 50
182.0645889999999
 51
267.81693899999999
  0
ARC
  5
CC
  8
0
 62
     7
 10
148.142079
 20
85.687689000000006
 30
0.0
 40
0.173024
 50
92.158004000000005
 51
177.96046899999999
  0
ARC
  5
CD
  8
0
 62
     7
 10
148.129009
 20
85.686933999999994
 30
0.0
 40
0.173781
 50
2.2799269999999998
 51
87.838319999999996
  0
LINE
  5
CE
  8
0
 62
     7
 10
148.46899999999999
 20
85.693799999999996
 30
0.0
 11
148.46899999999999
 21
81.860799999999998
 31
0.0
  0
LINE
  5
CF
  8
0
 62
     7
 10
148.303
 20
85.693799999999996
 30
0.0
 11
148.303
 21
81.860799999999998
 31
0.0
  0
LINE
  5
D0
  8
0
 62
     7
 10
147.96899999999999
 20
85.693799999999996
 30
0.0
 11
147.96899999999999
 21
81.860799999999998
 31
0.0
  0
ARC
  5
D1
  8
0
 62
     7
 10
145.37704600000001
 20
82.308433999999991
 30
0.0
 40
1.410312999999999
 50
205.348399
 51
209.55610100000001
  0
ARC
  5
D2
  8
0
 62
     7
 10
146.51564300000001
 20
82.848664999999997
 30
0.0
 40
2.6705730000000001
 50
196.987315
 51
205.36473000000001
  0
ARC
  5
D3
  8
0
 62
     7
 10
148.45464999999999
 20
83.489279999999994
 30
0.0
 40
4.7123679999999988
 50
188.33589000000001
 51
197.548621
  0
ARC
  5
D4
  8
0
 62
     7
 10
149.96881400000001
 20
83.757435999999984
 30
0.0
 40
6.2495789999999989
 50
179.81445600000001
 51
188.75584699999999
  0
ARC
  5
D5
  8
0
 62
     7
 10
145.37704600000001
 20
85.245878000000005
 30
0.0
 40
1.410312999999999
 50
150.44389899999999
 51
154.651601
  0
ARC
  5
D6
  8
0
 62
     7
 10
146.51559700000001
 20
84.705583999999988
 30
0.0
 40
2.6705580000000002
 50
154.63362499999999
 51
163.01033100000001
  0
ARC
  5
D7
  8
0
 62
     7
 10
148.455141
 20
84.064712
 30
0.0
 40
4.7129430000000001
 50
162.449037
 51
171.65750600000001
  0
ARC
  5
D8
  8
0
 62
     7
 10
149.96137100000001
 20
83.797749999999994
 30
0.0
 40
6.2421350000000002
 50
171.23895200000001
 51
180.18430599999999
  0
LINE
  5
D9
  8
0
 62
     7
 10
147.96899999999999
 20
86.277400000000014
 30
0.0
 11
144.303
 21
86.277400000000014
 31
0.0
  0
LINE
  5
DA
  8
0
 62
     7
 10
147.96899999999999
 20
81.276899999999983
 30
0.0
 11
144.303
 21
81.276899999999983
 31
0.0
  0
LINE
  5
DB
  8
0
 62
     7
 10
147.96899999999999
 20
86.277400000000014
 30
0.0
 11
147.96899999999999
 21
81.276899999999983
 31
0.0
  0
LINE
  5
DC
  8
0
 62
     7
 10
144.303
 20
86.943399999999997
 30
0.0
 11
144.303
 21
86.277400000000014
 31
0.0
  0
LINE
  5
DD
  8
0
 62
     7
 10
144.303
 20
81.276899999999983
 30
0.0
 11
144.303
 21
80.593999999999994
 31
0.0
  0
LINE
  5
DE
  8
0
  6
AIGENLINE001
 62
     7
 10
149.636
 20
83.777699999999996
 30
0.0
 11
142.435
 21
83.777699999999996
 31
0.0
  0
ARC
  5
DF
  8
0
  6
AIGENLINE001
 62
     7
 10
149.64033800000001
 20
94.170197999999999
 30
0.0
 40
10.392526
 50
269.97370999999998
 51
287.06639200000001
  0
ARC
  5
E0
  8
0
  6
AIGENLINE001
 62
     7
 10
149.77670499999999
 20
93.384581999999995
 30
0.0
 40
9.6020070000000004
 50
287.66430700000001
 51
309.828059
  0
ARC
  5
E1
  8
0
  6
AIGENLINE001
 62
     7
 10
148.24430899999999
 20
95.40792900000001
 30
0.0
 40
12.137938
 50
309.26589300000001
 51
319.21359200000001
  0
ARC
  5
E2
  8
0
  6
AIGENLINE001
 62
     7
 10
145.49088999999989
 20
97.902772999999996
 30
0.0
 40
15.852682
 50
318.887134
 51
325.378759
  0
ARC
  5
E3
  8
0
  6
AIGENLINE001
 62
     7
 10
141.43446499999999
 20
100.785501
 30
0.0
 40
20.828747
 50
325.19275399999998
 51
330.068556
  0
ARC
  5
E4
  8
0
  6
AIGENLINE001
 62
     7
 10
134.467861
 20
104.886161
 30
0.0
 40
28.91235
 50
329.91468500000002
 51
333.599017
  0
ARC
  5
E5
  8
0
  6
AIGENLINE001
 62
     7
 10
119.222807
 20
112.60812799999999
 30
0.0
 40
46.001190999999992
 50
333.42728899999997
 51
335.27975600000002
  0
ARC
  5
E6
  8
0
  6
AIGENLINE001
 62
     7
 10
40.429200999999992
 20
149.075321
 30
0.0
 40
132.82444899999999
 50
335.20434999999998
 51
335.74462499999998
  0
ARC
  5
E7
  8
0
  6
AIGENLINE001
 62
     7
 10
207.327652
 20
74.114041999999984
 30
0.0
 40
50.135691999999999
 50
154.23521099999999
 51
155.994496
  0
LINE
  5
E8
  8
0
  6
AIGENLINE001
 62
     7
 10
60.659599999999998
 20
219.959
 30
0.0
 11
67.646900000000002
 21
219.959
 31
0.0
  0
ARC
  5
E9
  8
0
 62
     7
 10
65.195521999999997
 20
219.196945
 30
0.0
 40
1.3412779999999991
 50
56.767795999999997
 51
67.299447999999998
  0
ARC
  5
EA
  8
0
 62
     7
 10
64.747284999999991
 20
218.200548
 30
0.0
 40
2.433643
 50
66.616927000000004
 51
75.366185000000002
  0
ARC
  5
EB
  8
0
 62
     7
 10
64.320490000000007
 20
216.67052200000001
 30
0.0
 40
4.0219480000000001
 50
74.990040000000008
 51
85.318761999999992
  0
ARC
  5
EC
  8
0
 62
     7
 10
64.150355000000005
 20
215.27071699999999
 30
0.0
 40
5.4312500000000004
 50
84.735102000000012
 51
90.067569999999975
  0
ARC
  5
ED
  8
0
 62
     7
 10
64.141626000000002
 20
215.40758099999999
 30
0.0
 40
5.294382999999999
 50
89.974847999999994
 51
100.6228789999999
  0
ARC
  5
EE
  8
0
 62
     7
 10
63.774436999999999
 20
217.49660299999999
 30
0.0
 40
3.1735660000000001
 50
101.05983500000001
 51
112.005315
  0
ARC
  5
EF
  8
0
 62
     7
 10
63.191978000000013
 20
219.00839400000001
 30
0.0
 40
1.5538920000000001
 50
112.979945
 51
122.504597
  0
ARC
  5
F0
  8
0
 62
     7
 10
64.798793000000003
 20
219.46302800000001
 30
0.0
 40
0.8657860000000001
 50
56.276906000000011
 51
69.102358999999993
  0
ARC
  5
F1
  8
0
 62
     7
 10
64.452904000000004
 20
218.64315300000001
 30
0.0
 40
1.7553759999999989
 50
68.100677000000005
 51
78.446876000000003
  0
ARC
  5
F2
  8
0
 62
     7
 10
64.177858000000001
 20
217.43679499999999
 30
0.0
 40
2.9925069999999989
 50
77.91328399999999
 51
90.649237999999997
  0
ARC
  5
F3
  8
0
 62
     7
 10
64.144867000000005
 20
217.01934
 30
0.0
 40
3.4097699999999991
 50
90.01540700000001
 51
99.665635000000009
  0
ARC
  5
F4
  8
0
 62
     7
 10
63.953645999999999
 20
218.22018700000001
 30
0.0
 40
2.1939039999999999
 50
100.00812000000001
 51
109.062619
  0
ARC
  5
F5
  8
0
 62
     7
 10
63.613202999999999
 20
219.22349700000001
 30
0.0
 40
1.1344389999999991
 50
109.36107699999999
 51
121.886398
  0
ARC
  5
F6
  8
0
 62
     7
 10
62.883508999999997
 20
220.385031
 30
0.0
 40
0.237344
 50
292.87638299999998
 51
303.33902699999999
  0
ARC
  5
F7
  8
0
 62
     7
 10
62.789748000000003
 20
220.593954
 30
0.0
 40
0.466311
 50
284.22391199999998
 51
293.51146
  0
ARC
  5
F8
  8
0
 62
     7
 10
62.698591999999998
 20
220.951267
 30
0.0
 40
0.835069
 50
269.13435900000002
 51
284.26271300000002
  0
ARC
  5
F9
  8
0
 62
     7
 10
62.688011000000003
 20
221.10771199999999
 30
0.0
 40
0.9914209999999998
 50
258.77317199999999
 51
269.88241499999998
  0
ARC
  5
FA
  8
0
 62
     7
 10
62.580436999999989
 20
220.56988699999999
 30
0.0
 40
0.442944
 50
238.87509800000001
 51
258.87718799999999
  0
ARC
  5
FB
  8
0
 62
     7
 10
62.417960999999998
 20
220.289152
 30
0.0
 40
0.118792
 50
215.401364
 51
235.96658199999999
  0
ARC
  5
FC
  8
0
 62
     7
 10
62.369165000000002
 20
220.25412
 30
0.0
 40
0.058723
 50
181.36579
 51
215.120857
  0
ARC
  5
FD
  8
0
 62
     7
 10
62.371058999999988
 20
220.251994
 30
0.0
 40
0.060605
 50
129.727576
 51
179.31335000000001
  0
ARC
  5
FE
  8
0
 62
     7
 10
62.447972
 20
220.18151900000001
 30
0.0
 40
0.164571
 50
123.42807000000001
 51
134.64614800000001
  0
ARC
  5
FF
  8
0
 62
     7
 10
65.403621000000001
 20
220.38315600000001
 30
0.0
 40
0.235354
 50
236.5665450000001
 51
247.096981
  0
ARC
  5
100
  8
0
 62
     7
 10
65.497476000000006
 20
220.59264099999999
 30
0.0
 40
0.4648770000000001
 50
246.489272
 51
255.81498400000001
  0
ARC
  5
101
  8
0
 62
     7
 10
65.589737
 20
220.954892
 30
0.0
 40
0.8386919999999999
 50
255.76878199999999
 51
270.85607800000002
  0
ARC
  5
102
  8
0
 62
     7
 10
65.600231999999991
 20
221.10274200000001
 30
0.0
 40
0.9864509999999999
 50
270.118244
 51
281.25518899999997
  0
ARC
  5
103
  8
0
 62
     7
 10
65.707207999999994
 20
220.569435
 30
0.0
 40
0.4425220000000001
 50
281.14795199999998
 51
301.147536
  0
ARC
  5
104
  8
0
 62
     7
 10
65.869574
 20
220.289141
 30
0.0
 40
0.118805
 50
304.052683
 51
324.60990299999997
  0
ARC
  5
105
  8
0
 62
     7
 10
65.91833299999999
 20
220.254131
 30
0.0
 40
0.05878
 50
324.90544299999999
 51
358.62513200000001
  0
ARC
  5
106
  8
0
 62
     7
 10
65.916207999999997
 20
220.25199000000001
 30
0.0
 40
0.060892
 50
0.6869220000000001
 51
49.953982000000003
  0
ARC
  5
107
  8
0
 62
     7
 10
65.842341000000005
 20
220.18405100000001
 30
0.0
 40
0.16094
 50
45.37961099999999
 51
56.895033999999988
  0
ARC
  5
108
  8
0
 62
     7
 10
65.191493999999992
 20
220.727642
 30
0.0
 40
1.3486679999999991
 50
292.75474000000003
 51
303.23111299999999
  0
ARC
  5
109
  8
0
 62
     7
 10
64.751998999999984
 20
221.706256
 30
0.0
 40
2.421254999999999
 50
284.92240500000003
 51
293.38828699999999
  0
ARC
  5
10A
  8
0
 62
     7
 10
64.326405000000008
 20
223.221036
 30
0.0
 40
3.9946000000000002
 50
274.86817000000002
 51
285.226046
  0
ARC
  5
10B
  8
0
 62
     7
 10
64.15043
 20
224.65824900000001
 30
0.0
 40
5.4418239999999987
 50
269.93178
 51
275.43014599999998
  0
ARC
  5
10C
  8
0
 62
     7
 10
64.141633999999996
 20
224.518317
 30
0.0
 40
5.301887999999999
 50
259.392247
 51
270.0250299999999
  0
ARC
  5
10D
  8
0
 62
     7
 10
63.774436999999999
 20
222.42166
 30
0.0
 40
3.1735660000000001
 50
247.99468500000009
 51
258.94016499999998
  0
ARC
  5
10E
  8
0
 62
     7
 10
63.190289999999997
 20
220.90525500000001
 30
0.0
 40
1.5489850000000001
 50
237.45378099999999
 51
247.010907
  0
ARC
  5
10F
  8
0
 62
     7
 10
64.795562000000004
 20
220.460239
 30
0.0
 40
0.871634
 50
290.97821699999997
 51
303.72184199999998
  0
ARC
  5
110
  8
0
 62
     7
 10
64.453494999999975
 20
221.27353099999999
 30
0.0
 40
1.753709999999999
 50
281.54456499999998
 51
291.90041600000001
  0
ARC
  5
111
  8
0
 62
     7
 10
64.178280000000001
 20
222.48310599999999
 30
0.0
 40
2.994019999999999
 50
269.34302200000002
 51
282.07226500000002
  0
ARC
  5
112
  8
0
 62
     7
 10
64.144869999999997
 20
222.90058099999999
 30
0.0
 40
3.4112989999999992
 50
260.33868999999999
 51
269.984554
  0
ARC
  5
113
  8
0
 62
     7
 10
63.953718999999992
 20
221.70103800000001
 30
0.0
 40
2.1967270000000001
 50
250.9608060000001
 51
260.00293799999997
  0
ARC
  5
114
  8
0
 62
     7
 10
63.613500000000002
 20
220.697326
 30
0.0
 40
1.1369530000000001
 50
238.174824
 51
250.66762200000011
  0
ARC
  5
115
  8
0
 62
     7
 10
62.882826000000001
 20
219.531971
 30
0.0
 40
0.238592
 50
56.662065999999989
 51
67.072249999999997
  0
ARC
  5
116
  8
0
 62
     7
 10
62.787857000000002
 20
219.32098999999999
 30
0.0
 40
0.469933
 50
66.429124000000002
 51
75.650071999999994
  0
ARC
  5
117
  8
0
 62
     7
 10
62.698338
 20
218.971048
 30
0.0
 40
0.8311430000000001
 50
75.650408999999996
 51
90.852212000000009
  0
ARC
  5
118
  8
0
 62
     7
 10
62.688011000000003
 20
218.81067999999999
 30
0.0
 40
0.9914209999999998
 50
90.117584999999991
 51
101.226828
  0
ARC
  5
119
  8
0
 62
     7
 10
62.580436999999989
 20
219.34850499999999
 30
0.0
 40
0.442944
 50
101.122812
 51
121.12490200000001
  0
ARC
  5
11A
  8
0
 62
     7
 10
62.417960999999998
 20
219.62924000000001
 30
0.0
 40
0.118792
 50
124.033418
 51
144.598636
  0
ARC
  5
11B
  8
0
 62
     7
 10
62.369165000000002
 20
219.66427300000001
 30
0.0
 40
0.058723
 50
144.879143
 51
178.63421
  0
ARC
  5
11C
  8
0
 62
     7
 10
62.371400999999999
 20
219.66640799999999
 30
0.0
 40
0.060948
 50
180.692148
 51
230.12113500000001
  0
ARC
  5
11D
  8
0
 62
     7
 10
62.443308999999999
 20
219.73195699999999
 30
0.0
 40
0.157904
 50
225.34261099999989
 51
237.0014220000001
  0
ARC
  5
11E
  8
0
 62
     7
 10
65.404296000000002
 20
219.533861
 30
0.0
 40
0.236587
 50
112.954458
 51
123.432361
  0
ARC
  5
11F
  8
0
 62
     7
 10
65.499351000000004
 20
219.322337
 30
0.0
 40
0.4684600000000001
 50
104.310823
 51
113.570187
  0
ARC
  5
120
  8
0
 62
     7
 10
65.589992000000009
 20
218.96744000000001
 30
0.0
 40
0.834749
 50
89.157371999999995
 51
104.317914
  0
ARC
  5
121
  8
0
 62
     7
 10
65.600231999999991
 20
218.81565000000001
 30
0.0
 40
0.9864509999999999
 50
78.744810999999999
 51
89.88175600000001
  0
ARC
  5
122
  8
0
 62
     7
 10
65.707207999999994
 20
219.34895700000001
 30
0.0
 40
0.4425220000000001
 50
58.852463999999991
 51
78.852047999999996
  0
ARC
  5
123
  8
0
 62
     7
 10
65.869574
 20
219.62925100000001
 30
0.0
 40
0.118805
 50
35.390096999999997
 51
55.947316999999998
  0
ARC
  5
124
  8
0
 62
     7
 10
65.91833299999999
 20
219.66426200000001
 30
0.0
 40
0.05878
 50
1.3748679999999991
 51
35.094557000000002
  0
ARC
  5
125
  8
0
 62
     7
 10
65.915863000000002
 20
219.66641200000001
 30
0.0
 40
0.061238
 50
310.19669199999998
 51
359.30753399999998
  0
ARC
  5
126
  8
0
 62
     7
 10
65.846772000000001
 20
219.72966099999999
 30
0.0
 40
0.154604
 50
302.67687999999998
 51
314.63077900000002
  0
ARC
  5
127
  8
0
 62
     7
 10
66.426426000000006
 20
219.96027100000001
 30
0.0
 40
0.384046
 50
329.203329
 51
359.83957800000002
  0
ARC
  5
128
  8
0
 62
     7
 10
66.224159
 20
220.06749199999999
 30
0.0
 40
0.612794
 50
313.85390899999999
 51
330.274654
  0
ARC
  5
129
  8
0
 62
     7
 10
65.905823999999996
 20
220.38047399999999
 30
0.0
 40
1.059113999999999
 50
301.37806399999999
 51
314.54170800000003
  0
ARC
  5
12A
  8
0
 62
     7
 10
65.434211000000005
 20
221.10871599999999
 30
0.0
 40
1.9265540000000001
 50
292.14367399999998
 51
302.07570099999998
  0
ARC
  5
12B
  8
0
 62
     7
 10
64.932969999999997
 20
222.265906
 30
0.0
 40
3.1874479999999989
 50
285.60515199999998
 51
292.64860499999998
  0
ARC
  5
12C
  8
0
 62
     7
 10
64.445238000000003
 20
223.944569
 30
0.0
 40
4.9354699999999987
 50
276.80739299999999
 51
285.81623500000001
  0
ARC
  5
12D
  8
0
 62
     7
 10
64.163677000000007
 20
225.85937799999999
 30
0.0
 40
6.8703549999999991
 50
269.835486
 51
277.24613900000003
  0
ARC
  5
12E
  8
0
 62
     7
 10
64.144636000000006
 20
226.03223499999999
 30
0.0
 40
7.0431839999999992
 50
260.54684700000001
 51
269.99442499999998
  0
ARC
  5
12F
  8
0
 62
     7
 10
63.780751000000002
 20
223.668015
 30
0.0
 40
4.6513970000000002
 50
251.19197700000001
 51
260.185203
  0
ARC
  5
130
  8
0
 62
     7
 10
63.16601
 20
221.775879
 30
0.0
 40
2.662250999999999
 50
242.84407899999999
 51
250.58708799999999
  0
ARC
  5
131
  8
0
 62
     7
 10
62.659964000000002
 20
220.77290199999999
 30
0.0
 40
1.5388859999999991
 50
232.020365
 51
242.564515
  0
ARC
  5
132
  8
0
 62
     7
 10
62.189681999999991
 20
220.164784
 30
0.0
 40
0.7701550000000002
 50
210.35960899999989
 51
231.757396
  0
ARC
  5
133
  8
0
 62
     7
 10
61.88317099999999
 20
219.96656100000001
 30
0.0
 40
0.40581
 50
181.03995800000001
 51
208.08271300000001
  0
ARC
  5
134
  8
0
 62
     7
 10
61.860953000000002
 20
219.95812900000001
 30
0.0
 40
0.383526
 50
149.177244
 51
179.84059600000001
  0
ARC
  5
135
  8
0
 62
     7
 10
62.063405000000003
 20
219.85093000000001
 30
0.0
 40
0.6124220000000001
 50
133.83914799999999
 51
150.269589
  0
ARC
  5
136
  8
0
 62
     7
 10
62.383749000000002
 20
219.53542100000001
 30
0.0
 40
1.0619499999999991
 50
121.385775
 51
134.515007
  0
ARC
  5
137
  8
0
 62
     7
 10
62.853944999999989
 20
218.808965
 30
0.0
 40
1.927125999999999
 50
112.141189
 51
122.071406
  0
ARC
  5
138
  8
0
 62
     7
 10
63.359063999999996
 20
217.642121
 30
0.0
 40
3.1984219999999999
 50
105.62445099999999
 51
112.644542
  0
ARC
  5
139
  8
0
 62
     7
 10
63.851210999999999
 20
215.94219699999999
 30
0.0
 40
4.9681069999999989
 50
96.501474000000016
 51
105.810339
  0
ARC
  5
13A
  8
0
 62
     7
 10
64.126031000000012
 20
214.031217
 30
0.0
 40
6.8981479999999991
 50
89.851159999999993
 51
96.972212999999982
  0
ARC
  5
13B
  8
0
 62
     7
 10
64.143275000000003
 20
213.88917699999999
 30
0.0
 40
7.040163999999999
 50
80.541595999999998
 51
89.994505000000004
  0
ARC
  5
13C
  8
0
 62
     7
 10
64.508546999999993
 20
216.25691699999999
 30
0.0
 40
4.6446759999999996
 50
71.180205000000001
 51
80.186474000000004
  0
ARC
  5
13D
  8
0
 62
     7
 10
65.123167000000009
 20
218.145768
 30
0.0
 40
2.6586789999999998
 50
62.833318999999989
 51
70.586076000000006
  0
ARC
  5
13E
  8
0
 62
     7
 10
65.628526000000008
 20
219.14635100000001
 30
0.0
 40
1.537758
 50
52.012934000000001
 51
62.563655000000011
  0
ARC
  5
13F
  8
0
 62
     7
 10
66.097825
 20
219.75306900000001
 30
0.0
 40
0.770736
 50
30.373336999999999
 51
51.749245000000002
  0
ARC
  5
140
  8
0
 62
     7
 10
66.404372999999993
 20
219.95168100000001
 30
0.0
 40
0.406166
 50
1.0601969999999989
 51
28.066074
  0
LINE
  5
141
  8
0
 62
     7
 10
30.974399999999999
 20
114.47199999999999
 30
0.0
 11
31.566600000000001
 21
112.261
 31
0.0
  0
LINE
  5
142
  8
0
 62
     7
 10
31.566600000000001
 20
112.261
 30
0.0
 11
32.158799999999999
 21
114.47199999999999
 31
0.0
  0
LINE
  5
143
  8
0
 62
     7
 10
32.158799999999999
 20
114.47199999999999
 30
0.0
 11
30.974399999999999
 21
114.47199999999999
 31
0.0
  0
LINE
  5
144
  8
0
 62
     7
 10
32.158799999999999
 20
109.217
 30
0.0
 11
31.566600000000001
 21
111.428
 31
0.0
  0
LINE
  5
145
  8
0
 62
     7
 10
31.566600000000001
 20
111.428
 30
0.0
 11
30.974
 21
109.217
 31
0.0
  0
LINE
  5
146
  8
0
 62
     7
 10
30.974
 20
109.217
 30
0.0
 11
32.158799999999999
 21
109.217
 31
0.0
  0
LINE
  5
147
  8
0
 62
     7
 10
31.566600000000001
 20
106.47199999999999
 30
0.0
 11
31.566600000000001
 21
116.79600000000001
 31
0.0
  0
LINE
  5
148
  8
0
 62
     7
 10
35.043700000000001
 20
111.428
 30
0.0
 11
30.866499999999998
 21
111.428
 31
0.0
  0
LINE
  5
149
  8
0
 62
     7
 10
35.4602
 20
112.261
 30
0.0
 11
26.165099999999999
 21
112.261
 31
0.0
  0
LINE
  5
14A
  8
0
 62
     7
 10
58.644199999999991
 20
87.261399999999995
 30
0.0
 11
69.644400000000005
 21
87.261399999999995
 31
0.0
  0
LINE
  5
14B
  8
0
 62
     7
 10
58.644199999999991
 20
87.261399999999995
 30
0.0
 11
59.17390000000001
 21
86.943399999999997
 31
0.0
  0
LINE
  5
14C
  8
0
  6
AIGENLINE002
 62
     7
 10
59.17390000000001
 20
86.943399999999997
 30
0.0
 11
60.31089999999999
 21
86.260900000000007
 31
0.0
  0
LINE
  5
14D
  8
0
 62
     7
 10
69.644400000000005
 20
87.261399999999995
 30
0.0
 11
69.115099999999984
 21
86.943700000000007
 31
0.0
  0
LINE
  5
14E
  8
0
  6
AIGENLINE002
 62
     7
 10
69.115099999999984
 20
86.943700000000007
 30
0.0
 11
67.977699999999984
 21
86.260900000000007
 31
0.0
  0
LINE
  5
14F
  8
0
  6
AIGENLINE002
 62
     7
 10
60.31089999999999
 20
86.260900000000007
 30
0.0
 11
67.977699999999984
 21
86.260900000000007
 31
0.0
  0
LINE
  5
150
  8
0
 62
     7
 10
58.644199999999991
 20
86.943700000000007
 30
0.0
 11
69.644400000000005
 21
86.943700000000007
 31
0.0
  0
LINE
  5
151
  8
0
 62
     7
 10
69.644400000000005
 20
86.943700000000007
 30
0.0
 11
69.644400000000005
 21
80.594399999999993
 31
0.0
  0
LINE
  5
152
  8
0
 62
     7
 10
58.644199999999991
 20
86.943700000000007
 30
0.0
 11
58.644199999999991
 21
80.594399999999993
 31
0.0
  0
LINE
  5
153
  8
0
  6
AIGENLINE001
 62
     7
 10
64.143900000000002
 20
78.043999999999997
 30
0.0
 11
64.143900000000002
 21
114.61199999999999
 31
0.0
  0
LINE
  5
154
  8
0
 62
     7
 10
58.644199999999991
 20
80.594399999999993
 30
0.0
 11
69.644400000000005
 21
80.594399999999993
 31
0.0
  0
LINE
  5
155
  8
0
 62
     7
 10
92.310900000000004
 20
111.428
 30
0.0
 11
91.977400000000003
 21
111.428
 31
0.0
  0
LINE
  5
156
  8
0
 62
     7
 10
36.310499999999998
 20
111.428
 30
0.0
 11
91.977400000000003
 21
111.428
 31
0.0
  0
LINE
  5
157
  8
0
 62
     7
 10
36.619900000000001
 20
112.261
 30
0.0
 11
91.667500000000004
 21
112.261
 31
0.0
  0
LINE
  5
158
  8
0
 62
     7
 10
35.976999999999997
 20
111.428
 30
0.0
 11
36.310499999999998
 21
111.428
 31
0.0
  0
LINE
  5
159
  8
0
 62
     7
 10
121.09
 20
179.571
 30
0.0
 11
119.946
 21
177.589
 31
0.0
  0
LINE
  5
15A
  8
0
 62
     7
 10
119.946
 20
177.589
 30
0.0
 11
121.928
 21
178.733
 31
0.0
  0
LINE
  5
15B
  8
0
 62
     7
 10
121.928
 20
178.733
 30
0.0
 11
121.09
 21
179.571
 31
0.0
  0
LINE
  5
15C
  8
0
 62
     7
 10
156.51300000000001
 20
213.31999999999999
 30
0.0
 11
157.65799999999999
 21
215.30199999999999
 31
0.0
  0
LINE
  5
15D
  8
0
 62
     7
 10
157.65799999999999
 20
215.30199999999999
 30
0.0
 11
155.67599999999999
 21
214.15700000000001
 31
0.0
  0
LINE
  5
15E
  8
0
 62
     7
 10
155.67599999999999
 20
214.15700000000001
 30
0.0
 11
156.51300000000001
 21
213.31999999999999
 31
0.0
  0
LINE
  5
15F
  8
0
 62
     7
 10
119.946
 20
177.589
 30
0.0
 11
157.65799999999999
 21
215.30199999999999
 31
0.0
  0
LINE
  5
160
  8
0
 62
     7
 10
57.4129
 20
189.715
 30
0.0
 11
51.479700000000001
 21
189.715
 31
0.0
  0
LINE
  5
161
  8
0
 62
     7
 10
67.998699999999999
 20
201.13800000000001
 30
0.0
 11
66.854600000000005
 21
199.15599999999989
 31
0.0
  0
LINE
  5
162
  8
0
 62
     7
 10
66.854600000000005
 20
199.15599999999989
 30
0.0
 11
68.836200000000005
 21
200.30000000000001
 31
0.0
  0
LINE
  5
163
  8
0
 62
     7
 10
68.836200000000005
 20
200.30000000000001
 30
0.0
 11
67.998699999999999
 21
201.13800000000001
 31
0.0
  0
LINE
  5
164
  8
0
 62
     7
 10
60.288899999999998
 20
191.75299999999999
 30
0.0
 11
61.433300000000003
 21
193.73500000000001
 31
0.0
  0
LINE
  5
165
  8
0
 62
     7
 10
61.433300000000003
 20
193.73500000000001
 30
0.0
 11
59.4514
 21
192.59100000000001
 31
0.0
  0
LINE
  5
166
  8
0
 62
     7
 10
59.4514
 20
192.59100000000001
 30
0.0
 11
60.288899999999998
 21
191.75299999999999
 31
0.0
  0
LINE
  5
167
  8
0
 62
     7
 10
57.4129
 20
189.715
 30
0.0
 11
69.656499999999994
 21
201.958
 31
0.0
  0
ARC
  5
168
  8
0
 62
     7
 10
138.80230599999999
 20
196.44550000000001
 30
0.0
 40
26.666675999999999
 50
270.00020499999999
 51
0.000175
  0
ARC
  5
169
  8
0
 62
     7
 10
138.802134
 20
196.44583600000001
 30
0.0
 40
26.667012
 50
180.00056499999999
 51
270.00057500000003
  0
ARC
  5
16A
  8
0
 62
     7
 10
138.802143
 20
196.44531900000001
 30
0.0
 40
26.667020999999998
 50
89.999444999999994
 51
179.999415
  0
ARC
  5
16B
  8
0
 62
     7
 10
138.80230599999999
 20
196.445663
 30
0.0
 40
26.666675999999999
 50
359.99982499999999
 51
89.999795000000006
  0
LINE
  5
16C
  8
0
  6
AIGENLINE001
 62
     7
 10
170.465
 20
196.446
 30
0.0
 11
106.964
 21
196.446
 31
0.0
  0
LINE
  5
16D
  8
0
  6
AIGENLINE001
 62
     7
 10
138.80199999999999
 20
227.791
 30
0.0
 11
138.80199999999999
 21
165.232
 31
0.0
  0
ARC
  5
16E
  8
0
 62
     7
 10
64.144035000000002
 20
196.44566900000001
 30
0.0
 40
3.8332969999999991
 50
269.99873300000002
 51
359.99870299999998
  0
ARC
  5
16F
  8
0
 62
     7
 10
64.143862999999996
 20
196.44566699999999
 30
0.0
 40
3.8332949999999988
 50
180.00129699999999
 51
270.001307
  0
ARC
  5
170
  8
0
 62
     7
 10
64.143864000000008
 20
196.44549499999999
 30
0.0
 40
3.8332969999999991
 50
89.998712999999995
 51
179.998683
  0
ARC
  5
171
  8
0
 62
     7
 10
64.144035000000002
 20
196.44549499999999
 30
0.0
 40
3.8332969999999991
 50
0.001297
 51
90.001266999999999
  0
ARC
  5
172
  8
0
 62
     7
 10
64.144033999999991
 20
196.44566900000001
 30
0.0
 40
5.5000450000000001
 50
269.999123
 51
359.99909300000002
  0
ARC
  5
173
  8
0
 62
     7
 10
64.143861999999999
 20
196.44566699999999
 30
0.0
 40
5.5000429999999989
 50
180.00090700000001
 51
270.00091700000002
  0
ARC
  5
174
  8
0
 62
     7
 10
64.143864000000008
 20
196.44549499999999
 30
0.0
 40
5.5000450000000001
 50
89.999103000000005
 51
179.99907300000001
  0
ARC
  5
175
  8
0
 62
     7
 10
64.144033999999991
 20
196.44549499999999
 30
0.0
 40
5.5000450000000001
 50
0.000907
 51
90.000876999999988
  0
ARC
  5
176
  8
0
 62
     7
 10
64.144031000000012
 20
196.445672
 30
0.0
 40
25.000101000000001
 50
269.99982199999999
 51
359.99979300000001
  0
ARC
  5
177
  8
0
 62
     7
 10
64.143858999999992
 20
196.44566399999999
 30
0.0
 40
25.000091999999999
 50
180.00020699999999
 51
270.00021700000002
  0
ARC
  5
178
  8
0
 62
     7
 10
64.143868000000012
 20
196.445491
 30
0.0
 40
25.000101000000001
 50
89.999803
 51
179.999773
  0
ARC
  5
179
  8
0
 62
     7
 10
64.144031000000012
 20
196.445491
 30
0.0
 40
25.000101000000001
 50
0.000207
 51
90.000178000000005
  0
ARC
  5
17A
  8
0
 62
     7
 10
64.144031000000012
 20
196.445673
 30
0.0
 40
28.16685300000001
 50
269.99984500000011
 51
359.99981500000001
  0
ARC
  5
17B
  8
0
 62
     7
 10
64.143857999999994
 20
196.445663
 30
0.0
 40
28.166843
 50
180.00018499999999
 51
270.00019500000002
  0
ARC
  5
17C
  8
0
 62
     7
 10
64.143868000000012
 20
196.445491
 30
0.0
 40
28.16685300000001
 50
89.999824999999987
 51
179.99979500000001
  0
ARC
  5
17D
  8
0
 62
     7
 10
64.144031000000012
 20
196.445491
 30
0.0
 40
28.16685300000001
 50
0.000185
 51
90.000154999999992
  0
LINE
  5
17E
  8
0
 62
     7
 10
162.95400000000001
 20
93.217299999999994
 30
0.0
 11
162.88800000000001
 21
93.064700000000002
 31
0.0
  0
LINE
  5
17F
  8
0
 62
     7
 10
159.441
 20
94.750399999999985
 30
0.0
 11
159.375
 21
94.597399999999993
 31
0.0
  0
ARC
  5
180
  8
0
 62
     7
 10
162.813041
 20
92.908666999999994
 30
0.0
 40
0.173039
 50
338.49030499999998
 51
64.366197999999983
  0
ARC
  5
181
  8
0
 62
     7
 10
162.817948
 20
92.920911000000004
 30
0.0
 40
0.173465
 50
248.571361
 51
334.12919699999998
  0
ARC
  5
182
  8
0
 62
     7
 10
159.31621699999999
 20
94.447714999999988
 30
0.0
 40
0.172995
 50
158.31957199999999
 51
244.570347
  0
ARC
  5
183
  8
0
 62
     7
 10
159.310678
 20
94.437883999999997
 30
0.0
 40
0.171844
 50
68.173127000000008
 51
154.588472
  0
LINE
  5
184
  8
0
 62
     7
 10
159.375
 20
94.597399999999993
 30
0.0
 11
162.88800000000001
 21
93.064700000000002
 31
0.0
  0
LINE
  5
185
  8
0
 62
     7
 10
159.24199999999999
 20
94.291499999999985
 30
0.0
 11
162.755
 21
92.759399999999999
 31
0.0
  0
LINE
  5
186
  8
0
 62
     7
 10
163.15600000000001
 20
93.675499999999985
 30
0.0
 11
163.08799999999999
 21
93.522499999999994
 31
0.0
  0
LINE
  5
187
  8
0
 62
     7
 10
159.64099999999999
 20
95.208600000000004
 30
0.0
 11
159.57499999999999
 21
95.056299999999993
 31
0.0
  0
ARC
  5
188
  8
0
 62
     7
 10
163.01448300000001
 20
93.366890999999995
 30
0.0
 40
0.172304
 50
338.262474
 51
64.594028000000009
  0
ARC
  5
189
  8
0
 62
     7
 10
163.01765399999999
 20
93.380308999999997
 30
0.0
 40
0.17486
 50
248.78970000000001
 51
333.78919100000002
  0
ARC
  5
18A
  8
0
 62
     7
 10
159.515097
 20
94.906272000000001
 30
0.0
 40
0.17244
 50
158.250426
 51
244.70060100000001
  0
ARC
  5
18B
  8
0
 62
     7
 10
159.51153600000001
 20
94.894297999999992
 30
0.0
 40
0.174015
 50
68.58386999999999
 51
154.150588
  0
LINE
  5
18C
  8
0
 62
     7
 10
159.57499999999999
 20
95.056299999999993
 30
0.0
 11
163.08799999999999
 21
93.522499999999994
 31
0.0
  0
LINE
  5
18D
  8
0
 62
     7
 10
159.441
 20
94.750399999999985
 30
0.0
 11
162.95400000000001
 21
93.217299999999994
 31
0.0
  0
LINE
  5
18E
  8
0
 62
     7
 10
163.35499999999999
 20
94.134000000000015
 30
0.0
 11
163.28800000000001
 21
93.980399999999989
 31
0.0
  0
LINE
  5
18F
  8
0
 62
     7
 10
159.84100000000001
 20
95.667100000000005
 30
0.0
 11
159.77500000000001
 21
95.515199999999993
 31
0.0
  0
ARC
  5
190
  8
0
 62
     7
 10
163.21319
 20
93.824545999999998
 30
0.0
 40
0.172814
 50
338.52432399999998
 51
64.393439999999998
  0
ARC
  5
191
  8
0
 62
     7
 10
163.21834799999999
 20
93.836652000000015
 30
0.0
 40
0.172947
 50
248.72181699999999
 51
334.162486
  0
ARC
  5
192
  8
0
 62
     7
 10
159.71586500000001
 20
95.363302000000004
 30
0.0
 40
0.172414
 50
158.19791599999999
 51
244.34648999999999
  0
ARC
  5
193
  8
0
 62
     7
 10
159.71235899999999
 20
95.354231999999996
 30
0.0
 40
0.172801
 50
68.661488000000006
 51
154.972319
  0
LINE
  5
194
  8
0
 62
     7
 10
159.77500000000001
 20
95.515199999999993
 30
0.0
 11
163.28800000000001
 21
93.980399999999989
 31
0.0
  0
LINE
  5
195
  8
0
 62
     7
 10
159.64099999999999
 20
95.207899999999995
 30
0.0
 11
163.15600000000001
 21
93.675499999999985
 31
0.0
  0
LINE
  5
196
  8
0
 62
     7
 10
163.55500000000001
 20
94.591899999999995
 30
0.0
 11
163.488
 21
94.439599999999999
 31
0.0
  0
LINE
  5
197
  8
0
 62
     7
 10
160.041
 20
96.125299999999996
 30
0.0
 11
159.97499999999999
 21
95.972399999999993
 31
0.0
  0
ARC
  5
198
  8
0
 62
     7
 10
163.41023300000001
 20
94.282139000000015
 30
0.0
 40
0.175502
 50
339.08159499999999
 51
63.808323999999999
  0
ARC
  5
199
  8
0
 62
     7
 10
163.418916
 20
94.293951000000007
 30
0.0
 40
0.17219
 50
248.23165299999999
 51
334.37367399999999
  0
ARC
  5
19A
  8
0
 62
     7
 10
159.91335799999999
 20
95.821926000000005
 30
0.0
 40
0.170868
 50
158.01880199999999
 51
244.96039099999999
  0
ARC
  5
19B
  8
0
 62
     7
 10
159.91134400000001
 20
95.810835999999995
 30
0.0
 40
0.173503
 50
68.579370999999995
 51
154.371636
  0
LINE
  5
19C
  8
0
 62
     7
 10
159.97499999999999
 20
95.972399999999993
 30
0.0
 11
163.488
 21
94.439599999999999
 31
0.0
  0
LINE
  5
19D
  8
0
 62
     7
 10
159.84100000000001
 20
95.667100000000005
 30
0.0
 11
163.35499999999999
 21
94.134000000000015
 31
0.0
  0
LINE
  5
19E
  8
0
 62
     7
 10
163.755
 20
95.050799999999995
 30
0.0
 11
163.68700000000001
 21
94.897800000000004
 31
0.0
  0
LINE
  5
19F
  8
0
 62
     7
 10
160.24100000000001
 20
96.583500000000001
 30
0.0
 11
160.17500000000001
 21
96.430199999999985
 31
0.0
  0
ARC
  5
1A0
  8
0
 62
     7
 10
163.61221599999999
 20
94.741777999999996
 30
0.0
 40
0.173111
 50
338.51260000000002
 51
64.343902999999997
  0
ARC
  5
1A1
  8
0
 62
     7
 10
163.61819600000001
 20
94.750788999999983
 30
0.0
 40
0.171174
 50
248.164918
 51
334.97045200000002
  0
ARC
  5
1A2
  8
0
 62
     7
 10
160.116174
 20
96.281316000000004
 30
0.0
 40
0.17354
 50
158.79638199999999
 51
244.27735999999999
  0
ARC
  5
1A3
  8
0
 62
     7
 10
160.11152000000001
 20
96.267099999999999
 30
0.0
 40
0.174981
 50
68.774281999999999
 51
153.89941200000001
  0
LINE
  5
1A4
  8
0
 62
     7
 10
160.17500000000001
 20
96.430199999999985
 30
0.0
 11
163.68700000000001
 21
94.897800000000004
 31
0.0
  0
LINE
  5
1A5
  8
0
 62
     7
 10
160.041
 20
96.125
 30
0.0
 11
163.55500000000001
 21
94.591899999999995
 31
0.0
  0
LINE
  5
1A6
  8
0
 62
     7
 10
163.95500000000001
 20
95.508600000000001
 30
0.0
 11
163.887
 21
95.355699999999985
 31
0.0
  0
LINE
  5
1A7
  8
0
 62
     7
 10
160.441
 20
97.041399999999996
 30
0.0
 11
160.375
 21
96.888800000000003
 31
0.0
  0
ARC
  5
1A8
  8
0
 62
     7
 10
163.81360699999999
 20
95.199613999999997
 30
0.0
 40
0.1726
 50
338.45302700000008
 51
64.714906999999997
  0
ARC
  5
1A9
  8
0
 62
     7
 10
163.81852499999999
 20
95.211641999999983
 30
0.0
 40
0.172933
 50
248.46131600000001
 51
334.14401099999998
  0
ARC
  5
1AA
  8
0
 62
     7
 10
160.316192
 20
96.738639000000006
 30
0.0
 40
0.172699
 50
158.12930299999999
 51
244.449568
  0
ARC
  5
1AB
  8
0
 62
     7
 10
160.31064599999999
 20
96.730234999999993
 30
0.0
 40
0.170968
 50
68.001595999999992
 51
154.82125199999999
  0
LINE
  5
1AC
  8
0
 62
     7
 10
160.375
 20
96.888800000000003
 30
0.0
 11
163.887
 21
95.355699999999985
 31
0.0
  0
LINE
  5
1AD
  8
0
 62
     7
 10
160.24199999999999
 20
96.582800000000006
 30
0.0
 11
163.755
 21
95.050799999999995
 31
0.0
  0
LINE
  5
1AE
  8
0
 62
     7
 10
164.155
 20
95.967200000000005
 30
0.0
 11
164.089
 21
95.814899999999994
 31
0.0
  0
LINE
  5
1AF
  8
0
 62
     7
 10
160.64099999999999
 20
97.499600000000015
 30
0.0
 11
160.57400000000001
 21
97.346599999999995
 31
0.0
  0
ARC
  5
1B0
  8
0
 62
     7
 10
164.013755
 20
95.659391999999997
 30
0.0
 40
0.17256
 50
337.88350700000001
 51
64.323430999999999
  0
ARC
  5
1B1
  8
0
 62
     7
 10
164.01783
 20
95.669876000000002
 30
0.0
 40
0.173097
 50
248.66474199999999
 51
334.15814499999999
  0
ARC
  5
1B2
  8
0
 62
     7
 10
160.5161149999999
 20
97.197512000000003
 30
0.0
 40
0.173189
 50
158.43353400000001
 51
244.361873
  0
ARC
  5
1B3
  8
0
 62
     7
 10
160.510176
 20
97.187023999999994
 30
0.0
 40
0.171936
 50
68.152548999999993
 51
154.45273800000001
  0
LINE
  5
1B4
  8
0
 62
     7
 10
160.57400000000001
 20
97.346599999999995
 30
0.0
 11
164.089
 21
95.814899999999994
 31
0.0
  0
LINE
  5
1B5
  8
0
 62
     7
 10
160.441
 20
97.041399999999996
 30
0.0
 11
163.95500000000001
 21
95.508600000000001
 31
0.0
  0
ARC
  5
1B6
  8
0
 62
     7
 10
162.059066
 20
95.003620999999995
 30
0.0
 40
6.1258239999999988
 50
68.368325999999996
 51
84.175134
  0
ARC
  5
1B7
  8
0
 62
     7
 10
161.348162
 20
89.383291999999997
 30
0.0
 40
11.790077
 50
83.510132999999996
 51
85.601983000000004
  0
ARC
  5
1B8
  8
0
 62
     7
 10
162.93930900000001
 20
97.250893999999988
 30
0.0
 40
3.7123430000000002
 50
37.326114000000011
 51
68.211202
  0
LINE
  5
1B9
  8
0
 62
     7
 10
166.238
 20
98.916600000000017
 30
0.0
 11
164.69999999999999
 21
95.729100000000003
 31
0.0
  0
LINE
  5
1BA
  8
0
 62
     7
 10
161.642
 20
100.916
 30
0.0
 11
160.11699999999999
 21
97.728300000000004
 31
0.0
  0
LINE
  5
1BB
  8
0
 62
     7
 10
165.934
 20
106.004
 30
0.0
 11
166.238
 21
98.916600000000017
 31
0.0
  0
LINE
  5
1BC
  8
0
 62
     7
 10
164.69999999999999
 20
95.729100000000003
 30
0.0
 11
160.11699999999999
 21
97.728300000000004
 31
0.0
  0
LINE
  5
1BD
  8
0
 62
     7
 10
161.642
 20
100.916
 30
0.0
 11
161.18199999999999
 21
101.06399999999999
 31
0.0
  0
LINE
  5
1BE
  8
0
 62
     7
 10
165.934
 20
106.004
 30
0.0
 11
163.13800000000001
 21
106.904
 31
0.0
  0
LINE
  5
1BF
  8
0
  6
AIGENLINE001
 62
     7
 10
167.90000000000001
 20
102.14
 30
0.0
 11
157.81100000000001
 21
105.38800000000001
 31
0.0
  0
LINE
  5
1C0
  8
0
  6
AIGENLINE001
 62
     7
 10
165.10299999999989
 20
102.666
 30
0.0
 11
162.17599999999999
 21
95.906899999999993
 31
0.0
  0
ARC
  5
1C1
  8
0
  6
AIGENLINE002
 62
     7
 10
64.416365999999996
 20
103.9423
 30
0.0
 40
2.3944919999999992
 50
312.36205899999999
 51
359.65349300000003
  0
ARC
  5
1C2
  8
0
  6
AIGENLINE002
 62
     7
 10
64.167355000000001
 20
104.195891
 30
0.0
 40
2.749689
 50
269.5122990000001
 51
312.63548900000001
  0
ARC
  5
1C3
  8
0
  6
AIGENLINE002
 62
     7
 10
64.158318999999992
 20
104.27987299999999
 30
0.0
 40
2.8336079999999999
 50
224.21846300000001
 51
269.70944900000001
  0
ARC
  5
1C4
  8
0
  6
AIGENLINE002
 62
     7
 10
63.923519999999989
 20
103.964775
 30
0.0
 40
2.4463710000000001
 50
180.86558500000001
 51
222.764376
  0
ARC
  5
1C5
  8
0
  6
AIGENLINE002
 62
     7
 10
63.871561
 20
103.91333299999999
 30
0.0
 40
2.394175999999999
 50
132.36427499999999
 51
179.653313
  0
ARC
  5
1C6
  8
0
  6
AIGENLINE002
 62
     7
 10
64.12039399999999
 20
103.660112
 30
0.0
 40
2.7489810000000001
 50
89.509040999999996
 51
132.63994099999999
  0
ARC
  5
1C7
  8
0
  6
AIGENLINE002
 62
     7
 10
64.129579000000007
 20
103.574837
 30
0.0
 40
2.8341919999999989
 50
44.224942999999989
 51
89.709485999999984
  0
ARC
  5
1C8
  8
0
  6
AIGENLINE002
 62
     7
 10
64.365476000000001
 20
103.89070100000001
 30
0.0
 40
2.445619999999999
 50
0.8696330000000001
 51
42.776532999999993
  0
LINE
  5
1C9
  8
0
  6
AIGENLINE001
 62
     7
 10
59.7211
 20
103.928
 30
0.0
 11
68.364900000000006
 21
103.928
 31
0.0
  0
LINE
  5
1CA
  8
0
 62
     7
 10
38.1877
 20
149.28200000000001
 30
0.0
 11
35.976999999999997
 21
148.69
 31
0.0
  0
LINE
  5
1CB
  8
0
 62
     7
 10
35.976999999999997
 20
148.69
 30
0.0
 11
38.1877
 21
148.09800000000001
 31
0.0
  0
LINE
  5
1CC
  8
0
 62
     7
 10
38.1877
 20
148.09800000000001
 30
0.0
 11
38.1877
 21
149.28200000000001
 31
0.0
  0
LINE
  5
1CD
  8
0
 62
     7
 10
90.100200000000001
 20
148.108
 30
0.0
 11
92.310900000000004
 21
148.69999999999999
 31
0.0
  0
LINE
  5
1CE
  8
0
 62
     7
 10
92.310900000000004
 20
148.69999999999999
 30
0.0
 11
90.100200000000001
 21
149.292
 31
0.0
  0
LINE
  5
1CF
  8
0
 62
     7
 10
90.100200000000001
 20
149.292
 30
0.0
 11
90.100200000000001
 21
148.108
 31
0.0
  0
LINE
  5
1D0
  8
0
 62
     7
 10
35.976999999999997
 20
148.69
 30
0.0
 11
92.310900000000004
 21
148.69
 31
0.0
  0
LINE
  5
1D1
  8
0
 62
     7
 10
35.976999999999997
 20
147.99000000000001
 30
0.0
 11
35.976999999999997
 21
191.31299999999999
 31
0.0
  0
LINE
  5
1D2
  8
0
 62
     7
 10
92.310900000000004
 20
147.99000000000001
 30
0.0
 11
92.310900000000004
 21
191.19499999999999
 31
0.0
  0
LINE
  5
1D3
  8
0
 62
     7
 10
33.766300000000001
 20
155.22200000000001
 30
0.0
 11
35.976999999999997
 21
155.815
 31
0.0
  0
LINE
  5
1D4
  8
0
 62
     7
 10
35.976999999999997
 20
155.815
 30
0.0
 11
33.766300000000001
 21
156.40700000000001
 31
0.0
  0
LINE
  5
1D5
  8
0
 62
     7
 10
33.766300000000001
 20
156.40700000000001
 30
0.0
 11
33.766300000000001
 21
155.22200000000001
 31
0.0
  0
LINE
  5
1D6
  8
0
 62
     7
 10
86.933400000000006
 20
155.22200000000001
 30
0.0
 11
89.144099999999995
 21
155.815
 31
0.0
  0
LINE
  5
1D7
  8
0
 62
     7
 10
89.144099999999995
 20
155.815
 30
0.0
 11
86.933400000000006
 21
156.40700000000001
 31
0.0
  0
LINE
  5
1D8
  8
0
 62
     7
 10
86.933400000000006
 20
156.40700000000001
 30
0.0
 11
86.933400000000006
 21
155.22200000000001
 31
0.0
  0
LINE
  5
1D9
  8
0
 62
     7
 10
94.521299999999997
 20
156.39699999999999
 30
0.0
 11
92.310900000000004
 21
155.80500000000001
 31
0.0
  0
LINE
  5
1DA
  8
0
 62
     7
 10
92.310900000000004
 20
155.80500000000001
 30
0.0
 11
94.521299999999997
 21
155.21199999999999
 31
0.0
  0
LINE
  5
1DB
  8
0
 62
     7
 10
94.521299999999997
 20
155.21199999999999
 30
0.0
 11
94.521299999999997
 21
156.39699999999999
 31
0.0
  0
LINE
  5
1DC
  8
0
 62
     7
 10
41.354500000000002
 20
156.39699999999999
 30
0.0
 11
39.143799999999999
 21
155.80500000000001
 31
0.0
  0
LINE
  5
1DD
  8
0
 62
     7
 10
39.143799999999999
 20
155.80500000000001
 30
0.0
 11
41.354500000000002
 21
155.21199999999999
 31
0.0
  0
LINE
  5
1DE
  8
0
 62
     7
 10
41.354500000000002
 20
155.21199999999999
 30
0.0
 11
41.354500000000002
 21
156.39699999999999
 31
0.0
  0
LINE
  5
1DF
  8
0
 62
     7
 10
98.217200000000005
 20
155.80500000000001
 30
0.0
 11
29.549800000000001
 21
155.80500000000001
 31
0.0
  0
LINE
  5
1E0
  8
0
 62
     7
 10
39.143799999999999
 20
155.10499999999999
 30
0.0
 11
39.143799999999999
 21
191.548
 31
0.0
  0
LINE
  5
1E1
  8
0
 62
     7
 10
89.144099999999995
 20
155.10499999999999
 30
0.0
 11
89.144099999999995
 21
191.31299999999999
 31
0.0
  0
LINE
  5
1E2
  8
0
 62
     7
 10
96.522700000000015
 20
88.471599999999995
 30
0.0
 11
97.114900000000006
 21
86.260900000000007
 31
0.0
  0
LINE
  5
1E3
  8
0
 62
     7
 10
97.114900000000006
 20
86.260900000000007
 30
0.0
 11
97.707000000000008
 21
88.471599999999995
 31
0.0
  0
LINE
  5
1E4
  8
0
 62
     7
 10
97.707000000000008
 20
88.471599999999995
 30
0.0
 11
96.522700000000015
 21
88.471599999999995
 31
0.0
  0
LINE
  5
1E5
  8
0
 62
     7
 10
97.687700000000007
 20
110.05
 30
0.0
 11
97.095600000000005
 21
112.261
 31
0.0
  0
LINE
  5
1E6
  8
0
 62
     7
 10
97.095600000000005
 20
112.261
 30
0.0
 11
96.503399999999985
 21
110.05
 31
0.0
  0
LINE
  5
1E7
  8
0
 62
     7
 10
96.503399999999985
 20
110.05
 30
0.0
 11
97.687700000000007
 21
110.05
 31
0.0
  0
LINE
  5
1E8
  8
0
 62
     7
 10
97.1053
 20
86.260900000000007
 30
0.0
 11
97.1053
 21
112.261
 31
0.0
  0
LINE
  5
1E9
  8
0
 62
     7
 10
69.083600000000004
 20
86.260900000000007
 30
0.0
 11
97.795900000000003
 21
86.260900000000007
 31
0.0
  0
LINE
  5
1EA
  8
0
 62
     7
 10
93.162199999999984
 20
112.261
 30
0.0
 11
103.89400000000001
 21
112.261
 31
0.0
  0
LINE
  5
1EB
  8
0
  6
AIGENLINE001
 62
     7
 10
96.402299999999997
 20
196.446
 30
0.0
 11
31.6083
 21
196.446
 31
0.0
  0
LINE
  5
1EC
  8
0
  6
AIGENLINE001
 62
     7
 10
64.143900000000002
 20
228.62200000000001
 30
0.0
 11
64.143900000000002
 21
164.53399999999999
 31
0.0
  0
LINE
  5
1F0
  8
_________2
 62
     7
 10
205.30099999999999
 20
127.411
 30
0.0
 11
183.55099999999999
 21
127.411
 31
0.0
  0
LINE
  5
1F1
  8
_________2
 62
     7
 10
100.3
 20
-4.0910799999999998
 30
0.0
 11
100.3
 21
-21.071000000000002
 31
0.0
  0
LINE
  5
1F2
  8
_________2
 62
     7
 10
100.3
 20
275.93099999999998
 30
0.0
 11
100.3
 21
258.911
 31
0.0
  0
LINE
  5
1F3
  8
_________2
 62
     7
 10
17.049399999999999
 20
127.411
 30
0.0
 11
-4.7010300000000003
 21
127.411
 31
0.0
  0
LINE
  5
1F4
  8
_________2
 62
     7
 10
76.740799999999993
 20
29.8047
 30
0.0
 11
74.554599999999994
 21
29.8047
 31
0.0
  0
LINE
  5
1F5
  8
_________2
 62
     7
 10
77.233500000000006
 20
29.8047
 30
0.0
 11
76.981300000000005
 21
29.8047
 31
0.0
  0
LINE
  5
1F6
  8
_________2
 62
     7
 10
77.726200000000006
 20
29.8047
 30
0.0
 11
80.6511
 21
29.8047
 31
0.0
  0
LINE
  5
1F7
  8
_________2
 62
     7
 10
77.233500000000006
 20
29.8047
 30
0.0
 11
77.485699999999994
 21
29.8047
 31
0.0
  0
LINE
  5
1F8
  8
_________2
 62
     7
 10
70.837299999999999
 20
29.8047
 30
0.0
 11
68.650300000000001
 21
29.8047
 31
0.0
  0
LINE
  5
1F9
  8
_________2
 62
     7
 10
71.329300000000003
 20
29.8047
 30
0.0
 11
71.077799999999996
 21
29.8047
 31
0.0
  0
LINE
  5
1FA
  8
_________2
 62
     7
 10
71.329300000000003
 20
30.2974
 30
0.0
 11
71.329300000000003
 21
32.484400000000001
 31
0.0
  0
LINE
  5
1FB
  8
_________2
 62
     7
 10
71.329300000000003
 20
29.8047
 30
0.0
 11
71.329300000000003
 21
30.057300000000001
 31
0.0
  0
LINE
  5
1FC
  8
_________2
 62
     7
 10
71.821899999999999
 20
29.8047
 30
0.0
 11
74.008899999999997
 21
29.8047
 31
0.0
  0
LINE
  5
1FD
  8
_________2
 62
     7
 10
71.329300000000003
 20
29.8047
 30
0.0
 11
71.581400000000002
 21
29.8047
 31
0.0
  0
LINE
  5
1FE
  8
_________2
 62
     7
 10
71.329300000000003
 20
29.312799999999999
 30
0.0
 11
71.329300000000003
 21
27.126200000000001
 31
0.0
  0
LINE
  5
1FF
  8
_________2
 62
     7
 10
71.329300000000003
 20
29.8047
 30
0.0
 11
71.329300000000003
 21
29.5532
 31
0.0
  0
LINE
  5
200
  8
_________2
 62
     7
 10
75.040300000000002
 20
28.5852
 30
0.0
 11
80.218299999999985
 21
27.720400000000001
 31
0.0
  0
LINE
  5
201
  8
_________2
 62
     7
 10
75.040300000000002
 20
31.024699999999999
 30
0.0
 11
80.218299999999985
 21
31.8901
 31
0.0
  0
LINE
  5
202
  8
_________2
 62
     7
 10
80.218299999999985
 20
27.720400000000001
 30
0.0
 11
80.218299999999985
 21
31.8901
 31
0.0
  0
LINE
  5
203
  8
_________2
 62
     7
 10
75.040300000000002
 20
28.5852
 30
0.0
 11
75.040300000000002
 21
31.024699999999999
 31
0.0
  0
ARC
  5
204
  8
_________2
 62
     7
 10
71.282674
 20
29.757801000000001
 30
0.0
 40
1.267714
 50
2.1220840000000001
 51
87.894083999999992
  0
ARC
  5
205
  8
_________2
 62
     7
 10
71.375812999999994
 20
29.758545999999999
 30
0.0
 40
1.2669680000000001
 50
92.105782999999988
 51
177.91037
  0
ARC
  5
206
  8
_________2
 62
     7
 10
71.376186000000004
 20
29.851671
 30
0.0
 40
1.2673680000000001
 50
182.12203600000001
 51
267.877993
  0
ARC
  5
207
  8
_________2
 62
     7
 10
71.282368999999989
 20
29.852347999999999
 30
0.0
 40
1.2680439999999991
 50
272.11916400000001
 51
357.84848499999998
  0
ARC
  5
208
  8
_________2
 62
     7
 10
71.248890000000003
 20
29.724731999999999
 30
0.0
 40
2.1668310000000002
 50
2.1161439999999989
 51
87.874379000000005
  0
ARC
  5
209
  8
_________2
 62
     7
 10
71.408928000000003
 20
29.726146
 30
0.0
 40
2.165392999999999
 50
92.108508999999998
 51
177.91986499999999
  0
ARC
  5
20A
  8
_________2
 62
     7
 10
71.409267
 20
29.884751999999999
 30
0.0
 40
2.1657829999999998
 50
182.117133
 51
267.88289700000001
  0
ARC
  5
20B
  8
_________2
 62
     7
 10
71.249286999999995
 20
29.885429999999999
 30
0.0
 40
2.1664590000000001
 50
272.11546800000002
 51
357.86560400000002
  0
TEXT
  5
20C
  8
_________2
 62
     7
 10
104.605
 20
1.6794899999999999
 30
0.0
 40
3.0923400000000001
  1
図番
 41
0.5
  0
LINE
  5
20D
  8
_________2
 62
     7
 10
103.55
 20
5.9087199999999989
 30
0.0
 11
183.55099999999999
 21
5.9087199999999989
 31
0.0
  0
TEXT
  5
20E
  8
_________2
 62
     7
 10
104.605
 20
11.6793
 30
0.0
 40
3.0923400000000001
  1
品番
 41
0.5
  0
TEXT
  5
20F
  8
_________2
 62
     7
 10
104.605
 20
31.8184
 30
0.0
 40
3.0923400000000001
  1
名称
 41
0.5
  0
TEXT
  5
210
  8
_________2
 62
     7
 10
91.844958333333338
 20
26.822299999999998
 30
0.0
 40
3.6545800000000002
  1
mm
 41
0.5
 72
     1
 11
93.367699999999985
 21
26.822299999999998
 31
0.0
  0
TEXT
  5
211
  8
_________2
 62
     7
 10
85.642999999999986
 20
31.8184
 30
0.0
 40
3.0923400000000001
  1
単位
 41
0.5
  0
TEXT
  5
212
  8
_________2
 62
     7
 10
85.642999999999986
 20
19.410799999999998
 30
0.0
 40
3.0923400000000001
  1
尺度
 41
0.5
  0
TEXT
  5
213
  8
_________2
 62
     7
 10
90.548558666666679
 20
13.2182
 30
0.0
 40
3.6545800000000002
  1
1 ： 6
 41
0.5
 72
     1
 11
93.959500000000006
 21
13.2182
 31
0.0
  0
TEXT
  5
214
  8
_________2
 62
     7
 10
21.764399999999998
 20
46.020200000000003
 30
0.0
 40
4.2168199999999993
  1
※仕上げ色：ヘアライン
 41
0.5
  0
TEXT
  5
215
  8
_________2
 62
     7
 10
21.764399999999998
 20
40.749200000000002
 30
0.0
 40
4.2168199999999993
  1
※排水栓を閉めた状態で毎分8L以上吐水させないでください。
 41
0.5
  0
TEXT
  5
216
  8
_________2
 62
     7
 10
135.35062500000001
 20
9.1082000000000001
 30
0.0
 40
3.9357000000000002
  1
FRRNDX300
 41
0.5
 72
     1
 11
143.55000000000001
 21
9.1082000000000001
 31
0.0
  0
TEXT
  5
217
  8
_________2
 62
     7
 10
135.35062500000001
 20
-0.8926299999999999
 30
0.0
 40
3.9357000000000002
  1
FRRNDX300
 41
0.5
 72
     1
 11
143.55000000000001
 21
-0.8926299999999999
 31
0.0
  0
TEXT
  5
218
  8
_________2
 62
     7
 10
24.586600000000001
 20
0.707627
 30
0.0
 40
3.9357000000000002
  1
実容量2.8L、重量：0.7kg、オーバーフロー付
 41
0.5
  0
TEXT
  5
219
  8
_________2
 62
     7
 10
109.179
 20
24.9361
 30
0.0
 40
3.9357000000000002
  1
ステンレスベイスン　洗面器
 41
0.5
  0
TEXT
  5
21A
  8
_________2
 62
     7
 10
39.364190666666673
 20
13.603400000000001
 30
0.0
 40
3.6545800000000002
  1
篠崎
 41
0.5
 72
     1
 11
41.313299999999998
 21
13.603400000000001
 31
0.0
  0
TEXT
  5
21B
  8
_________2
 62
     7
 10
20.790190666666671
 20
13.603400000000001
 30
0.0
 40
3.6545800000000002
  1
近藤
 41
0.5
 72
     1
 11
22.7393
 21
13.603400000000001
 31
0.0
  0
TEXT
  5
21C
  8
_________2
 62
     7
 10
67.785600000000002
 20
13.2182
 30
0.0
 40
3.6545800000000002
  1
16.12.22
 41
0.5
  0
TEXT
  5
21D
  8
_________2
 62
     7
 10
66.5929
 20
19.410799999999998
 30
0.0
 40
3.0923400000000001
  1
日付
 41
0.5
  0
TEXT
  5
21E
  8
_________2
 62
     7
 10
29.639199999999999
 20
19.410799999999998
 30
0.0
 40
3.0923400000000001
  1
検図
 41
0.5
  0
TEXT
  5
21F
  8
_________2
 62
     7
 10
18.020900000000001
 20
5.21143
 30
0.0
 40
3.0923400000000001
  1
備考
 41
0.5
  0
TEXT
  5
220
  8
_________2
 62
     7
 10
18.020900000000001
 20
19.410799999999998
 30
0.0
 40
3.0923400000000001
  1
製図
 41
0.5
  0
TEXT
  5
221
  8
_________2
 62
     7
 10
23.788265333333339
 20
27.936800000000002
 30
0.0
 40
4.4979399999999989
  1
セラトレーディング株式会社
 41
0.5
 72
     1
 11
41.180300000000003
 21
27.936800000000002
 31
0.0
  0
LINE
  5
222
  8
_________2
 62
     7
 10
183.55099999999999
 20
-4.0910799999999998
 30
0.0
 11
17.049399999999999
 21
-4.0910799999999998
 31
0.0
  0
LINE
  5
223
  8
_________2
 62
     7
 10
17.049399999999999
 20
-4.0910799999999998
 30
0.0
 11
17.049399999999999
 21
258.911
 31
0.0
  0
LINE
  5
224
  8
_________2
 62
     7
 10
17.049399999999999
 20
258.911
 30
0.0
 11
183.55099999999999
 21
258.911
 31
0.0
  0
LINE
  5
225
  8
_________2
 62
     7
 10
183.55099999999999
 20
258.911
 30
0.0
 11
183.55099999999999
 21
-4.0910799999999998
 31
0.0
  0
LINE
  5
226
  8
_________2
 62
     7
 10
65.549700000000001
 20
9.4092999999999982
 30
0.0
 11
65.549700000000001
 21
35.909100000000002
 31
0.0
  0
LINE
  5
227
  8
_________2
 62
     7
 10
84.549599999999984
 20
9.4092999999999982
 30
0.0
 11
84.549599999999984
 21
35.909100000000002
 31
0.0
  0
LINE
  5
228
  8
_________2
 62
     7
 10
103.55
 20
-4.0910799999999998
 30
0.0
 11
103.55
 21
35.909100000000002
 31
0.0
  0
LINE
  5
229
  8
_________2
 62
     7
 10
28.549199999999999
 20
9.4092999999999982
 30
0.0
 11
28.549199999999999
 21
23.409199999999998
 31
0.0
  0
LINE
  5
22A
  8
_________2
 62
     7
 10
17.049399999999999
 20
9.4092999999999982
 30
0.0
 11
103.55
 21
9.4092999999999982
 31
0.0
  0
LINE
  5
22B
  8
_________2
 62
     7
 10
17.049399999999999
 20
23.409199999999998
 30
0.0
 11
103.55
 21
23.409199999999998
 31
0.0
  0
LINE
  5
22C
  8
_________2
 62
     7
 10
103.55
 20
15.9085
 30
0.0
 11
183.55099999999999
 21
15.9085
 31
0.0
  0
LINE
  5
22D
  8
_________2
 62
     7
 10
17.049399999999999
 20
35.909100000000002
 30
0.0
 11
183.55099999999999
 21
35.909100000000002
 31
0.0
  0
ENDSEC
  0
EOF
