  0
SECTION
  2
HEADER
  9
$ACADVER
  1
AC1009
  9
$INSBASE
 10
0.0
 20
0.0
 30
0.0
  9
$EXTMIN
 10
-4.7010300000000003
 20
-21.071000000000002
 30
0.0
  9
$EXTMAX
 10
205.30099999999999
 20
275.93099999999998
 30
0.0
  9
$LIMMIN
 10
0.0
 20
0.0
  9
$LIMMAX
 10
12.0
 20
9.0
  9
$ORTHOMODE
 70
     0
  9
$REGENMODE
 70
     1
  9
$FILLMODE
 70
     1
  9
$QTEXTMODE
 70
     0
  9
$MIRRTEXT
 70
     1
  9
$DRAGMODE
 70
     2
  9
$LTSCALE
 40
1.0
  9
$OSMODE
 70
    37
  9
$ATTMODE
 70
     1
  9
$TEXTSIZE
 40
0.0
  9
$TRACEWID
 40
0.05
  9
$TEXTSTYLE
  7
STANDARD
  9
$CLAYER
  8
0
  9
$CELTYPE
  6
CONTINUOUS
  9
$CECOLOR
 62
   256
  9
$DIMSCALE
 40
1.0
  9
$DIMASZ
 40
0.18
  9
$DIMEXO
 40
0.0625
  9
$DIMDLI
 40
0.38
  9
$DIMRND
 40
0.0
  9
$DIMDLE
 40
0.0
  9
$DIMEXE
 40
0.18
  9
$DIMTP
 40
0.0
  9
$DIMTM
 40
0.0
  9
$DIMTXT
 40
0.18
  9
$DIMCEN
 40
0.09
  9
$DIMTSZ
 40
0.0
  9
$DIMTOL
 70
     0
  9
$DIMLIM
 70
     0
  9
$DIMTIH
 70
     1
  9
$DIMTOH
 70
     1
  9
$DIMSE1
 70
     0
  9
$DIMSE2
 70
     0
  9
$DIMTAD
 70
     0
  9
$DIMZIN
 70
     0
  9
$DIMBLK
  1

  9
$DIMASO
 70
     1
  9
$DIMSHO
 70
     1
  9
$DIMPOST
  1

  9
$DIMAPOST
  1

  9
$DIMALT
 70
     0
  9
$DIMALTD
 70
     2
  9
$DIMALTF
 40
25.399999999999999
  9
$DIMLFAC
 40
1.0
  9
$DIMTOFL
 70
     0
  9
$DIMTVP
 40
0.0
  9
$DIMTIX
 70
     0
  9
$DIMSOXD
 70
     0
  9
$DIMSAH
 70
     0
  9
$DIMBLK1
  1

  9
$DIMBLK2
  1

  9
$DIMSTYLE
  2
STANDARD
  9
$DIMCLRD
 70
     0
  9
$DIMCLRE
 70
     0
  9
$DIMCLRT
 70
     0
  9
$DIMTFAC
 40
1.0
  9
$DIMGAP
 40
0.09
  9
$LUNITS
 70
     2
  9
$LUPREC
 70
     4
  9
$SKETCHINC
 40
0.1
  9
$FILLETRAD
 40
0.0
  9
$AUNITS
 70
     0
  9
$AUPREC
 70
     0
  9
$MENU
  1
.
  9
$ELEVATION
 40
0.0
  9
$PELEVATION
 40
0.0
  9
$THICKNESS
 40
0.0
  9
$LIMCHECK
 70
     0
  9
$BLIPMODE
 70
     0
  9
$CHAMFERA
 40
0.0
  9
$CHAMFERB
 40
0.0
  9
$SKPOLY
 70
     0
  9
$TDCREATE
 40
2444972.375
  9
$TDUPDATE
 40
2457827.248508634
  9
$TDINDWG
 40
0.0000283449
  9
$TDUSRTIMER
 40
0.0000283449
  9
$USRTIMER
 70
     1
  9
$ANGBASE
 50
0.0
  9
$ANGDIR
 70
     0
  9
$PDMODE
 70
     0
  9
$PDSIZE
 40
0.0
  9
$PLINEWID
 40
0.0
  9
$COORDS
 70
     1
  9
$SPLFRAME
 70
     0
  9
$SPLINETYPE
 70
     6
  9
$SPLINESEGS
 70
     8
  9
$ATTDIA
 70
     1
  9
$ATTREQ
 70
     1
  9
$HANDLING
 70
     1
  9
$HANDSEED
  5
2DA
  9
$SURFTAB1
 70
     6
  9
$SURFTAB2
 70
     6
  9
$SURFTYPE
 70
     6
  9
$SURFU
 70
     6
  9
$SURFV
 70
     6
  9
$UCSNAME
  2

  9
$UCSORG
 10
0.0
 20
0.0
 30
0.0
  9
$UCSXDIR
 10
1.0
 20
0.0
 30
0.0
  9
$UCSYDIR
 10
0.0
 20
1.0
 30
0.0
  9
$PUCSNAME
  2

  9
$PUCSORG
 10
0.0
 20
0.0
 30
0.0
  9
$PUCSXDIR
 10
1.0
 20
0.0
 30
0.0
  9
$PUCSYDIR
 10
0.0
 20
1.0
 30
0.0
  9
$USERI1
 70
     0
  9
$USERI2
 70
     0
  9
$USERI3
 70
     0
  9
$USERI4
 70
     0
  9
$USERI5
 70
     0
  9
$USERR1
 40
0.0
  9
$USERR2
 40
0.0
  9
$USERR3
 40
0.0
  9
$USERR4
 40
0.0
  9
$USERR5
 40
0.0
  9
$WORLDVIEW
 70
     1
  9
$SHADEDGE
 70
     3
  9
$SHADEDIF
 70
    70
  9
$TILEMODE
 70
     1
  9
$MAXACTVP
 70
    48
  9
$PLIMCHECK
 70
     0
  9
$PEXTMIN
 10
1.0000000000000000E+020
 20
1.0000000000000000E+020
 30
1.0000000000000000E+020
  9
$PEXTMAX
 10
-1.0000000000000000E+020
 20
-1.0000000000000000E+020
 30
-1.0000000000000000E+020
  9
$PLIMMIN
 10
0.0
 20
0.0
  9
$PLIMMAX
 10
12.0
 20
9.0
  9
$UNITMODE
 70
     0
  9
$VISRETAIN
 70
     1
  9
$PLINEGEN
 70
     0
  9
$PSLTSCALE
 70
     1
  0
ENDSEC
  0
SECTION
  2
TABLES
  0
TABLE
  2
VPORT
 70
     1
  0
VPORT
  2
*ACTIVE
 70
     0
 10
0.0
 20
0.0
 11
1.0
 21
1.0
 12
173.05859873675911
 22
127.42999999999989
 13
0.0
 23
0.0
 14
1.0
 24
1.0
 15
0.0
 25
0.0
 16
0.0
 26
0.0
 36
1.0
 17
0.0
 27
0.0
 37
0.0
 40
289.64129411868203
 41
2.1063583815028899
 42
50.0
 43
0.0
 44
0.0
 50
0.0
 51
0.0
 71
     0
 72
   100
 73
     1
 74
     1
 75
     0
 76
     0
 77
     0
 78
     0
  0
ENDTAB
  0
TABLE
  2
LTYPE
 70
     3
  0
LTYPE
  2
CONTINUOUS
 70
     0
  3
Solid line
 72
    65
 73
     0
 40
0.0
  0
LTYPE
  2
AIGENLINE001
 70
     0
  3
generate AI->DXF Converter
 72
    65
 73
     4
 40
5.8561449999999988
 49
3.5278
 49
-0.776115
 49
0.776115
 49
-0.776115
  0
LTYPE
  2
AIGENLINE002
 70
     0
  3
generate AI->DXF Converter
 72
    65
 73
     2
 40
1.5522299999999991
 49
0.776115
 49
-0.776115
  0
ENDTAB
  0
TABLE
  2
LAYER
 70
     2
  0
LAYER
  2
0
 70
     0
 62
     7
  6
CONTINUOUS
  0
LAYER
  2
_________2
 70
     0
 62
     7
  6
CONTINUOUS
  0
ENDTAB
  0
TABLE
  2
STYLE
 70
     1
  0
STYLE
  2
STANDARD
 70
     0
 40
0.0
 41
0.0
 50
0.0
 71
     0
 42
0.0
  3
TXT
  4
EXTFONT.SHX
  0
ENDTAB
  0
TABLE
  2
VIEW
 70
     0
  0
ENDTAB
  0
TABLE
  2
UCS
 70
     0
  0
ENDTAB
  0
TABLE
  2
APPID
 70
     3
  0
APPID
  2
ACAD
 70
     0
  0
APPID
  2
ACAD_NAV_VCDISPLAY
 70
     0
  0
APPID
  2
ACAD_MLEADERVER
 70
     0
  0
ENDTAB
  0
TABLE
  2
DIMSTYLE
 70
     1
  0
DIMSTYLE
  2
STANDARD
 70
     0
  3

  4

  5

  6

  7

 40
1.0
 41
0.18
 42
0.0625
 43
0.38
 44
0.18
 45
0.0
 46
0.0
 47
0.0
 48
0.0
140
0.18
141
0.09
142
0.0
143
25.399999999999999
144
1.0
145
0.0
146
1.0
147
0.09
 71
     0
 72
     0
 73
     1
 74
     1
 75
     0
 76
     0
 77
     0
 78
     0
170
     0
171
     2
172
     0
173
     0
174
     0
175
     0
176
     0
177
     0
178
     0
  0
ENDTAB
  0
ENDSEC
  0
SECTION
  2
BLOCKS
  0
BLOCK
  8
0
  2
$MODEL_SPACE
 70
     0
 10
0.0
 20
0.0
 30
0.0
  3
$MODEL_SPACE
  1

  0
ENDBLK
  5
1A
  8
0
  0
BLOCK
 67
     1
  8
0
  2
$PAPER_SPACE
 70
     0
 10
0.0
 20
0.0
 30
0.0
  3
$PAPER_SPACE
  1

  0
ENDBLK
  5
17
 67
     1
  8
0
  0
ENDSEC
  0
SECTION
  2
ENTITIES
  0
TEXT
  5
23
  8
0
 62
     7
 10
26.322600000000001
 20
97.375235000000004
 30
0.0
 40
3.0923400000000001
  1
159
 50
90.0
 41
0.5
 72
     1
 11
26.322600000000001
 21
99.179100000000005
 31
0.0
  0
TEXT
  5
24
  8
0
 62
     7
 10
30.8552
 20
112.33222000000001
 30
0.0
 40
3.0923400000000001
  1
5
 50
90.0
 41
0.5
 72
     2
 11
30.8552
 21
113.363
 31
0.0
  0
TEXT
  5
25
  8
0
 62
     7
 10
131.60576
 20
152.834
 30
0.0
 40
3.0923400000000001
  1
カウンター切込寸法
 41
0.5
 72
     1
 11
139.852
 21
152.834
 31
0.0
  0
TEXT
  5
26
  8
0
 62
     7
 10
130.84660329824339
 20
183.39260329824339
 30
0.0
 40
3.0923400000000001
  1
%%c435
 50
45.0
 41
0.5
 72
     1
 11
132.851
 21
185.39699999999999
 31
0.0
  0
TEXT
  5
27
  8
0
 62
     7
 10
51.591799999999999
 20
185.53599999999989
 30
0.0
 40
3.0923400000000001
  1
%%c46
 41
0.5
  0
TEXT
  5
28
  8
0
 62
     7
 10
60.637554999999999
 20
146.29499999999999
 30
0.0
 40
3.0923400000000001
  1
%%c456
 41
0.5
 72
     1
 11
63.472200000000001
 21
146.29499999999999
 31
0.0
  0
TEXT
  5
29
  8
0
 62
     7
 10
95.612639999999985
 20
154.15299999999999
 30
0.0
 40
3.0923400000000001
  1
19
 41
0.5
 72
     2
 11
97.674200000000013
 21
154.15299999999999
 31
0.0
  0
TEXT
  5
2A
  8
0
 62
     7
 10
28.838699999999999
 20
154.15299999999999
 30
0.0
 40
3.0923400000000001
  1
19
 41
0.5
  0
TEXT
  5
2B
  8
0
 62
     7
 10
60.895249999999997
 20
153.92400000000001
 30
0.0
 40
3.0923400000000001
  1
%%c418
 41
0.5
 72
     1
 11
63.472200000000001
 21
153.92400000000001
 31
0.0
  0
TEXT
  5
2C
  8
0
 62
     7
 10
175.96100000000001
 20
115.984613
 30
0.0
 40
3.0923400000000001
  1
カウンター厚さ：max.20
 50
90.0
 41
0.5
 72
     2
 11
175.96100000000001
 21
138.30099999999999
 31
0.0
  0
TEXT
  5
2D
  8
0
 62
     7
 10
102.749
 20
94.812335000000004
 30
0.0
 40
3.0923400000000001
  1
200
 50
90.0
 41
0.5
 72
     1
 11
102.749
 21
96.616200000000006
 31
0.0
  0
TEXT
  5
2E
  8
0
 62
     7
 10
95.924999999999983
 20
97.000035000000011
 30
0.0
 40
3.0923400000000001
  1
165
 50
90.0
 41
0.5
 72
     1
 11
95.924999999999983
 21
98.803899999999999
 31
0.0
  0
LINE
  5
2F
  8
0
 62
     7
 10
26.430099999999999
 20
91.451999999999998
 30
0.0
 11
27.022600000000001
 21
89.241600000000005
 31
0.0
  0
LINE
  5
30
  8
0
 62
     7
 10
27.022600000000001
 20
89.241600000000005
 30
0.0
 11
27.6145
 21
91.451999999999998
 31
0.0
  0
LINE
  5
31
  8
0
 62
     7
 10
27.6145
 20
91.451999999999998
 30
0.0
 11
26.430099999999999
 21
91.451999999999998
 31
0.0
  0
LINE
  5
32
  8
0
 62
     7
 10
27.607600000000001
 20
106.90600000000001
 30
0.0
 11
27.015699999999999
 21
109.117
 31
0.0
  0
LINE
  5
33
  8
0
 62
     7
 10
27.015699999999999
 20
109.117
 30
0.0
 11
26.423200000000001
 21
106.90600000000001
 31
0.0
  0
LINE
  5
34
  8
0
 62
     7
 10
26.423200000000001
 20
106.90600000000001
 30
0.0
 11
27.607600000000001
 21
106.90600000000001
 31
0.0
  0
LINE
  5
35
  8
0
 62
     7
 10
27.022600000000001
 20
89.241600000000005
 30
0.0
 11
27.022600000000001
 21
109.117
 31
0.0
  0
LINE
  5
36
  8
0
 62
     7
 10
26.322600000000001
 20
89.241600000000005
 30
0.0
 11
56.9437
 21
89.241600000000005
 31
0.0
  0
ARC
  5
37
  8
0
 62
     7
 10
143.983878
 20
88.495757999999995
 30
0.0
 40
0.7458960000000001
 50
90.478274999999982
 51
96.006919000000011
  0
ARC
  5
38
  8
0
 62
     7
 10
144.057007
 20
87.620824999999996
 30
0.0
 40
1.623788
 50
95.342378999999994
 51
125.45941999999999
  0
ARC
  5
39
  8
0
 62
     7
 10
143.91260700000001
 20
87.867506999999975
 30
0.0
 40
1.339331
 50
126.54988899999989
 51
135.38131300000001
  0
ARC
  5
3A
  8
0
  6
AIGENLINE002
 62
     7
 10
143.91095000000001
 20
87.870068000000003
 30
0.0
 40
1.3363529999999999
 50
135.40960200000001
 51
152.298982
  0
ARC
  5
3B
  8
0
 62
     7
 10
135.68677299999999
 20
87.859053000000003
 30
0.0
 40
1.3831789999999999
 50
76.747241000000002
 51
88.307355000000015
  0
ARC
  5
3C
  8
0
 62
     7
 10
135.665289
 20
87.678802999999988
 30
0.0
 40
1.563687
 50
46.280076000000001
 51
77.495114000000001
  0
ARC
  5
3D
  8
0
  6
AIGENLINE002
 62
     7
 10
135.79957400000001
 20
87.875926000000007
 30
0.0
 40
1.328989999999999
 50
27.582494000000001
 51
44.590395000000001
  0
LINE
  5
3E
  8
0
  6
AIGENLINE002
 62
     7
 10
136.97799999999989
 20
88.491299999999995
 30
0.0
 11
142.72800000000001
 21
88.491299999999995
 31
0.0
  0
ARC
  5
3F
  8
0
 62
     7
 10
67.603543000000002
 20
88.495767000000001
 30
0.0
 40
0.745888
 50
90.476895999999996
 51
96.006844000000015
  0
ARC
  5
40
  8
0
 62
     7
 10
67.676675000000003
 20
87.620339000000001
 30
0.0
 40
1.624271
 50
95.340818999999996
 51
125.453846
  0
ARC
  5
41
  8
0
 62
     7
 10
67.532418000000007
 20
87.867129000000006
 30
0.0
 40
1.3398099999999991
 50
126.5504
 51
135.37884
  0
ARC
  5
42
  8
0
  6
AIGENLINE002
 62
     7
 10
67.540415999999993
 20
87.862796999999986
 30
0.0
 40
1.3485469999999991
 50
135.48651699999999
 51
152.22206800000001
  0
ARC
  5
43
  8
0
 62
     7
 10
59.306274000000002
 20
87.859018000000006
 30
0.0
 40
1.3832139999999991
 50
76.747354999999999
 51
88.306954000000005
  0
ARC
  5
44
  8
0
 62
     7
 10
59.284843999999993
 20
87.678880000000007
 30
0.0
 40
1.563601
 50
46.279285999999992
 51
77.496249000000006
  0
ARC
  5
45
  8
0
  6
AIGENLINE002
 62
     7
 10
59.416587
 20
87.873464999999996
 30
0.0
 40
1.332495999999999
 50
27.623118999999999
 51
44.590344000000002
  0
ARC
  5
46
  8
0
 62
     7
 10
167.8651669999999
 20
108.92323500000001
 30
0.0
 40
0.193341
 50
7.2693269999999997
 51
88.499777000000009
  0
ARC
  5
47
  8
0
 62
     7
 10
168.27768
 20
108.68484100000001
 30
0.0
 40
0.193341
 50
187.26934700000001
 51
268.499797
  0
LINE
  5
48
  8
0
 62
     7
 10
168.08600000000001
 20
108.66
 30
0.0
 11
168.05699999999999
 21
108.94799999999999
 31
0.0
  0
ARC
  5
49
  8
0
 62
     7
 10
111.839769
 20
108.92323500000001
 30
0.0
 40
0.193341
 50
91.500203000000013
 51
172.73065299999999
  0
ARC
  5
4A
  8
0
 62
     7
 10
111.427256
 20
108.68484100000001
 30
0.0
 40
0.193341
 50
271.50022300000001
 51
352.73067300000002
  0
LINE
  5
4B
  8
0
 62
     7
 10
111.619
 20
108.66
 30
0.0
 11
111.648
 21
108.94799999999999
 31
0.0
  0
ARC
  5
4C
  8
0
 62
     7
 10
91.484849999999994
 20
108.92323500000001
 30
0.0
 40
0.193341
 50
7.2693269999999997
 51
88.499777000000009
  0
ARC
  5
4D
  8
0
 62
     7
 10
91.897191000000007
 20
108.68484100000001
 30
0.0
 40
0.193341
 50
187.26934700000001
 51
268.499797
  0
LINE
  5
4E
  8
0
 62
     7
 10
91.705399999999997
 20
108.66
 30
0.0
 11
91.676599999999993
 21
108.94799999999999
 31
0.0
  0
ARC
  5
4F
  8
0
 62
     7
 10
35.459705
 20
108.922766
 30
0.0
 40
0.193822
 50
91.622003000000007
 51
172.60885400000001
  0
ARC
  5
50
  8
0
 62
     7
 10
35.046514999999999
 20
108.68531
 30
0.0
 40
0.193822
 50
271.62202200000002
 51
352.60887400000001
  0
LINE
  5
51
  8
0
 62
     7
 10
30.963000000000001
 20
111.327
 30
0.0
 11
31.555199999999999
 21
109.117
 31
0.0
  0
LINE
  5
52
  8
0
 62
     7
 10
31.555199999999999
 20
109.117
 30
0.0
 11
32.147599999999997
 21
111.327
 31
0.0
  0
LINE
  5
53
  8
0
 62
     7
 10
32.147599999999997
 20
111.327
 30
0.0
 11
30.963000000000001
 21
111.327
 31
0.0
  0
LINE
  5
54
  8
0
 62
     7
 10
32.147399999999998
 20
106.28100000000001
 30
0.0
 11
31.555199999999999
 21
108.492
 31
0.0
  0
LINE
  5
55
  8
0
 62
     7
 10
31.555199999999999
 20
108.492
 30
0.0
 11
30.962800000000001
 21
106.28100000000001
 31
0.0
  0
LINE
  5
56
  8
0
 62
     7
 10
30.962800000000001
 20
106.28100000000001
 30
0.0
 11
32.147399999999998
 21
106.28100000000001
 31
0.0
  0
LINE
  5
57
  8
0
 62
     7
 10
31.555199999999999
 20
104.77500000000001
 30
0.0
 11
31.555199999999999
 21
113.363
 31
0.0
  0
LINE
  5
58
  8
0
 62
     7
 10
34.271900000000002
 20
108.492
 30
0.0
 11
30.695699999999999
 21
108.492
 31
0.0
  0
LINE
  5
59
  8
0
 62
     7
 10
34.584299999999999
 20
109.117
 30
0.0
 11
26.3157
 21
109.117
 31
0.0
  0
LINE
  5
5A
  8
0
 62
     7
 10
135.72800000000001
 20
89.241600000000005
 30
0.0
 11
143.97800000000001
 21
89.241600000000005
 31
0.0
  0
LINE
  5
5B
  8
0
 62
     7
 10
135.727
 20
88.807199999999995
 30
0.0
 11
143.97800000000001
 21
88.807199999999995
 31
0.0
  0
LINE
  5
5C
  8
0
 62
     7
 10
135.727
 20
88.807199999999995
 30
0.0
 11
135.727
 21
84.115999999999985
 31
0.0
  0
LINE
  5
5D
  8
0
  6
AIGENLINE001
 62
     7
 10
139.852
 20
83.046599999999998
 30
0.0
 11
139.852
 21
110.88
 31
0.0
  0
LINE
  5
5E
  8
0
 62
     7
 10
135.727
 20
84.115999999999985
 30
0.0
 11
143.97800000000001
 21
84.115999999999985
 31
0.0
  0
ARC
  5
5F
  8
0
 62
     7
 10
138.800434
 20
117.19011999999999
 30
0.0
 40
28.423964999999999
 50
280.49460099999999
 51
339.24134400000003
  0
ARC
  5
60
  8
0
 62
     7
 10
140.456639
 20
116.032178
 30
0.0
 40
26.469508999999999
 50
340.31452100000001
 51
343.448374
  0
ARC
  5
61
  8
0
 62
     7
 10
140.90467899999999
 20
117.19043000000001
 30
0.0
 40
28.424239
 50
200.75913499999999
 51
259.50586800000002
  0
ARC
  5
62
  8
0
 62
     7
 10
139.24829800000001
 20
116.032178
 30
0.0
 40
26.469508999999999
 50
196.55164500000001
 51
199.685498
  0
LINE
  5
63
  8
0
 62
     7
 10
168.35300000000001
 20
108.492
 30
0.0
 11
168.102
 21
108.492
 31
0.0
  0
LINE
  5
64
  8
0
 62
     7
 10
111.602
 20
108.492
 30
0.0
 11
168.102
 21
108.492
 31
0.0
  0
LINE
  5
65
  8
0
 62
     7
 10
111.83499999999999
 20
109.117
 30
0.0
 11
167.87
 21
109.117
 31
0.0
  0
LINE
  5
66
  8
0
 62
     7
 10
111.352
 20
108.492
 30
0.0
 11
111.602
 21
108.492
 31
0.0
  0
LINE
  5
67
  8
0
 62
     7
 10
59.34709999999999
 20
89.241600000000005
 30
0.0
 11
67.597300000000004
 21
89.241600000000005
 31
0.0
  0
LINE
  5
68
  8
0
 62
     7
 10
59.34709999999999
 20
88.807500000000005
 30
0.0
 11
67.597300000000004
 21
88.807500000000005
 31
0.0
  0
LINE
  5
69
  8
0
  6
AIGENLINE002
 62
     7
 10
60.597200000000001
 20
88.491299999999995
 30
0.0
 11
66.347300000000004
 21
88.491299999999995
 31
0.0
  0
LINE
  5
6A
  8
0
 62
     7
 10
67.597300000000004
 20
88.807500000000005
 30
0.0
 11
67.597300000000004
 21
84.116299999999995
 31
0.0
  0
LINE
  5
6B
  8
0
 62
     7
 10
59.34709999999999
 20
88.807500000000005
 30
0.0
 11
59.34709999999999
 21
84.116299999999995
 31
0.0
  0
LINE
  5
6C
  8
0
  6
AIGENLINE001
 62
     7
 10
63.472200000000001
 20
82.730699999999999
 30
0.0
 11
63.472200000000001
 21
110.88
 31
0.0
  0
LINE
  5
6D
  8
0
 62
     7
 10
59.34709999999999
 20
84.116299999999995
 30
0.0
 11
67.597300000000004
 21
84.116299999999995
 31
0.0
  0
ARC
  5
6E
  8
0
 62
     7
 10
62.420065000000001
 20
117.19043000000001
 30
0.0
 40
28.424278999999999
 50
280.49458900000002
 51
339.24091600000003
  0
ARC
  5
6F
  8
0
 62
     7
 10
64.119109999999992
 20
116.018331
 30
0.0
 40
26.424714000000002
 50
340.31166000000002
 51
343.45083099999999
  0
ARC
  5
70
  8
0
 62
     7
 10
64.524410000000003
 20
117.19043000000001
 30
0.0
 40
28.424278999999999
 50
200.75910400000001
 51
259.50543099999999
  0
ARC
  5
71
  8
0
 62
     7
 10
62.825364999999998
 20
116.018331
 30
0.0
 40
26.424714000000002
 50
196.54918900000001
 51
199.68835999999999
  0
LINE
  5
72
  8
0
 62
     7
 10
91.972199999999987
 20
108.492
 30
0.0
 11
91.722300000000004
 21
108.492
 31
0.0
  0
LINE
  5
73
  8
0
 62
     7
 10
35.238700000000001
 20
108.66
 30
0.0
 11
35.267499999999998
 21
108.94799999999999
 31
0.0
  0
LINE
  5
74
  8
0
 62
     7
 10
35.221800000000002
 20
108.492
 30
0.0
 11
91.722300000000004
 21
108.492
 31
0.0
  0
LINE
  5
75
  8
0
 62
     7
 10
35.4542
 20
109.117
 30
0.0
 11
91.489900000000006
 21
109.117
 31
0.0
  0
LINE
  5
76
  8
0
 62
     7
 10
34.971899999999998
 20
108.492
 30
0.0
 11
35.221800000000002
 21
108.492
 31
0.0
  0
LINE
  5
77
  8
0
 62
     7
 10
121.77200000000001
 20
173.86099999999999
 30
0.0
 11
120.628
 21
171.88
 31
0.0
  0
LINE
  5
78
  8
0
 62
     7
 10
120.628
 20
171.88
 30
0.0
 11
122.61
 21
173.024
 31
0.0
  0
LINE
  5
79
  8
0
 62
     7
 10
122.61
 20
173.024
 30
0.0
 11
121.77200000000001
 21
173.86099999999999
 31
0.0
  0
LINE
  5
7A
  8
0
 62
     7
 10
157.93199999999999
 20
208.34700000000001
 30
0.0
 11
159.077
 21
210.32900000000001
 31
0.0
  0
LINE
  5
7B
  8
0
 62
     7
 10
159.077
 20
210.32900000000001
 30
0.0
 11
157.095
 21
209.185
 31
0.0
  0
LINE
  5
7C
  8
0
 62
     7
 10
157.095
 20
209.185
 30
0.0
 11
157.93199999999999
 21
208.34700000000001
 31
0.0
  0
LINE
  5
7D
  8
0
 62
     7
 10
120.628
 20
171.88
 30
0.0
 11
159.077
 21
210.32900000000001
 31
0.0
  0
LINE
  5
7E
  8
0
 62
     7
 10
57.203400000000002
 20
184.8359999999999
 30
0.0
 11
51.591799999999999
 21
184.8359999999999
 31
0.0
  0
LINE
  5
7F
  8
0
 62
     7
 10
66.649199999999993
 20
195.119
 30
0.0
 11
65.504900000000006
 21
193.137
 31
0.0
  0
LINE
  5
80
  8
0
 62
     7
 10
65.504900000000006
 20
193.137
 30
0.0
 11
67.486900000000006
 21
194.28100000000001
 31
0.0
  0
LINE
  5
81
  8
0
 62
     7
 10
67.486900000000006
 20
194.28100000000001
 30
0.0
 11
66.649199999999993
 21
195.119
 31
0.0
  0
LINE
  5
82
  8
0
 62
     7
 10
60.294699999999992
 20
187.089
 30
0.0
 11
61.438999999999993
 21
189.071
 31
0.0
  0
LINE
  5
83
  8
0
 62
     7
 10
61.438999999999993
 20
189.071
 30
0.0
 11
59.457000000000001
 21
187.92699999999999
 31
0.0
  0
LINE
  5
84
  8
0
 62
     7
 10
59.457000000000001
 20
187.92699999999999
 30
0.0
 11
60.294699999999992
 21
187.089
 31
0.0
  0
LINE
  5
85
  8
0
 62
     7
 10
57.203400000000002
 20
184.8359999999999
 30
0.0
 11
68.358500000000006
 21
195.99000000000001
 31
0.0
  0
LINE
  5
86
  8
0
  6
AIGENLINE001
 62
     7
 10
60.858899999999998
 20
216.114
 30
0.0
 11
66.099199999999996
 21
216.114
 31
0.0
  0
ARC
  5
87
  8
0
 62
     7
 10
64.246624999999995
 20
215.52047999999999
 30
0.0
 40
1.032378
 50
56.785924000000001
 51
68.526836000000003
  0
ARC
  5
88
  8
0
 62
     7
 10
63.868087000000003
 20
214.63877400000001
 30
0.0
 40
1.9916720000000001
 50
67.678110000000004
 51
77.383740000000003
  0
ARC
  5
89
  8
0
 62
     7
 10
63.521420999999997
 20
213.21417199999999
 30
0.0
 40
3.4577019999999989
 50
76.934097999999992
 51
90.819283999999996
  0
ARC
  5
8A
  8
0
 62
     7
 10
63.471868000000008
 20
212.75555199999999
 30
0.0
 40
3.915967999999999
 50
89.998362999999998
 51
102.25010399999999
  0
ARC
  5
8B
  8
0
 62
     7
 10
63.132319999999993
 20
214.461759
 30
0.0
 40
2.1767750000000001
 50
103.04519000000001
 51
112.159329
  0
ARC
  5
8C
  8
0
 62
     7
 10
62.762452000000003
 20
215.393495
 30
0.0
 40
1.1743840000000001
 50
112.59287
 51
122.478419
  0
ARC
  5
8D
  8
0
 62
     7
 10
63.948868999999988
 20
215.719314
 30
0.0
 40
0.6764770000000001
 50
56.343133999999999
 51
70.634930000000011
  0
ARC
  5
8E
  8
0
 62
     7
 10
63.661659
 20
214.99422200000001
 30
0.0
 40
1.4561029999999999
 50
69.433512000000007
 51
80.714743000000013
  0
ARC
  5
8F
  8
0
 62
     7
 10
63.487062000000002
 20
214.098949
 30
0.0
 40
2.3679799999999989
 50
80.040687000000005
 51
90.364928999999975
  0
ARC
  5
90
  8
0
 62
     7
 10
63.474285999999999
 20
213.93336500000001
 30
0.0
 40
2.5335169999999989
 50
90.052159000000003
 51
101.087052
  0
ARC
  5
91
  8
0
 62
     7
 10
63.271290999999998
 20
215.03303399999999
 30
0.0
 40
1.415389
 50
101.58335099999999
 51
112.81010999999999
  0
ARC
  5
92
  8
0
 62
     7
 10
63.000466000000003
 20
215.70151000000001
 30
0.0
 40
0.694264
 50
113.594944
 51
122.789952
  0
ARC
  5
93
  8
0
 62
     7
 10
62.516609000000003
 20
216.451595
 30
0.0
 40
0.198343
 50
291.69408900000002
 51
302.94689699999998
  0
ARC
  5
94
  8
0
 62
     7
 10
62.442155000000007
 20
216.631629
 30
0.0
 40
0.393156
 50
281.87615099999999
 51
292.07761799999997
  0
ARC
  5
95
  8
0
 62
     7
 10
62.383981000000013
 20
216.90011200000001
 30
0.0
 40
0.667866
 50
269.529721
 51
282.01989900000001
  0
ARC
  5
96
  8
0
 62
     7
 10
62.376769999999993
 20
216.92922100000001
 30
0.0
 40
0.696955
 50
256.616063
 51
270.14210700000001
  0
ARC
  5
97
  8
0
 62
     7
 10
62.294044999999997
 20
216.57043999999999
 30
0.0
 40
0.328779
 50
243.8001240000001
 51
256.16821499999998
  0
ARC
  5
98
  8
0
 62
     7
 10
62.206809
 20
216.39609100000001
 30
0.0
 40
0.133834
 50
224.76911200000001
 51
244.35558399999999
  0
ARC
  5
99
  8
0
 62
     7
 10
62.147368
 20
216.33757299999999
 30
0.0
 40
0.050424
 50
183.393193
 51
225.12809999999999
  0
ARC
  5
9A
  8
0
 62
     7
 10
62.137301000000001
 20
216.334451
 30
0.0
 40
0.040268
 50
152.98818499999999
 51
179.80448000000001
  0
ARC
  5
9B
  8
0
 62
     7
 10
62.171689000000001
 20
216.314818
 30
0.0
 40
0.079844
 50
119.6644629999999
 51
151.64438799999999
  0
ARC
  5
9C
  8
0
 62
     7
 10
64.427032999999994
 20
216.450005
 30
0.0
 40
0.196743
 50
236.92058399999999
 51
248.73699099999999
  0
ARC
  5
9D
  8
0
 62
     7
 10
64.504786999999993
 20
216.64162899999999
 30
0.0
 40
0.403531
 50
248.31550799999999
 51
258.31710099999998
  0
ARC
  5
9E
  8
0
 62
     7
 10
64.560374999999993
 20
216.90259800000001
 30
0.0
 40
0.6703520000000001
 50
258.18110200000001
 51
270.46406100000002
  0
ARC
  5
9F
  8
0
 62
     7
 10
64.567526999999998
 20
216.926976
 30
0.0
 40
0.6947100000000001
 50
269.85791
 51
283.4056589999999
  0
ARC
  5
A0
  8
0
 62
     7
 10
64.649967000000004
 20
216.570178
 30
0.0
 40
0.32853
 50
283.84644900000001
 51
296.21508
  0
ARC
  5
A1
  8
0
 62
     7
 10
64.737210000000005
 20
216.39596
 30
0.0
 40
0.133699
 50
295.65398900000008
 51
315.25279
  0
ARC
  5
A2
  8
0
 62
     7
 10
64.796590000000009
 20
216.33757299999999
 30
0.0
 40
0.050424
 50
314.87191999999999
 51
356.60682600000001
  0
ARC
  5
A3
  8
0
 62
     7
 10
64.806604000000007
 20
216.33451299999999
 30
0.0
 40
0.040321
 50
0.107493
 51
26.874973000000001
  0
ARC
  5
A4
  8
0
 62
     7
 10
64.773026000000002
 20
216.31547499999999
 30
0.0
 40
0.078899
 50
28.184055000000001
 51
60.577208999999989
  0
ARC
  5
A5
  8
0
 62
     7
 10
64.245002999999997
 20
216.71090699999999
 30
0.0
 40
1.035355
 50
291.50484
 51
303.21353099999999
  0
ARC
  5
A6
  8
0
 62
     7
 10
63.871875000000003
 20
217.58030199999999
 30
0.0
 40
1.9812139999999989
 50
282.88388800000001
 51
292.32766500000002
  0
ARC
  5
A7
  8
0
 62
     7
 10
63.523232999999998
 20
218.999087
 30
0.0
 40
3.4420989999999989
 50
269.14682900000003
 51
283.275217
  0
ARC
  5
A8
  8
0
 62
     7
 10
63.471871999999998
 20
219.47614899999999
 30
0.0
 40
3.9187789999999998
 50
257.75876
 51
270.00157799999999
  0
ARC
  5
A9
  8
0
 62
     7
 10
63.132319999999993
 20
217.767067
 30
0.0
 40
2.1767750000000001
 50
247.84067099999999
 51
256.95481000000001
  0
ARC
  5
AA
  8
0
 62
     7
 10
62.760179999999998
 20
216.83029300000001
 30
0.0
 40
1.16886
 50
237.48121499999999
 51
247.41506699999999
  0
ARC
  5
AB
  8
0
 62
     7
 10
63.945030000000003
 20
216.5154
 30
0.0
 40
0.6834520000000001
 50
289.00885
 51
303.65416199999999
  0
ARC
  5
AC
  8
0
 62
     7
 10
63.655625000000001
 20
217.25609299999999
 30
0.0
 40
1.478370999999999
 50
279.095573
 51
290.26345199999997
  0
ARC
  5
AD
  8
0
 62
     7
 10
63.486398999999999
 20
218.142742
 30
0.0
 40
2.380776
 50
269.65297399999997
 51
279.74380200000002
  0
ARC
  5
AE
  8
0
 62
     7
 10
63.474288999999999
 20
218.29668699999999
 30
0.0
 40
2.5346779999999991
 50
258.918027
 51
269.94780300000002
  0
ARC
  5
AF
  8
0
 62
     7
 10
63.274236000000002
 20
217.206389
 30
0.0
 40
1.4263189999999999
 50
247.24619700000011
 51
258.38588099999998
  0
ARC
  5
B0
  8
0
 62
     7
 10
62.999543999999993
 20
216.52652900000001
 30
0.0
 40
0.6931930000000001
 50
237.24371099999999
 51
246.449578
  0
ARC
  5
B1
  8
0
 62
     7
 10
62.516005000000007
 20
215.77617799999999
 30
0.0
 40
0.199465
 50
57.055244999999999
 51
68.247416999999999
  0
ARC
  5
B2
  8
0
 62
     7
 10
62.441349000000002
 20
215.59569400000001
 30
0.0
 40
0.3947719999999999
 50
67.891330000000025
 51
78.053659999999994
  0
ARC
  5
B3
  8
0
 62
     7
 10
62.383949000000001
 20
215.33228700000001
 30
0.0
 40
0.664357
 50
77.912824000000001
 51
90.469981000000004
  0
ARC
  5
B4
  8
0
 62
     7
 10
62.376769999999993
 20
215.29966999999999
 30
0.0
 40
0.696955
 50
89.857893000000004
 51
103.383937
  0
ARC
  5
B5
  8
0
 62
     7
 10
62.294044999999997
 20
215.65844999999999
 30
0.0
 40
0.328779
 50
103.831785
 51
116.199876
  0
ARC
  5
B6
  8
0
 62
     7
 10
62.206809
 20
215.83279999999999
 30
0.0
 40
0.133834
 50
115.64441600000001
 51
135.23088799999999
  0
ARC
  5
B7
  8
0
 62
     7
 10
62.147368
 20
215.89131800000001
 30
0.0
 40
0.050424
 50
134.87190000000001
 51
176.606807
  0
ARC
  5
B8
  8
0
 62
     7
 10
62.137411
 20
215.89444499999999
 30
0.0
 40
0.040378
 50
180.20182700000001
 51
206.974468
  0
ARC
  5
B9
  8
0
 62
     7
 10
62.170966
 20
215.91338999999999
 30
0.0
 40
0.078894
 50
208.18314599999999
 51
240.547224
  0
ARC
  5
BA
  8
0
 62
     7
 10
64.427032999999994
 20
215.77871400000001
 30
0.0
 40
0.196743
 50
111.263009
 51
123.07941599999999
  0
ARC
  5
BB
  8
0
 62
     7
 10
64.504823999999999
 20
215.58864500000001
 30
0.0
 40
0.402099
 50
101.730447
 51
111.771281
  0
ARC
  5
BC
  8
0
 62
     7
 10
64.560420999999991
 20
215.329791
 30
0.0
 40
0.666854
 50
89.537459999999996
 51
101.885845
  0
ARC
  5
BD
  8
0
 62
     7
 10
64.567526999999998
 20
215.30191400000001
 30
0.0
 40
0.6947100000000001
 50
76.594341
 51
90.142089999999996
  0
ARC
  5
BE
  8
0
 62
     7
 10
64.649967000000004
 20
215.65871200000001
 30
0.0
 40
0.32853
 50
63.784919999999993
 51
76.153551000000007
  0
ARC
  5
BF
  8
0
 62
     7
 10
64.737210000000005
 20
215.832931
 30
0.0
 40
0.133699
 50
44.747209999999988
 51
64.346011000000004
  0
ARC
  5
C0
  8
0
 62
     7
 10
64.796590000000009
 20
215.89131800000001
 30
0.0
 40
0.050424
 50
3.3931739999999988
 51
45.12807999999999
  0
ARC
  5
C1
  8
0
 62
     7
 10
64.806494999999998
 20
215.894383
 30
0.0
 40
0.040431
 50
333.16211499999997
 51
359.88622199999998
  0
ARC
  5
C2
  8
0
 62
     7
 10
64.773731000000012
 20
215.91274999999999
 30
0.0
 40
0.077974
 50
299.21145899999999
 51
331.98805600000009
  0
ARC
  5
C3
  8
0
 62
     7
 10
65.179743000000002
 20
216.11537799999999
 30
0.0
 40
0.2923010000000001
 50
325.57047999999998
 51
359.817251
  0
ARC
  5
C4
  8
0
 62
     7
 10
64.981031000000002
 20
216.234095
 30
0.0
 40
0.523523
 50
308.26966199999998
 51
327.14986800000003
  0
ARC
  5
C5
  8
0
 62
     7
 10
64.647891000000001
 20
216.624393
 30
0.0
 40
1.0364719999999989
 50
296.05271900000002
 51
309.36499300000003
  0
ARC
  5
C6
  8
0
 62
     7
 10
64.220849999999999
 20
217.433582
 30
0.0
 40
1.9512
 50
287.23633799999999
 51
296.88247699999999
  0
ARC
  5
C7
  8
0
 62
     7
 10
63.753523000000001
 20
218.845765
 30
0.0
 40
3.4385509999999999
 50
277.16956299999998
 51
287.70107300000001
  0
ARC
  5
C8
  8
0
 62
     7
 10
63.489423000000002
 20
220.491567
 30
0.0
 40
5.1047599999999989
 50
269.804216
 51
277.80517200000003
  0
ARC
  5
C9
  8
0
 62
     7
 10
63.47242399999999
 20
220.59532100000001
 30
0.0
 40
5.2084839999999986
 50
259.21218900000002
 51
269.99512099999998
  0
ARC
  5
CA
  8
0
 62
     7
 10
63.102511
 20
218.500789
 30
0.0
 40
3.0818650000000001
 50
247.92254299999999
 51
258.67929800000002
  0
ARC
  5
CB
  8
0
 62
     7
 10
62.514253000000011
 20
216.99006600000001
 30
0.0
 40
1.460987
 50
235.69651200000001
 51
247.032442
  0
ARC
  5
CC
  8
0
 62
     7
 10
62.102705
 20
216.37226899999999
 30
0.0
 40
0.7187560000000001
 50
219.48262700000001
 51
235.042001
  0
ARC
  5
CD
  8
0
 62
     7
 10
61.819958999999997
 20
216.13289700000001
 30
0.0
 40
0.34836
 50
183.03625600000001
 51
218.66522599999999
  0
ARC
  5
CE
  8
0
 62
     7
 10
61.764114999999997
 20
216.113517
 30
0.0
 40
0.292028
 50
145.55018000000001
 51
179.817869
  0
ARC
  5
CF
  8
0
 62
     7
 10
61.961526999999997
 20
215.99607399999999
 30
0.0
 40
0.521465
 50
128.22502700000001
 51
147.17948100000001
  0
ARC
  5
D0
  8
0
 62
     7
 10
62.296994999999988
 20
215.60336599999999
 30
0.0
 40
1.0377459999999989
 50
116.062448
 51
129.359702
  0
ARC
  5
D1
  8
0
 62
     7
 10
62.723257999999987
 20
214.79536999999999
 30
0.0
 40
1.9510599999999989
 50
107.235545
 51
116.882524
  0
ARC
  5
D2
  8
0
 62
     7
 10
63.189616999999998
 20
213.38899699999999
 30
0.0
 40
3.432582
 50
97.165593000000001
 51
107.714744
  0
ARC
  5
D3
  8
0
 62
     7
 10
63.454923999999998
 20
211.736153
 30
0.0
 40
5.105929999999999
 50
89.808603000000005
 51
97.805926999999997
  0
ARC
  5
D4
  8
0
 62
     7
 10
63.471541000000002
 20
211.63397599999999
 30
0.0
 40
5.2080779999999987
 50
79.209216999999995
 51
89.995168000000007
  0
ARC
  5
D5
  8
0
 62
     7
 10
63.84238100000001
 20
213.731112
 30
0.0
 40
3.078724999999999
 50
67.913238000000007
 51
78.681611000000004
  0
ARC
  5
D6
  8
0
 62
     7
 10
64.429377000000002
 20
215.237652
 30
0.0
 40
1.4621999999999991
 50
55.703908999999989
 51
67.029436000000004
  0
ARC
  5
D7
  8
0
 62
     7
 10
64.841109000000003
 20
215.856178
 30
0.0
 40
0.719263
 50
39.490622000000002
 51
55.036827000000002
  0
ARC
  5
D8
  8
0
 62
     7
 10
65.123886999999996
 20
216.09585300000001
 30
0.0
 40
0.348651
 50
3.0568360000000001
 51
38.647438000000001
  0
ARC
  5
D9
  8
0
 62
     7
 10
139.85237699999999
 20
191.104018
 30
0.0
 40
27.187578000000009
 50
270.000201
 51
0.000172
  0
ARC
  5
DA
  8
0
 62
     7
 10
139.85237699999999
 20
191.10418100000001
 30
0.0
 40
27.187740999999999
 50
180.000191
 51
270.000201
  0
ARC
  5
DB
  8
0
 62
     7
 10
139.85238699999999
 20
191.10400899999999
 30
0.0
 40
27.187750000000001
 50
89.999818000000005
 51
179.99978899999999
  0
ARC
  5
DC
  8
0
 62
     7
 10
139.85237699999999
 20
191.10418100000001
 30
0.0
 40
27.187578000000009
 50
359.99982799999998
 51
89.999798999999996
  0
LINE
  5
DD
  8
0
  6
AIGENLINE001
 62
     7
 10
170.46000000000001
 20
191.10400000000001
 30
0.0
 11
108.724
 21
191.10400000000001
 31
0.0
  0
LINE
  5
DE
  8
0
  6
AIGENLINE001
 62
     7
 10
139.852
 20
221.84100000000001
 30
0.0
 11
139.852
 21
160.10400000000001
 31
0.0
  0
ARC
  5
DF
  8
0
 62
     7
 10
63.472147
 20
191.104105
 30
0.0
 40
28.187609999999999
 50
270.00002000000001
 51
359.99999000000003
  0
ARC
  5
E0
  8
0
 62
     7
 10
63.472059999999992
 20
191.10418100000001
 30
0.0
 40
28.187685999999999
 50
180.00018499999999
 51
270.00019500000002
  0
ARC
  5
E1
  8
0
 62
     7
 10
63.472070000000002
 20
191.10400899999999
 30
0.0
 40
28.187695999999999
 50
89.999824999999987
 51
179.99979500000001
  0
ARC
  5
E2
  8
0
 62
     7
 10
63.472147
 20
191.104095
 30
0.0
 40
28.187609999999999
 50
0.00001
 51
89.999980000000008
  0
ARC
  5
E3
  8
0
 62
     7
 10
63.472150999999997
 20
191.10409999999999
 30
0.0
 40
2.8749509999999989
 50
270.00002000000001
 51
359.99999000000003
  0
ARC
  5
E4
  8
0
 62
     7
 10
63.472065000000001
 20
191.104185
 30
0.0
 40
2.8750360000000001
 50
180.00172599999999
 51
270.00173599999999
  0
ARC
  5
E5
  8
0
 62
     7
 10
63.472065999999998
 20
191.10401300000001
 30
0.0
 40
2.875036999999999
 50
89.998283999999998
 51
179.998254
  0
ARC
  5
E6
  8
0
 62
     7
 10
63.472150999999997
 20
191.10409899999999
 30
0.0
 40
2.8749509999999989
 50
0.00001
 51
89.999980000000008
  0
ARC
  5
E7
  8
0
 62
     7
 10
63.472150999999997
 20
191.10409999999999
 30
0.0
 40
4.125011999999999
 50
270.00002000000001
 51
359.99999000000003
  0
ARC
  5
E8
  8
0
 62
     7
 10
63.472065000000001
 20
191.104185
 30
0.0
 40
4.1250970000000002
 50
180.001206
 51
270.001216
  0
ARC
  5
E9
  8
0
 62
     7
 10
63.472065999999998
 20
191.10401300000001
 30
0.0
 40
4.1250980000000004
 50
89.998804000000007
 51
179.998774
  0
ARC
  5
EA
  8
0
 62
     7
 10
63.472150999999997
 20
191.10409899999999
 30
0.0
 40
4.125011999999999
 50
0.00001
 51
89.999980000000008
  0
ARC
  5
EB
  8
0
 62
     7
 10
63.472060999999997
 20
191.104018
 30
0.0
 40
26.125104
 50
270.00020899999998
 51
0.000179
  0
ARC
  5
EC
  8
0
 62
     7
 10
63.472147
 20
191.104095
 30
0.0
 40
26.125181000000001
 50
179.99996999999999
 51
270.00002000000001
  0
ARC
  5
ED
  8
0
 62
     7
 10
63.472156000000012
 20
191.104095
 30
0.0
 40
26.12519
 50
90.0
 51
179.99996999999999
  0
ARC
  5
EE
  8
0
 62
     7
 10
63.472060999999997
 20
191.10418100000001
 30
0.0
 40
26.125104
 50
359.99982100000011
 51
89.999791000000002
  0
ARC
  5
EF
  8
0
 62
     7
 10
63.472059999999992
 20
191.10401899999999
 30
0.0
 40
28.500167999999999
 50
270.00019300000002
 51
0.000163
  0
ARC
  5
F0
  8
0
 62
     7
 10
63.472147
 20
191.104095
 30
0.0
 40
28.500243999999999
 50
179.99996999999999
 51
270.00002000000001
  0
ARC
  5
F1
  8
0
 62
     7
 10
63.472156000000012
 20
191.104095
 30
0.0
 40
28.500254000000002
 50
90.0
 51
179.99996999999999
  0
ARC
  5
F2
  8
0
 62
     7
 10
63.472059999999992
 20
191.10418100000001
 30
0.0
 40
28.500167999999999
 50
359.99983700000001
 51
89.999807000000004
  0
LINE
  5
F3
  8
0
 62
     7
 10
163.298
 20
95.635400000000004
 30
0.0
 11
163.232
 21
95.529300000000006
 31
0.0
  0
LINE
  5
F4
  8
0
 62
     7
 10
160.85300000000001
 20
97.147099999999995
 30
0.0
 11
160.786
 21
97.040700000000015
 31
0.0
  0
ARC
  5
F5
  8
0
 62
     7
 10
163.16040899999999
 20
95.421747999999994
 30
0.0
 40
0.129439
 50
330.189775
 51
56.201647999999999
  0
ARC
  5
F6
  8
0
 62
     7
 10
163.16514699999999
 20
95.429445000000001
 30
0.0
 40
0.129469
 50
240.20245499999999
 51
326.18898799999999
  0
ARC
  5
F7
  8
0
 62
     7
 10
160.726879
 20
96.935556000000005
 30
0.0
 40
0.129291
 50
150.08617699999999
 51
236.47149300000001
  0
ARC
  5
F8
  8
0
 62
     7
 10
160.722241
 20
96.929008999999994
 30
0.0
 40
0.128784
 50
60.130347999999998
 51
146.530159
  0
LINE
  5
F9
  8
0
 62
     7
 10
160.786
 20
97.040700000000015
 30
0.0
 11
163.232
 21
95.529300000000006
 31
0.0
  0
LINE
  5
FA
  8
0
 62
     7
 10
160.655
 20
96.827800000000011
 30
0.0
 11
163.101
 21
95.317099999999996
 31
0.0
  0
LINE
  5
FB
  8
0
 62
     7
 10
163.49600000000001
 20
95.954800000000006
 30
0.0
 11
163.429
 21
95.848299999999995
 31
0.0
  0
LINE
  5
FC
  8
0
 62
     7
 10
161.05000000000001
 20
97.466200000000001
 30
0.0
 11
160.98400000000001
 21
97.359700000000004
 31
0.0
  0
ARC
  5
FD
  8
0
 62
     7
 10
163.35732999999999
 20
95.740508000000005
 30
0.0
 40
0.129731
 50
330.39505300000002
 51
56.213948000000002
  0
ARC
  5
FE
  8
0
 62
     7
 10
163.36166
 20
95.749775000000014
 30
0.0
 40
0.130942
 50
240.84552099999999
 51
325.92916400000001
  0
ARC
  5
FF
  8
0
 62
     7
 10
160.92349100000001
 20
97.254812000000001
 30
0.0
 40
0.128956
 50
149.94595799999999
 51
236.61171100000001
  0
ARC
  5
100
  8
0
 62
     7
 10
160.91949600000001
 20
97.247688999999994
 30
0.0
 40
0.129323
 50
60.014755000000008
 51
146.325706
  0
LINE
  5
101
  8
0
 62
     7
 10
160.98400000000001
 20
97.359700000000004
 30
0.0
 11
163.429
 21
95.848299999999995
 31
0.0
  0
LINE
  5
102
  8
0
 62
     7
 10
160.85300000000001
 20
97.147099999999995
 30
0.0
 11
163.298
 21
95.635400000000004
 31
0.0
  0
LINE
  5
103
  8
0
 62
     7
 10
163.6929999999999
 20
96.273799999999994
 30
0.0
 11
163.62700000000001
 21
96.167000000000016
 31
0.0
  0
LINE
  5
104
  8
0
 62
     7
 10
161.24700000000001
 20
97.784800000000004
 30
0.0
 11
161.18100000000001
 21
97.679100000000005
 31
0.0
  0
ARC
  5
105
  8
0
 62
     7
 10
163.55499800000001
 20
96.059325000000015
 30
0.0
 40
0.129275
 50
330.20675299999999
 51
56.402248000000007
  0
ARC
  5
106
  8
0
 62
     7
 10
163.55955499999999
 20
96.067930000000004
 30
0.0
 40
0.129961
 50
240.53040899999999
 51
325.91216900000001
  0
ARC
  5
107
  8
0
 62
     7
 10
161.12088499999999
 20
97.573435000000003
 30
0.0
 40
0.129097
 50
150.133081
 51
236.47592000000009
  0
ARC
  5
108
  8
0
 62
     7
 10
161.117118
 20
97.566493000000008
 30
0.0
 40
0.129529
 50
60.353361000000007
 51
146.638082
  0
LINE
  5
109
  8
0
 62
     7
 10
161.18100000000001
 20
97.679100000000005
 30
0.0
 11
163.62700000000001
 21
96.167000000000016
 31
0.0
  0
LINE
  5
10A
  8
0
 62
     7
 10
161.05000000000001
 20
97.465800000000016
 30
0.0
 11
163.49600000000001
 21
95.954800000000006
 31
0.0
  0
LINE
  5
10B
  8
0
 62
     7
 10
163.88999999999999
 20
96.592500000000001
 30
0.0
 11
163.82400000000001
 21
96.486400000000003
 31
0.0
  0
LINE
  5
10C
  8
0
 62
     7
 10
161.44399999999999
 20
98.104200000000006
 30
0.0
 11
161.37799999999999
 21
97.997699999999995
 31
0.0
  0
ARC
  5
10D
  8
0
 62
     7
 10
163.750418
 20
96.378170999999995
 30
0.0
 40
0.130617
 50
330.62973299999999
 51
55.927937000000007
  0
ARC
  5
10E
  8
0
 62
     7
 10
163.756867
 20
96.385879000000003
 30
0.0
 40
0.129156
 50
240.200096
 51
326.242481
  0
ARC
  5
10F
  8
0
 62
     7
 10
161.31894399999999
 20
97.892817000000008
 30
0.0
 40
0.129954
 50
150.35996399999999
 51
236.19770600000001
  0
ARC
  5
110
  8
0
 62
     7
 10
161.31398100000001
 20
97.884789000000012
 30
0.0
 40
0.129954
 50
60.359991000000001
 51
146.19765899999999
  0
LINE
  5
111
  8
0
 62
     7
 10
161.37799999999999
 20
97.997699999999995
 30
0.0
 11
163.82400000000001
 21
96.486400000000003
 31
0.0
  0
LINE
  5
112
  8
0
 62
     7
 10
161.24700000000001
 20
97.784800000000004
 30
0.0
 11
163.6929999999999
 21
96.273799999999994
 31
0.0
  0
LINE
  5
113
  8
0
 62
     7
 10
164.08699999999999
 20
96.911800000000014
 30
0.0
 11
164.02099999999999
 21
96.805400000000006
 31
0.0
  0
LINE
  5
114
  8
0
 62
     7
 10
161.64099999999999
 20
98.423199999999994
 30
0.0
 11
161.57499999999999
 21
98.316400000000002
 31
0.0
  0
ARC
  5
115
  8
0
 62
     7
 10
163.94862000000001
 20
96.697586999999999
 30
0.0
 40
0.12965
 50
330.36184100000003
 51
56.247158999999989
  0
ARC
  5
116
  8
0
 62
     7
 10
163.95348200000001
 20
96.705218000000016
 30
0.0
 40
0.129514
 50
240.51755299999999
 51
326.36076600000001
  0
ARC
  5
117
  8
0
 62
     7
 10
161.51588799999999
 20
98.211679000000004
 30
0.0
 40
0.12976
 50
150.406924
 51
236.20207600000001
  0
ARC
  5
118
  8
0
 62
     7
 10
161.511258
 20
98.202545000000001
 30
0.0
 40
0.130646
 50
60.641290000000012
 51
145.91636
  0
LINE
  5
119
  8
0
 62
     7
 10
161.57499999999999
 20
98.316400000000002
 30
0.0
 11
164.02099999999999
 21
96.805400000000006
 31
0.0
  0
LINE
  5
11A
  8
0
 62
     7
 10
161.44399999999999
 20
98.103800000000021
 30
0.0
 11
163.88999999999999
 21
96.592500000000001
 31
0.0
  0
LINE
  5
11B
  8
0
 62
     7
 10
164.28399999999999
 20
97.230500000000006
 30
0.0
 11
164.21799999999999
 21
97.124099999999999
 31
0.0
  0
LINE
  5
11C
  8
0
 62
     7
 10
161.83799999999999
 20
98.741900000000001
 30
0.0
 11
161.77199999999999
 21
98.635800000000003
 31
0.0
  0
ARC
  5
11D
  8
0
 62
     7
 10
164.14717400000001
 20
97.016613000000007
 30
0.0
 40
0.128531
 50
329.89590500000003
 51
56.713094999999988
  0
ARC
  5
11E
  8
0
 62
     7
 10
164.15105800000001
 20
97.023618999999997
 30
0.0
 40
0.128934
 50
240.10806400000001
 51
326.33451400000013
  0
ARC
  5
11F
  8
0
 62
     7
 10
161.712568
 20
98.530300999999994
 30
0.0
 40
0.129028
 50
150.019406
 51
236.372016
  0
ARC
  5
120
  8
0
 62
     7
 10
161.70849000000001
 20
98.523618999999997
 30
0.0
 40
0.129072
 50
60.334918999999999
 51
146.543361
  0
LINE
  5
121
  8
0
 62
     7
 10
161.77199999999999
 20
98.635800000000003
 30
0.0
 11
164.21799999999999
 21
97.124099999999999
 31
0.0
  0
LINE
  5
122
  8
0
 62
     7
 10
161.64099999999999
 20
98.422899999999998
 30
0.0
 11
164.08699999999999
 21
96.911800000000014
 31
0.0
  0
LINE
  5
123
  8
0
 62
     7
 10
164.48099999999999
 20
97.549899999999994
 30
0.0
 11
164.41499999999999
 21
97.443400000000011
 31
0.0
  0
LINE
  5
124
  8
0
 62
     7
 10
162.036
 20
99.060900000000004
 30
0.0
 11
161.96899999999999
 21
98.954400000000007
 31
0.0
  0
ARC
  5
125
  8
0
 62
     7
 10
164.34360100000001
 20
97.336112999999983
 30
0.0
 40
0.129148
 50
329.98438299999998
 51
56.189267000000001
  0
ARC
  5
126
  8
0
 62
     7
 10
164.34782100000001
 20
97.342342000000016
 30
0.0
 40
0.128829
 50
240.23376099999999
 51
326.64455900000002
  0
ARC
  5
127
  8
0
 62
     7
 10
161.90974499999999
 20
98.849475999999996
 30
0.0
 40
0.129222
 50
149.97286700000001
 51
236.367614
  0
ARC
  5
128
  8
0
 62
     7
 10
161.90503899999999
 20
98.843249000000014
 30
0.0
 40
0.128498
 50
59.925660000000001
 51
146.51687699999999
  0
LINE
  5
129
  8
0
 62
     7
 10
161.96899999999999
 20
98.954400000000007
 30
0.0
 11
164.41499999999999
 21
97.443400000000011
 31
0.0
  0
LINE
  5
12A
  8
0
 62
     7
 10
161.83799999999999
 20
98.741900000000001
 30
0.0
 11
164.28399999999999
 21
97.230500000000006
 31
0.0
  0
ARC
  5
12B
  8
0
 62
     7
 10
162.828789
 20
97.068761999999992
 30
0.0
 40
4.580887999999999
 50
60.217666999999999
 51
75.291698999999994
  0
ARC
  5
12C
  8
0
 62
     7
 10
161.81393800000001
 20
93.465947999999997
 30
0.0
 40
8.3235789999999987
 50
74.831544999999991
 51
77.482855000000001
  0
ARC
  5
12D
  8
0
 62
     7
 10
163.7187909999999
 20
98.635440000000003
 30
0.0
 40
2.7790750000000002
 50
29.147535999999999
 51
60.099564000000001
  0
LINE
  5
12E
  8
0
 62
     7
 10
166.34100000000001
 20
99.5184
 30
0.0
 11
164.86099999999999
 21
97.314899999999994
 31
0.0
  0
LINE
  5
12F
  8
0
 62
     7
 10
163.14099999999999
 20
101.491
 30
0.0
 11
161.6699999999999
 21
99.286600000000007
 31
0.0
  0
LINE
  5
130
  8
0
 62
     7
 10
166.86799999999999
 20
104.812
 30
0.0
 11
166.34100000000001
 21
99.5184
 31
0.0
  0
LINE
  5
131
  8
0
 62
     7
 10
164.86099999999999
 20
97.314899999999994
 30
0.0
 11
161.6699999999999
 21
99.286600000000007
 31
0.0
  0
LINE
  5
132
  8
0
 62
     7
 10
163.14099999999999
 20
101.491
 30
0.0
 11
162.72300000000001
 21
101.69499999999999
 31
0.0
  0
LINE
  5
133
  8
0
 62
     7
 10
166.86799999999999
 20
104.812
 30
0.0
 11
164.86500000000001
 21
105.79000000000001
 31
0.0
  0
LINE
  5
134
  8
0
  6
AIGENLINE001
 62
     7
 10
167.917
 20
101.735
 30
0.0
 11
160.77199999999999
 21
105.218
 31
0.0
  0
LINE
  5
135
  8
0
 62
     7
 10
150.81700000000001
 20
85.392700000000005
 30
0.0
 11
150.697
 21
85.3583
 31
0.0
  0
LINE
  5
136
  8
0
 62
     7
 10
150.02500000000001
 20
88.156800000000004
 30
0.0
 11
150.001
 21
88.149199999999979
 31
0.0
  0
ARC
  5
137
  8
0
 62
     7
 10
150.932581
 20
85.431446999999991
 30
0.0
 40
0.129139
 50
287.57911000000001
 51
13.680994999999999
  0
ARC
  5
138
  8
0
 62
     7
 10
150.939989
 20
85.434380000000004
 30
0.0
 40
0.129942
 50
198.68863400000001
 51
284.0725930000001
  0
ARC
  5
139
  8
0
 62
     7
 10
150.15130600000001
 20
88.188229000000007
 30
0.0
 40
0.130297
 50
108.500804
 51
193.97541499999991
  0
ARC
  5
13A
  8
0
 62
     7
 10
150.14080100000001
 20
88.184209999999979
 30
0.0
 40
0.131256
 50
18.886503999999999
 51
103.58969399999989
  0
LINE
  5
13B
  8
0
 62
     7
 10
150.26499999999999
 20
88.226699999999994
 30
0.0
 11
151.05799999999999
 21
85.462000000000003
 31
0.0
  0
LINE
  5
13C
  8
0
 62
     7
 10
150.02500000000001
 20
88.156800000000004
 30
0.0
 11
150.81700000000001
 21
85.392700000000005
 31
0.0
  0
LINE
  5
13D
  8
0
 62
     7
 10
150.45400000000001
 20
85.297700000000006
 30
0.0
 11
150.333
 21
85.267700000000005
 31
0.0
  0
LINE
  5
13E
  8
0
 62
     7
 10
149.75899999999999
 20
88.088200000000001
 30
0.0
 11
149.73500000000001
 21
88.082300000000004
 31
0.0
  0
ARC
  5
13F
  8
0
 62
     7
 10
150.57157799999999
 20
85.331963999999985
 30
0.0
 40
0.128163
 50
285.44629500000002
 51
11.85455
  0
ARC
  5
140
  8
0
 62
     7
 10
150.57827
 20
85.334704999999985
 30
0.0
 40
0.129222
 50
196.65972400000001
 51
282.26103000000001
  0
ARC
  5
141
  8
0
 62
     7
 10
149.88559900000001
 20
88.114856000000003
 30
0.0
 40
0.129806
 50
106.300606
 51
191.848692
  0
ARC
  5
142
  8
0
 62
     7
 10
149.87596099999999
 20
88.111551999999989
 30
0.0
 40
0.130669
 50
16.736847999999998
 51
101.83368
  0
LINE
  5
143
  8
0
 62
     7
 10
150.001
 20
88.149199999999979
 30
0.0
 11
150.697
 21
85.3583
 31
0.0
  0
LINE
  5
144
  8
0
 62
     7
 10
149.75899999999999
 20
88.088200000000001
 30
0.0
 11
150.45400000000001
 21
85.297700000000006
 31
0.0
  0
LINE
  5
145
  8
0
 62
     7
 10
150.089
 20
85.215299999999999
 30
0.0
 11
149.96700000000001
 21
85.189800000000005
 31
0.0
  0
LINE
  5
146
  8
0
 62
     7
 10
149.49100000000001
 20
88.028599999999997
 30
0.0
 11
149.46700000000001
 21
88.023799999999994
 31
0.0
  0
ARC
  5
147
  8
0
 62
     7
 10
150.20683199999999
 20
85.245803000000009
 30
0.0
 40
0.128252
 50
283.16915399999999
 51
9.8239789999999996
  0
ARC
  5
148
  8
0
 62
     7
 10
150.21314899999999
 20
85.247508999999994
 30
0.0
 40
0.128641
 50
194.49095700000001
 51
280.25538999999998
  0
ARC
  5
149
  8
0
 62
     7
 10
149.61819399999999
 20
88.051022000000003
 30
0.0
 40
0.129619
 50
104.08607600000001
 51
189.95991599999999
  0
ARC
  5
14A
  8
0
 62
     7
 10
149.609161
 20
88.048657999999989
 30
0.0
 40
0.130048
 50
14.385688
 51
99.969329000000002
  0
LINE
  5
14B
  8
0
 62
     7
 10
149.73500000000001
 20
88.081000000000003
 30
0.0
 11
150.333
 21
85.267700000000005
 31
0.0
  0
LINE
  5
14C
  8
0
 62
     7
 10
149.49100000000001
 20
88.028599999999997
 30
0.0
 11
150.089
 21
85.215299999999999
 31
0.0
  0
LINE
  5
14D
  8
0
 62
     7
 10
149.72
 20
85.146399999999986
 30
0.0
 11
149.59700000000001
 21
85.125100000000003
 31
0.0
  0
LINE
  5
14E
  8
0
 62
     7
 10
149.22
 20
87.978999999999999
 30
0.0
 11
149.196
 21
87.974900000000005
 31
0.0
  0
ARC
  5
14F
  8
0
 62
     7
 10
149.83816899999999
 20
85.173608000000002
 30
0.0
 40
0.129494
 50
281.80805400000003
 51
7.1949959999999997
  0
ARC
  5
150
  8
0
 62
     7
 10
149.84620200000001
 20
85.174940000000007
 30
0.0
 40
0.129411
 50
192.732811
 51
278.203866
  0
ARC
  5
151
  8
0
 62
     7
 10
149.34781899999999
 20
87.997018000000011
 30
0.0
 40
0.128656
 50
101.705021
 51
188.05376699999999
  0
ARC
  5
152
  8
0
 62
     7
 10
149.340125
 20
87.994682999999995
 30
0.0
 40
0.12963
 50
12.346883
 51
98.163780000000003
  0
LINE
  5
153
  8
0
 62
     7
 10
149.46700000000001
 20
88.022400000000005
 30
0.0
 11
149.96700000000001
 21
85.189800000000005
 31
0.0
  0
LINE
  5
154
  8
0
 62
     7
 10
149.22
 20
87.978999999999999
 30
0.0
 11
149.72
 21
85.146399999999986
 31
0.0
  0
LINE
  5
155
  8
0
 62
     7
 10
149.196
 20
87.973100000000017
 30
0.0
 11
149.59700000000001
 21
85.125100000000003
 31
0.0
  0
LINE
  5
156
  8
0
 62
     7
 10
149.34899999999999
 20
85.090599999999995
 30
0.0
 11
149.22499999999999
 21
85.072999999999979
 31
0.0
  0
LINE
  5
157
  8
0
 62
     7
 10
148.9489999999999
 20
87.938299999999984
 30
0.0
 11
148.92500000000001
 21
87.934899999999999
 31
0.0
  0
ARC
  5
158
  8
0
 62
     7
 10
149.46928800000001
 20
85.112212999999997
 30
0.0
 40
0.128339
 50
279.21455299999991
 51
5.7440490000000004
  0
ARC
  5
159
  8
0
 62
     7
 10
149.47541799999999
 20
85.113205000000008
 30
0.0
 40
0.128486
 50
190.12999300000001
 51
276.444681
  0
ARC
  5
15A
  8
0
 62
     7
 10
149.07747900000001
 20
87.951650000000001
 30
0.0
 40
0.129211
 50
99.989454000000009
 51
185.91210100000001
  0
ARC
  5
15B
  8
0
 62
     7
 10
149.06869
 20
87.949818999999991
 30
0.0
 40
0.1298
 50
10.503598
 51
96.025378000000003
  0
LINE
  5
15C
  8
0
 62
     7
 10
149.196
 20
87.973499999999987
 30
0.0
 11
149.59700000000001
 21
85.125100000000003
 31
0.0
  0
LINE
  5
15D
  8
0
 62
     7
 10
148.9489999999999
 20
87.938299999999984
 30
0.0
 11
149.34899999999999
 21
85.090599999999995
 31
0.0
  0
LINE
  5
15E
  8
0
 62
     7
 10
148.92500000000001
 20
87.933499999999995
 30
0.0
 11
149.22499999999999
 21
85.072999999999979
 31
0.0
  0
LINE
  5
15F
  8
0
 62
     7
 10
148.977
 20
85.047200000000004
 30
0.0
 11
148.852
 21
85.034099999999995
 31
0.0
  0
LINE
  5
160
  8
0
 62
     7
 10
148.67599999999999
 20
87.907000000000011
 30
0.0
 11
148.65199999999999
 21
87.904600000000016
 31
0.0
  0
ARC
  5
161
  8
0
 62
     7
 10
149.09646499999999
 20
85.064856000000006
 30
0.0
 40
0.129049
 50
277.64477499999998
 51
3.6343839999999989
  0
ARC
  5
162
  8
0
 62
     7
 10
149.104252
 20
85.065678000000005
 30
0.0
 40
0.129065
 50
188.23204699999991
 51
274.16801900000002
  0
ARC
  5
163
  8
0
 62
     7
 10
148.80521200000001
 20
87.915968000000007
 30
0.0
 40
0.129421
 50
98.073470000000015
 51
183.977689
  0
ARC
  5
164
  8
0
 62
     7
 10
148.79601700000001
 20
87.914143999999979
 30
0.0
 40
0.130272
 50
8.5526769999999992
 51
93.953226000000015
  0
LINE
  5
165
  8
0
 62
     7
 10
148.92500000000001
 20
87.933499999999995
 30
0.0
 11
149.22499999999999
 21
85.072999999999979
 31
0.0
  0
LINE
  5
166
  8
0
 62
     7
 10
148.67599999999999
 20
87.907000000000011
 30
0.0
 11
148.977
 21
85.047200000000004
 31
0.0
  0
LINE
  5
167
  8
0
 62
     7
 10
148.60299999999989
 20
85.016900000000007
 30
0.0
 11
148.47799999999989
 21
85.007900000000006
 31
0.0
  0
LINE
  5
168
  8
0
 62
     7
 10
148.40199999999999
 20
87.885299999999987
 30
0.0
 11
148.37799999999999
 21
87.883899999999997
 31
0.0
  0
ARC
  5
169
  8
0
 62
     7
 10
148.72305299999999
 20
85.030311999999995
 30
0.0
 40
0.129496
 50
275.75937499999998
 51
1.679411
  0
ARC
  5
16A
  8
0
 62
     7
 10
148.73121900000001
 20
85.030608000000001
 30
0.0
 40
0.129228
 50
186.097489
 51
272.14144500000009
  0
ARC
  5
16B
  8
0
 62
     7
 10
148.53205299999999
 20
87.889138000000017
 30
0.0
 40
0.129895
 50
96.22357700000002
 51
181.69948500000001
  0
ARC
  5
16C
  8
0
 62
     7
 10
148.52286899999999
 20
87.888440000000003
 30
0.0
 40
0.12992
 50
6.3708980000000004
 51
92.160178999999999
  0
LINE
  5
16D
  8
0
 62
     7
 10
148.65199999999999
 20
87.902900000000002
 30
0.0
 11
148.852
 21
85.034099999999995
 31
0.0
  0
LINE
  5
16E
  8
0
 62
     7
 10
148.40199999999999
 20
87.885299999999987
 30
0.0
 11
148.60299999999989
 21
85.016900000000007
 31
0.0
  0
LINE
  5
16F
  8
0
 62
     7
 10
148.22800000000001
 20
84.999700000000004
 30
0.0
 11
148.10300000000001
 21
84.995199999999997
 31
0.0
  0
LINE
  5
170
  8
0
 62
     7
 10
148.12799999999999
 20
87.872900000000001
 30
0.0
 11
148.10300000000001
 21
87.872200000000007
 31
0.0
  0
ARC
  5
171
  8
0
 62
     7
 10
148.34860800000001
 20
85.008892000000003
 30
0.0
 40
0.129748
 50
273.74580099999997
 51
359.57248499999997
  0
ARC
  5
172
  8
0
 62
     7
 10
148.35681700000001
 20
85.008290000000017
 30
0.0
 40
0.128869
 50
183.84177199999999
 51
270.11904299999998
  0
ARC
  5
173
  8
0
 62
     7
 10
148.25727000000001
 20
87.872761999999994
 30
0.0
 40
0.12963
 50
94.003532000000007
 51
179.94630599999999
  0
ARC
  5
174
  8
0
 62
     7
 10
148.24813599999999
 20
87.87209
 30
0.0
 40
0.129986
 50
4.3020930000000002
 51
89.963472999999993
  0
LINE
  5
175
  8
0
 62
     7
 10
148.37799999999999
 20
87.881799999999998
 30
0.0
 11
148.47799999999989
 21
85.007900000000006
 31
0.0
  0
LINE
  5
176
  8
0
 62
     7
 10
148.12799999999999
 20
87.872900000000001
 30
0.0
 11
148.22800000000001
 21
84.999700000000004
 31
0.0
  0
LINE
  5
177
  8
0
 62
     7
 10
147.85300000000001
 20
84.995199999999997
 30
0.0
 11
147.72800000000001
 21
84.995199999999997
 31
0.0
  0
LINE
  5
178
  8
0
 62
     7
 10
147.85300000000001
 20
87.870099999999994
 30
0.0
 11
147.72800000000001
 21
87.870099999999994
 31
0.0
  0
ARC
  5
179
  8
0
 62
     7
 10
147.972936
 20
85.000005000000002
 30
0.0
 40
0.129989
 50
272.28658100000001
 51
357.871486
  0
ARC
  5
17A
  8
0
 62
     7
 10
147.98298299999999
 20
85.000397000000007
 30
0.0
 40
0.130368
 50
182.29457099999999
 51
267.86308100000002
  0
ARC
  5
17B
  8
0
 62
     7
 10
147.98265699999999
 20
87.865234999999984
 30
0.0
 40
0.130029
 50
91.998552000000004
 51
177.843796
  0
ARC
  5
17C
  8
0
 62
     7
 10
147.973375
 20
87.865738000000007
 30
0.0
 40
0.129534
 50
1.9418939999999989
 51
87.900039000000007
  0
LINE
  5
17D
  8
0
 62
     7
 10
148.10300000000001
 20
87.870099999999994
 30
0.0
 11
148.10300000000001
 21
84.995199999999997
 31
0.0
  0
LINE
  5
17E
  8
0
 62
     7
 10
147.85300000000001
 20
87.870099999999994
 30
0.0
 11
147.85300000000001
 21
84.995199999999997
 31
0.0
  0
LINE
  5
17F
  8
0
 62
     7
 10
147.47799999999989
 20
84.995199999999997
 30
0.0
 11
147.352
 21
84.995199999999997
 31
0.0
  0
LINE
  5
180
  8
0
 62
     7
 10
147.47799999999989
 20
87.870099999999994
 30
0.0
 11
147.352
 21
87.870099999999994
 31
0.0
  0
ARC
  5
181
  8
0
 62
     7
 10
147.598085
 20
85.000054000000006
 30
0.0
 40
0.130013
 50
271.99197099999998
 51
357.85041699999999
  0
ARC
  5
182
  8
0
 62
     7
 10
147.60748899999999
 20
84.999703999999994
 30
0.0
 40
0.129677
 50
182.00079700000001
 51
267.84117500000002
  0
ARC
  5
183
  8
0
 62
     7
 10
147.60780600000001
 20
87.865283999999988
 30
0.0
 40
0.130005
 50
92.293168000000009
 51
177.864859
  0
ARC
  5
184
  8
0
 62
     7
 10
147.59805700000001
 20
87.865222999999986
 30
0.0
 40
0.130042
 50
2.1613669999999989
 51
87.996245999999985
  0
LINE
  5
185
  8
0
 62
     7
 10
147.72800000000001
 20
87.870099999999994
 30
0.0
 11
147.72800000000001
 21
84.995199999999997
 31
0.0
  0
LINE
  5
186
  8
0
 62
     7
 10
147.47799999999989
 20
87.870099999999994
 30
0.0
 11
147.47799999999989
 21
84.995199999999997
 31
0.0
  0
LINE
  5
187
  8
0
 62
     7
 10
147.102
 20
84.995199999999997
 30
0.0
 11
146.97800000000001
 21
84.995199999999997
 31
0.0
  0
LINE
  5
188
  8
0
 62
     7
 10
147.102
 20
87.870099999999994
 30
0.0
 11
146.97800000000001
 21
87.870099999999994
 31
0.0
  0
ARC
  5
189
  8
0
 62
     7
 10
147.222589
 20
85.000005000000002
 30
0.0
 40
0.129989
 50
272.28658100000001
 51
357.871486
  0
ARC
  5
18A
  8
0
 62
     7
 10
147.23263600000001
 20
85.000397000000007
 30
0.0
 40
0.130368
 50
182.29457099999999
 51
267.86308100000002
  0
ARC
  5
18B
  8
0
 62
     7
 10
147.23231000000001
 20
87.865234999999984
 30
0.0
 40
0.130029
 50
91.998552000000004
 51
177.843796
  0
ARC
  5
18C
  8
0
 62
     7
 10
147.223029
 20
87.865738000000007
 30
0.0
 40
0.129534
 50
1.9418939999999989
 51
87.900039000000007
  0
LINE
  5
18D
  8
0
 62
     7
 10
147.352
 20
87.870099999999994
 30
0.0
 11
147.352
 21
84.995199999999997
 31
0.0
  0
LINE
  5
18E
  8
0
 62
     7
 10
147.102
 20
87.870099999999994
 30
0.0
 11
147.102
 21
84.995199999999997
 31
0.0
  0
ARC
  5
18F
  8
0
 62
     7
 10
146.84773799999999
 20
85.000054000000006
 30
0.0
 40
0.130013
 50
271.99197099999998
 51
357.85041699999999
  0
ARC
  5
190
  8
0
 62
     7
 10
146.8571419999999
 20
84.999703999999994
 30
0.0
 40
0.129677
 50
182.00079700000001
 51
267.84117500000002
  0
ARC
  5
191
  8
0
 62
     7
 10
146.85745900000001
 20
87.865283999999988
 30
0.0
 40
0.130005
 50
92.293168000000009
 51
177.864859
  0
ARC
  5
192
  8
0
 62
     7
 10
146.847711
 20
87.865222999999986
 30
0.0
 40
0.130042
 50
2.1613669999999989
 51
87.996245999999985
  0
LINE
  5
193
  8
0
 62
     7
 10
147.102
 20
87.870099999999994
 30
0.0
 11
147.102
 21
84.995199999999997
 31
0.0
  0
LINE
  5
194
  8
0
 62
     7
 10
146.97800000000001
 20
87.870099999999994
 30
0.0
 11
146.97800000000001
 21
84.995199999999997
 31
0.0
  0
LINE
  5
195
  8
0
 62
     7
 10
146.72800000000001
 20
87.870099999999994
 30
0.0
 11
146.72800000000001
 21
84.995199999999997
 31
0.0
  0
ARC
  5
196
  8
0
 62
     7
 10
144.82618600000001
 20
85.353615999999988
 30
0.0
 40
1.1061879999999991
 50
204.652725
 51
209.48584299999999
  0
ARC
  5
197
  8
0
 62
     7
 10
145.80697900000001
 20
85.805123999999992
 30
0.0
 40
2.185916999999999
 50
195.62352200000001
 51
204.685453
  0
ARC
  5
198
  8
0
 62
     7
 10
147.3921409999999
 20
86.289306999999994
 30
0.0
 40
3.8431099999999989
 50
185.70404099999999
 51
196.21072799999999
  0
ARC
  5
199
  8
0
 62
     7
 10
148.384871
 20
86.426916000000006
 30
0.0
 40
4.844752999999999
 50
179.93010200000001
 51
186.15652800000001
  0
ARC
  5
19A
  8
0
 62
     7
 10
144.82618600000001
 20
87.511343999999994
 30
0.0
 40
1.1061879999999991
 50
150.51415700000001
 51
155.347275
  0
ARC
  5
19B
  8
0
 62
     7
 10
145.80689599999999
 20
87.059798999999998
 30
0.0
 40
2.1858569999999991
 50
155.31273400000001
 51
164.37398300000001
  0
ARC
  5
19C
  8
0
 62
     7
 10
147.391548
 20
86.575656999999993
 30
0.0
 40
3.8425500000000001
 50
163.786315
 51
174.290582
  0
ARC
  5
19D
  8
0
 62
     7
 10
148.378613
 20
86.438687999999985
 30
0.0
 40
4.8384949999999991
 50
173.839494
 51
180.06945400000001
  0
LINE
  5
19E
  8
0
 62
     7
 10
146.72800000000001
 20
88.307699999999997
 30
0.0
 11
143.97800000000001
 21
88.307699999999997
 31
0.0
  0
LINE
  5
19F
  8
0
 62
     7
 10
146.72800000000001
 20
84.557299999999998
 30
0.0
 11
143.97800000000001
 21
84.557299999999998
 31
0.0
  0
LINE
  5
1A0
  8
0
 62
     7
 10
146.72800000000001
 20
88.307699999999997
 30
0.0
 11
146.72800000000001
 21
84.557299999999998
 31
0.0
  0
LINE
  5
1A1
  8
0
 62
     7
 10
143.97800000000001
 20
88.807199999999995
 30
0.0
 11
143.97800000000001
 21
88.307699999999997
 31
0.0
  0
LINE
  5
1A2
  8
0
 62
     7
 10
143.97800000000001
 20
84.557299999999998
 30
0.0
 11
143.97800000000001
 21
84.115999999999985
 31
0.0
  0
LINE
  5
1A3
  8
0
  6
AIGENLINE001
 62
     7
 10
165.89699999999999
 20
102.422
 30
0.0
 11
163.006
 21
97.715599999999995
 31
0.0
  0
LINE
  5
1A4
  8
0
  6
AIGENLINE001
 62
     7
 10
147.977
 20
86.4328
 30
0.0
 11
142.577
 21
86.4328
 31
0.0
  0
ARC
  5
1A5
  8
0
  6
AIGENLINE001
 62
     7
 10
147.97200900000001
 20
94.933468000000005
 30
0.0
 40
8.5006450000000005
 50
270.036564
 51
282.90456699999999
  0
ARC
  5
1A6
  8
0
  6
AIGENLINE001
 62
     7
 10
147.47027
 20
97.452247999999997
 30
0.0
 40
11.068104999999999
 50
282.52436
 51
292.94523199999998
  0
ARC
  5
1A7
  8
0
  6
AIGENLINE001
 62
     7
 10
146.10620299999999
 20
100.91002400000001
 30
0.0
 40
14.784363000000001
 50
292.58916299999999
 51
300.88656200000008
  0
ARC
  5
1A8
  8
0
  6
AIGENLINE001
 62
     7
 10
143.77429699999999
 20
104.99802099999999
 30
0.0
 40
19.489926000000001
 50
300.60044799999997
 51
307.26562300000001
  0
ARC
  5
1A9
  8
0
  6
AIGENLINE001
 62
     7
 10
140.321562
 20
109.68014700000001
 30
0.0
 40
25.306954000000001
 50
307.06805300000002
 51
314.28029900000001
  0
ARC
  5
1AA
  8
0
  6
AIGENLINE001
 62
     7
 10
135.20829800000001
 20
115.122911
 30
0.0
 40
32.773826999999997
 50
314.03691900000001
 51
323.31392699999998
  0
ARC
  5
1AB
  8
0
  6
AIGENLINE001
 62
     7
 10
132.24491599999999
 20
117.555234
 30
0.0
 40
36.603811
 50
323.031991
 51
327.179396
  0
ARC
  5
1AC
  8
0
  6
AIGENLINE002
 62
     7
 10
63.665781999999993
 20
103.38040599999999
 30
0.0
 40
1.806484999999999
 50
308.12529599999999
 51
359.56242500000002
  0
ARC
  5
1AD
  8
0
  6
AIGENLINE002
 62
     7
 10
63.486209000000002
 20
103.579778
 30
0.0
 40
2.074268
 50
269.611694
 51
308.62730299999998
  0
ARC
  5
1AE
  8
0
  6
AIGENLINE002
 62
     7
 10
63.484660999999988
 20
103.62782
 30
0.0
 40
2.1223000000000001
 50
221.644654
 51
269.66228999999998
  0
ARC
  5
1AF
  8
0
  6
AIGENLINE002
 62
     7
 10
63.291213999999997
 20
103.387992
 30
0.0
 40
1.8190789999999999
 50
180.67352099999999
 51
220.04842199999999
  0
ARC
  5
1B0
  8
0
  6
AIGENLINE002
 62
     7
 10
63.278951999999997
 20
103.352819
 30
0.0
 40
1.8067429999999991
 50
128.135989
 51
179.56263999999999
  0
ARC
  5
1B1
  8
0
  6
AIGENLINE002
 62
     7
 10
63.457955000000013
 20
103.153856
 30
0.0
 40
2.0738539999999999
 50
89.60776899999999
 51
128.63133400000001
  0
ARC
  5
1B2
  8
0
  6
AIGENLINE002
 62
     7
 10
63.459642000000002
 20
103.105278
 30
0.0
 40
2.1224210000000001
 50
41.646093999999991
 51
89.662282000000005
  0
ARC
  5
1B3
  8
0
  6
AIGENLINE002
 62
     7
 10
63.653210999999999
 20
103.34506500000001
 30
0.0
 40
1.8191310000000001
 50
0.6785870000000001
 51
40.053696000000002
  0
LINE
  5
1B4
  8
0
  6
AIGENLINE001
 62
     7
 10
60.154800000000002
 20
103.367
 30
0.0
 11
66.637900000000002
 21
103.367
 31
0.0
  0
LINE
  5
1B5
  8
0
 62
     7
 10
37.182299999999998
 20
146.18000000000001
 30
0.0
 11
34.971899999999998
 21
145.58799999999999
 31
0.0
  0
LINE
  5
1B6
  8
0
 62
     7
 10
34.971899999999998
 20
145.58799999999999
 30
0.0
 11
37.182299999999998
 21
144.995
 31
0.0
  0
LINE
  5
1B7
  8
0
 62
     7
 10
37.182299999999998
 20
144.995
 30
0.0
 11
37.182299999999998
 21
146.18000000000001
 31
0.0
  0
LINE
  5
1B8
  8
0
 62
     7
 10
89.761700000000005
 20
145.00999999999999
 30
0.0
 11
91.972199999999987
 21
145.602
 31
0.0
  0
LINE
  5
1B9
  8
0
 62
     7
 10
91.972199999999987
 20
145.602
 30
0.0
 11
89.761700000000005
 21
146.19399999999999
 31
0.0
  0
LINE
  5
1BA
  8
0
 62
     7
 10
89.761700000000005
 20
146.19399999999999
 30
0.0
 11
89.761700000000005
 21
145.00999999999999
 31
0.0
  0
LINE
  5
1BB
  8
0
 62
     7
 10
34.971899999999998
 20
145.595
 30
0.0
 11
91.972199999999987
 21
145.595
 31
0.0
  0
LINE
  5
1BC
  8
0
 62
     7
 10
34.971899999999998
 20
145.07499999999999
 30
0.0
 11
34.971899999999998
 21
185.328
 31
0.0
  0
LINE
  5
1BD
  8
0
 62
     7
 10
91.972199999999987
 20
145.07499999999999
 30
0.0
 11
91.972199999999987
 21
185.24000000000001
 31
0.0
  0
LINE
  5
1BE
  8
0
 62
     7
 10
32.761200000000009
 20
152.63900000000001
 30
0.0
 11
34.971899999999998
 21
153.23099999999999
 31
0.0
  0
LINE
  5
1BF
  8
0
 62
     7
 10
34.971899999999998
 20
153.23099999999999
 30
0.0
 11
32.761200000000009
 21
153.82400000000001
 31
0.0
  0
LINE
  5
1C0
  8
0
 62
     7
 10
32.761200000000009
 20
153.82400000000001
 30
0.0
 11
32.761200000000009
 21
152.63900000000001
 31
0.0
  0
LINE
  5
1C1
  8
0
 62
     7
 10
87.386399999999995
 20
152.63900000000001
 30
0.0
 11
89.597200000000001
 21
153.23099999999999
 31
0.0
  0
LINE
  5
1C2
  8
0
 62
     7
 10
89.597200000000001
 20
153.23099999999999
 30
0.0
 11
87.386399999999995
 21
153.82400000000001
 31
0.0
  0
LINE
  5
1C3
  8
0
 62
     7
 10
87.386399999999995
 20
153.82400000000001
 30
0.0
 11
87.386399999999995
 21
152.63900000000001
 31
0.0
  0
LINE
  5
1C4
  8
0
 62
     7
 10
94.182599999999994
 20
153.809
 30
0.0
 11
91.972199999999987
 21
153.21700000000001
 31
0.0
  0
LINE
  5
1C5
  8
0
 62
     7
 10
91.972199999999987
 20
153.21700000000001
 30
0.0
 11
94.182599999999994
 21
152.624
 31
0.0
  0
LINE
  5
1C6
  8
0
 62
     7
 10
94.182599999999994
 20
152.624
 30
0.0
 11
94.182599999999994
 21
153.809
 31
0.0
  0
LINE
  5
1C7
  8
0
 62
     7
 10
39.557400000000001
 20
153.809
 30
0.0
 11
37.347000000000001
 21
153.21700000000001
 31
0.0
  0
LINE
  5
1C8
  8
0
 62
     7
 10
37.347000000000001
 20
153.21700000000001
 30
0.0
 11
39.557400000000001
 21
152.624
 31
0.0
  0
LINE
  5
1C9
  8
0
 62
     7
 10
39.557400000000001
 20
152.624
 30
0.0
 11
39.557400000000001
 21
153.809
 31
0.0
  0
LINE
  5
1CA
  8
0
 62
     7
 10
97.674200000000013
 20
153.22399999999999
 30
0.0
 11
28.838699999999999
 21
153.22399999999999
 31
0.0
  0
LINE
  5
1CB
  8
0
 62
     7
 10
37.347000000000001
 20
152.70400000000001
 30
0.0
 11
37.347000000000001
 21
185.50399999999999
 31
0.0
  0
LINE
  5
1CC
  8
0
 62
     7
 10
89.597200000000001
 20
152.70400000000001
 30
0.0
 11
89.597200000000001
 21
185.328
 31
0.0
  0
LINE
  5
1CD
  8
0
 62
     7
 10
176.0679999999999
 20
110.702
 30
0.0
 11
176.661
 21
108.492
 31
0.0
  0
LINE
  5
1CE
  8
0
 62
     7
 10
176.661
 20
108.492
 30
0.0
 11
177.25299999999999
 21
110.702
 31
0.0
  0
LINE
  5
1CF
  8
0
 62
     7
 10
177.25299999999999
 20
110.702
 30
0.0
 11
176.0679999999999
 21
110.702
 31
0.0
  0
LINE
  5
1D0
  8
0
 62
     7
 10
177.25299999999999
 20
103.57899999999999
 30
0.0
 11
176.661
 21
105.79000000000001
 31
0.0
  0
LINE
  5
1D1
  8
0
 62
     7
 10
176.661
 20
105.79000000000001
 30
0.0
 11
176.0679999999999
 21
103.57899999999999
 31
0.0
  0
LINE
  5
1D2
  8
0
 62
     7
 10
176.0679999999999
 20
103.57899999999999
 30
0.0
 11
177.25299999999999
 21
103.57899999999999
 31
0.0
  0
LINE
  5
1D3
  8
0
 62
     7
 10
176.661
 20
101.601
 30
0.0
 11
176.661
 21
138.30099999999999
 31
0.0
  0
LINE
  5
1D4
  8
0
 62
     7
 10
165.565
 20
105.79000000000001
 30
0.0
 11
177.36099999999999
 21
105.79000000000001
 31
0.0
  0
LINE
  5
1D5
  8
0
 62
     7
 10
168.97300000000001
 20
108.492
 30
0.0
 11
177.35400000000001
 21
108.492
 31
0.0
  0
LINE
  5
1D6
  8
0
 62
     7
 10
102.864
 20
86.327100000000016
 30
0.0
 11
103.45699999999999
 21
84.116299999999995
 31
0.0
  0
LINE
  5
1D7
  8
0
 62
     7
 10
103.45699999999999
 20
84.116299999999995
 30
0.0
 11
104.04900000000001
 21
86.327100000000016
 31
0.0
  0
LINE
  5
1D8
  8
0
 62
     7
 10
104.04900000000001
 20
86.327100000000016
 30
0.0
 11
102.864
 21
86.327100000000016
 31
0.0
  0
LINE
  5
1D9
  8
0
 62
     7
 10
104.03400000000001
 20
106.90600000000001
 30
0.0
 11
103.44199999999999
 21
109.117
 31
0.0
  0
LINE
  5
1DA
  8
0
 62
     7
 10
103.44199999999999
 20
109.117
 30
0.0
 11
102.84999999999999
 21
106.90600000000001
 31
0.0
  0
LINE
  5
1DB
  8
0
 62
     7
 10
102.84999999999999
 20
106.90600000000001
 30
0.0
 11
104.03400000000001
 21
106.90600000000001
 31
0.0
  0
LINE
  5
1DC
  8
0
 62
     7
 10
103.449
 20
84.116299999999995
 30
0.0
 11
103.449
 21
109.117
 31
0.0
  0
LINE
  5
1DD
  8
0
 62
     7
 10
96.040099999999995
 20
90.702000000000012
 30
0.0
 11
96.632300000000001
 21
88.491299999999995
 31
0.0
  0
LINE
  5
1DE
  8
0
 62
     7
 10
96.632300000000001
 20
88.491299999999995
 30
0.0
 11
97.22450000000002
 21
90.702000000000012
 31
0.0
  0
LINE
  5
1DF
  8
0
 62
     7
 10
97.22450000000002
 20
90.702000000000012
 30
0.0
 11
96.040099999999995
 21
90.702000000000012
 31
0.0
  0
LINE
  5
1E0
  8
0
 62
     7
 10
97.209999999999994
 20
106.90600000000001
 30
0.0
 11
96.617800000000003
 21
109.117
 31
0.0
  0
LINE
  5
1E1
  8
0
 62
     7
 10
96.617800000000003
 20
109.117
 30
0.0
 11
96.025599999999997
 21
106.90600000000001
 31
0.0
  0
LINE
  5
1E2
  8
0
 62
     7
 10
96.025599999999997
 20
106.90600000000001
 30
0.0
 11
97.209999999999994
 21
106.90600000000001
 31
0.0
  0
LINE
  5
1E3
  8
0
 62
     7
 10
96.625000000000014
 20
88.491299999999995
 30
0.0
 11
96.625000000000014
 21
109.117
 31
0.0
  0
LINE
  5
1E4
  8
0
 62
     7
 10
68.297399999999996
 20
84.116299999999995
 30
0.0
 11
104.157
 21
84.116299999999995
 31
0.0
  0
LINE
  5
1E5
  8
0
 62
     7
 10
67.043400000000005
 20
88.491299999999995
 30
0.0
 11
97.084299999999985
 21
88.491299999999995
 31
0.0
  0
LINE
  5
1E6
  8
0
 62
     7
 10
92.610799999999983
 20
109.117
 30
0.0
 11
104.142
 21
109.117
 31
0.0
  0
LINE
  5
1E7
  8
0
  6
AIGENLINE001
 62
     7
 10
95.512600000000006
 20
191.10400000000001
 30
0.0
 11
31.171600000000002
 21
191.10400000000001
 31
0.0
  0
LINE
  5
1E8
  8
0
  6
AIGENLINE001
 62
     7
 10
63.472200000000001
 20
222.94499999999999
 30
0.0
 11
63.472200000000001
 21
158.74299999999999
 31
0.0
  0
LINE
  5
1EC
  8
_________2
 62
     7
 10
205.30099999999999
 20
127.411
 30
0.0
 11
183.55099999999999
 21
127.411
 31
0.0
  0
LINE
  5
1ED
  8
_________2
 62
     7
 10
100.3
 20
-4.0910799999999998
 30
0.0
 11
100.3
 21
-21.071000000000002
 31
0.0
  0
LINE
  5
1EE
  8
_________2
 62
     7
 10
100.3
 20
275.93099999999998
 30
0.0
 11
100.3
 21
258.911
 31
0.0
  0
LINE
  5
1EF
  8
_________2
 62
     7
 10
17.049399999999999
 20
127.411
 30
0.0
 11
-4.7010300000000003
 21
127.411
 31
0.0
  0
LINE
  5
1F0
  8
_________2
 62
     7
 10
76.740799999999993
 20
29.8047
 30
0.0
 11
74.554599999999994
 21
29.8047
 31
0.0
  0
LINE
  5
1F1
  8
_________2
 62
     7
 10
77.233500000000006
 20
29.8047
 30
0.0
 11
76.981300000000005
 21
29.8047
 31
0.0
  0
LINE
  5
1F2
  8
_________2
 62
     7
 10
77.726200000000006
 20
29.8047
 30
0.0
 11
80.6511
 21
29.8047
 31
0.0
  0
LINE
  5
1F3
  8
_________2
 62
     7
 10
77.233500000000006
 20
29.8047
 30
0.0
 11
77.485699999999994
 21
29.8047
 31
0.0
  0
LINE
  5
1F4
  8
_________2
 62
     7
 10
70.837299999999999
 20
29.8047
 30
0.0
 11
68.650300000000001
 21
29.8047
 31
0.0
  0
LINE
  5
1F5
  8
_________2
 62
     7
 10
71.329300000000003
 20
29.8047
 30
0.0
 11
71.077799999999996
 21
29.8047
 31
0.0
  0
LINE
  5
1F6
  8
_________2
 62
     7
 10
71.329300000000003
 20
30.2974
 30
0.0
 11
71.329300000000003
 21
32.484400000000001
 31
0.0
  0
LINE
  5
1F7
  8
_________2
 62
     7
 10
71.329300000000003
 20
29.8047
 30
0.0
 11
71.329300000000003
 21
30.057300000000001
 31
0.0
  0
LINE
  5
1F8
  8
_________2
 62
     7
 10
71.821899999999999
 20
29.8047
 30
0.0
 11
74.008899999999997
 21
29.8047
 31
0.0
  0
LINE
  5
1F9
  8
_________2
 62
     7
 10
71.329300000000003
 20
29.8047
 30
0.0
 11
71.581400000000002
 21
29.8047
 31
0.0
  0
LINE
  5
1FA
  8
_________2
 62
     7
 10
71.329300000000003
 20
29.312799999999999
 30
0.0
 11
71.329300000000003
 21
27.126200000000001
 31
0.0
  0
LINE
  5
1FB
  8
_________2
 62
     7
 10
71.329300000000003
 20
29.8047
 30
0.0
 11
71.329300000000003
 21
29.5532
 31
0.0
  0
LINE
  5
1FC
  8
_________2
 62
     7
 10
75.040300000000002
 20
28.5852
 30
0.0
 11
80.218299999999985
 21
27.720400000000001
 31
0.0
  0
LINE
  5
1FD
  8
_________2
 62
     7
 10
75.040300000000002
 20
31.024699999999999
 30
0.0
 11
80.218299999999985
 21
31.8901
 31
0.0
  0
LINE
  5
1FE
  8
_________2
 62
     7
 10
80.218299999999985
 20
27.720400000000001
 30
0.0
 11
80.218299999999985
 21
31.8901
 31
0.0
  0
LINE
  5
1FF
  8
_________2
 62
     7
 10
75.040300000000002
 20
28.5852
 30
0.0
 11
75.040300000000002
 21
31.024699999999999
 31
0.0
  0
ARC
  5
200
  8
_________2
 62
     7
 10
71.282674
 20
29.757801000000001
 30
0.0
 40
1.267714
 50
2.1220840000000001
 51
87.894083999999992
  0
ARC
  5
201
  8
_________2
 62
     7
 10
71.375812999999994
 20
29.758545999999999
 30
0.0
 40
1.2669680000000001
 50
92.105782999999988
 51
177.91037
  0
ARC
  5
202
  8
_________2
 62
     7
 10
71.376186000000004
 20
29.851671
 30
0.0
 40
1.2673680000000001
 50
182.12203600000001
 51
267.877993
  0
ARC
  5
203
  8
_________2
 62
     7
 10
71.282368999999989
 20
29.852347999999999
 30
0.0
 40
1.2680439999999991
 50
272.11916400000001
 51
357.84848499999998
  0
ARC
  5
204
  8
_________2
 62
     7
 10
71.248890000000003
 20
29.724731999999999
 30
0.0
 40
2.1668310000000002
 50
2.1161439999999989
 51
87.874379000000005
  0
ARC
  5
205
  8
_________2
 62
     7
 10
71.408928000000003
 20
29.726146
 30
0.0
 40
2.165392999999999
 50
92.108508999999998
 51
177.91986499999999
  0
ARC
  5
206
  8
_________2
 62
     7
 10
71.409267
 20
29.884751999999999
 30
0.0
 40
2.1657829999999998
 50
182.117133
 51
267.88289700000001
  0
ARC
  5
207
  8
_________2
 62
     7
 10
71.249286999999995
 20
29.885429999999999
 30
0.0
 40
2.1664590000000001
 50
272.11546800000002
 51
357.86560400000002
  0
TEXT
  5
208
  8
_________2
 62
     7
 10
104.605
 20
1.6794899999999999
 30
0.0
 40
3.0923400000000001
  1
図番
 41
0.5
  0
LINE
  5
209
  8
_________2
 62
     7
 10
103.55
 20
5.9087199999999989
 30
0.0
 11
183.55099999999999
 21
5.9087199999999989
 31
0.0
  0
TEXT
  5
20A
  8
_________2
 62
     7
 10
104.605
 20
11.6793
 30
0.0
 40
3.0923400000000001
  1
品番
 41
0.5
  0
TEXT
  5
20B
  8
_________2
 62
     7
 10
104.605
 20
31.8184
 30
0.0
 40
3.0923400000000001
  1
名称
 41
0.5
  0
TEXT
  5
20C
  8
_________2
 62
     7
 10
91.844958333333338
 20
26.822299999999998
 30
0.0
 40
3.6545800000000002
  1
mm
 41
0.5
 72
     1
 11
93.367699999999985
 21
26.822299999999998
 31
0.0
  0
TEXT
  5
20D
  8
_________2
 62
     7
 10
85.642999999999986
 20
31.8184
 30
0.0
 40
3.0923400000000001
  1
単位
 41
0.5
  0
TEXT
  5
20E
  8
_________2
 62
     7
 10
85.642999999999986
 20
19.410799999999998
 30
0.0
 40
3.0923400000000001
  1
尺度
 41
0.5
  0
TEXT
  5
20F
  8
_________2
 62
     7
 10
90.548558666666679
 20
13.2182
 30
0.0
 40
3.6545800000000002
  1
1 ： 8
 41
0.5
 72
     1
 11
93.959500000000006
 21
13.2182
 31
0.0
  0
TEXT
  5
210
  8
_________2
 62
     7
 10
21.764399999999998
 20
46.020200000000003
 30
0.0
 40
4.2168199999999993
  1
※仕上げ：ヘアライン
 41
0.5
  0
TEXT
  5
211
  8
_________2
 62
     7
 10
21.764399999999998
 20
40.749200000000002
 30
0.0
 40
4.2168199999999993
  1
※排水栓を閉めた状態で毎分8L以上吐水させないでください。
 41
0.5
  0
TEXT
  5
212
  8
_________2
 62
     7
 10
135.18663749999999
 20
9.1082000000000001
 30
0.0
 40
3.9357000000000002
  1
FRRNDX420
 41
0.5
 72
     1
 11
143.55000000000001
 21
9.1082000000000001
 31
0.0
  0
TEXT
  5
213
  8
_________2
 62
     7
 10
135.18663749999999
 20
-0.8926299999999999
 30
0.0
 40
3.9357000000000002
  1
FRRNDX420
 41
0.5
 72
     1
 11
143.55000000000001
 21
-0.8926299999999999
 31
0.0
  0
TEXT
  5
214
  8
_________2
 62
     7
 10
24.586600000000001
 20
0.707627
 30
0.0
 40
3.9357000000000002
  1
実容量5.8L、重量：1.4kg、オーバーフロー付
 41
0.5
  0
TEXT
  5
215
  8
_________2
 62
     7
 10
109.179
 20
24.9361
 30
0.0
 40
3.9357000000000002
  1
ステンレスベイスン　洗面器
 41
0.5
  0
TEXT
  5
216
  8
_________2
 62
     7
 10
39.364190666666673
 20
13.603400000000001
 30
0.0
 40
3.6545800000000002
  1
篠崎
 41
0.5
 72
     1
 11
41.313299999999998
 21
13.603400000000001
 31
0.0
  0
TEXT
  5
217
  8
_________2
 62
     7
 10
20.790190666666671
 20
13.603400000000001
 30
0.0
 40
3.6545800000000002
  1
近藤
 41
0.5
 72
     1
 11
22.7393
 21
13.603400000000001
 31
0.0
  0
TEXT
  5
218
  8
_________2
 62
     7
 10
67.785600000000002
 20
13.2182
 30
0.0
 40
3.6545800000000002
  1
16.12.22
 41
0.5
  0
TEXT
  5
219
  8
_________2
 62
     7
 10
66.5929
 20
19.410799999999998
 30
0.0
 40
3.0923400000000001
  1
日付
 41
0.5
  0
TEXT
  5
21A
  8
_________2
 62
     7
 10
29.639199999999999
 20
19.410799999999998
 30
0.0
 40
3.0923400000000001
  1
検図
 41
0.5
  0
TEXT
  5
21B
  8
_________2
 62
     7
 10
18.020900000000001
 20
5.21143
 30
0.0
 40
3.0923400000000001
  1
備考
 41
0.5
  0
TEXT
  5
21C
  8
_________2
 62
     7
 10
18.020900000000001
 20
19.410799999999998
 30
0.0
 40
3.0923400000000001
  1
製図
 41
0.5
  0
TEXT
  5
21D
  8
_________2
 62
     7
 10
23.788265333333339
 20
27.936800000000002
 30
0.0
 40
4.4979399999999989
  1
セラトレーディング株式会社
 41
0.5
 72
     1
 11
41.180300000000003
 21
27.936800000000002
 31
0.0
  0
LINE
  5
21E
  8
_________2
 62
     7
 10
183.55099999999999
 20
-4.0910799999999998
 30
0.0
 11
17.049399999999999
 21
-4.0910799999999998
 31
0.0
  0
LINE
  5
21F
  8
_________2
 62
     7
 10
17.049399999999999
 20
-4.0910799999999998
 30
0.0
 11
17.049399999999999
 21
258.911
 31
0.0
  0
LINE
  5
220
  8
_________2
 62
     7
 10
17.049399999999999
 20
258.911
 30
0.0
 11
183.55099999999999
 21
258.911
 31
0.0
  0
LINE
  5
221
  8
_________2
 62
     7
 10
183.55099999999999
 20
258.911
 30
0.0
 11
183.55099999999999
 21
-4.0910799999999998
 31
0.0
  0
LINE
  5
222
  8
_________2
 62
     7
 10
65.549700000000001
 20
9.4092999999999982
 30
0.0
 11
65.549700000000001
 21
35.909100000000002
 31
0.0
  0
LINE
  5
223
  8
_________2
 62
     7
 10
84.549599999999984
 20
9.4092999999999982
 30
0.0
 11
84.549599999999984
 21
35.909100000000002
 31
0.0
  0
LINE
  5
224
  8
_________2
 62
     7
 10
103.55
 20
-4.0910799999999998
 30
0.0
 11
103.55
 21
35.909100000000002
 31
0.0
  0
LINE
  5
225
  8
_________2
 62
     7
 10
28.549199999999999
 20
9.4092999999999982
 30
0.0
 11
28.549199999999999
 21
23.409199999999998
 31
0.0
  0
LINE
  5
226
  8
_________2
 62
     7
 10
17.049399999999999
 20
9.4092999999999982
 30
0.0
 11
103.55
 21
9.4092999999999982
 31
0.0
  0
LINE
  5
227
  8
_________2
 62
     7
 10
17.049399999999999
 20
23.409199999999998
 30
0.0
 11
103.55
 21
23.409199999999998
 31
0.0
  0
LINE
  5
228
  8
_________2
 62
     7
 10
103.55
 20
15.9085
 30
0.0
 11
183.55099999999999
 21
15.9085
 31
0.0
  0
LINE
  5
229
  8
_________2
 62
     7
 10
17.049399999999999
 20
35.909100000000002
 30
0.0
 11
183.55099999999999
 21
35.909100000000002
 31
0.0
  0
ENDSEC
  0
EOF
