  0
SECTION
  2
HEADER
  9
$ACADVER
  1
AC1009
  9
$INSBASE
 10
0.0
 20
0.0
 30
0.0
  9
$EXTMIN
 10
-4.7012099999999988
 20
-21.070999999999991
 30
0.0
  9
$EXTMAX
 10
205.30099999999999
 20
275.93099999999993
 30
0.0
  9
$LIMMIN
 10
0.0
 20
0.0
  9
$LIMMAX
 10
12.0
 20
9.0
  9
$ORTHOMODE
 70
     0
  9
$REGENMODE
 70
     1
  9
$FILLMODE
 70
     1
  9
$QTEXTMODE
 70
     0
  9
$MIRRTEXT
 70
     1
  9
$DRAGMODE
 70
     2
  9
$LTSCALE
 40
1.0
  9
$OSMODE
 70
    37
  9
$ATTMODE
 70
     1
  9
$TEXTSIZE
 40
0.0
  9
$TRACEWID
 40
0.05
  9
$TEXTSTYLE
  7
STANDARD
  9
$CLAYER
  8
0
  9
$CELTYPE
  6
CONTINUOUS
  9
$CECOLOR
 62
   256
  9
$DIMSCALE
 40
1.0
  9
$DIMASZ
 40
0.18
  9
$DIMEXO
 40
0.0625
  9
$DIMDLI
 40
0.38
  9
$DIMRND
 40
0.0
  9
$DIMDLE
 40
0.0
  9
$DIMEXE
 40
0.18
  9
$DIMTP
 40
0.0
  9
$DIMTM
 40
0.0
  9
$DIMTXT
 40
0.18
  9
$DIMCEN
 40
0.09
  9
$DIMTSZ
 40
0.0
  9
$DIMTOL
 70
     0
  9
$DIMLIM
 70
     0
  9
$DIMTIH
 70
     1
  9
$DIMTOH
 70
     1
  9
$DIMSE1
 70
     0
  9
$DIMSE2
 70
     0
  9
$DIMTAD
 70
     0
  9
$DIMZIN
 70
     0
  9
$DIMBLK
  1

  9
$DIMASO
 70
     1
  9
$DIMSHO
 70
     1
  9
$DIMPOST
  1

  9
$DIMAPOST
  1

  9
$DIMALT
 70
     0
  9
$DIMALTD
 70
     2
  9
$DIMALTF
 40
25.399999999999999
  9
$DIMLFAC
 40
1.0
  9
$DIMTOFL
 70
     0
  9
$DIMTVP
 40
0.0
  9
$DIMTIX
 70
     0
  9
$DIMSOXD
 70
     0
  9
$DIMSAH
 70
     0
  9
$DIMBLK1
  1

  9
$DIMBLK2
  1

  9
$DIMSTYLE
  2
STANDARD
  9
$DIMCLRD
 70
     0
  9
$DIMCLRE
 70
     0
  9
$DIMCLRT
 70
     0
  9
$DIMTFAC
 40
1.0
  9
$DIMGAP
 40
0.09
  9
$LUNITS
 70
     2
  9
$LUPREC
 70
     4
  9
$SKETCHINC
 40
0.1
  9
$FILLETRAD
 40
0.0
  9
$AUNITS
 70
     0
  9
$AUPREC
 70
     0
  9
$MENU
  1
.
  9
$ELEVATION
 40
0.0
  9
$PELEVATION
 40
0.0
  9
$THICKNESS
 40
0.0
  9
$LIMCHECK
 70
     0
  9
$BLIPMODE
 70
     0
  9
$CHAMFERA
 40
0.0
  9
$CHAMFERB
 40
0.0
  9
$SKPOLY
 70
     0
  9
$TDCREATE
 40
2444972.375
  9
$TDUPDATE
 40
2456700.2472888189
  9
$TDINDWG
 40
0.0000056481
  9
$TDUSRTIMER
 40
0.0000056481
  9
$USRTIMER
 70
     1
  9
$ANGBASE
 50
0.0
  9
$ANGDIR
 70
     0
  9
$PDMODE
 70
     0
  9
$PDSIZE
 40
0.0
  9
$PLINEWID
 40
0.0
  9
$COORDS
 70
     1
  9
$SPLFRAME
 70
     0
  9
$SPLINETYPE
 70
     6
  9
$SPLINESEGS
 70
     8
  9
$ATTDIA
 70
     0
  9
$ATTREQ
 70
     1
  9
$HANDLING
 70
     1
  9
$HANDSEED
  5
196
  9
$SURFTAB1
 70
     6
  9
$SURFTAB2
 70
     6
  9
$SURFTYPE
 70
     6
  9
$SURFU
 70
     6
  9
$SURFV
 70
     6
  9
$UCSNAME
  2

  9
$UCSORG
 10
0.0
 20
0.0
 30
0.0
  9
$UCSXDIR
 10
1.0
 20
0.0
 30
0.0
  9
$UCSYDIR
 10
0.0
 20
1.0
 30
0.0
  9
$PUCSNAME
  2

  9
$PUCSORG
 10
0.0
 20
0.0
 30
0.0
  9
$PUCSXDIR
 10
1.0
 20
0.0
 30
0.0
  9
$PUCSYDIR
 10
0.0
 20
1.0
 30
0.0
  9
$USERI1
 70
     0
  9
$USERI2
 70
     0
  9
$USERI3
 70
     0
  9
$USERI4
 70
     0
  9
$USERI5
 70
     0
  9
$USERR1
 40
0.0
  9
$USERR2
 40
0.0
  9
$USERR3
 40
0.0
  9
$USERR4
 40
0.0
  9
$USERR5
 40
0.0
  9
$WORLDVIEW
 70
     1
  9
$SHADEDGE
 70
     3
  9
$SHADEDIF
 70
    70
  9
$TILEMODE
 70
     1
  9
$MAXACTVP
 70
    48
  9
$PLIMCHECK
 70
     0
  9
$PEXTMIN
 10
1.0000000000000000E+020
 20
1.0000000000000000E+020
 30
1.0000000000000000E+020
  9
$PEXTMAX
 10
-1.0000000000000000E+020
 20
-1.0000000000000000E+020
 30
-1.0000000000000000E+020
  9
$PLIMMIN
 10
0.0
 20
0.0
  9
$PLIMMAX
 10
12.0
 20
9.0
  9
$UNITMODE
 70
     0
  9
$VISRETAIN
 70
     1
  9
$PLINEGEN
 70
     0
  9
$PSLTSCALE
 70
     1
  0
ENDSEC
  0
SECTION
  2
TABLES
  0
TABLE
  2
VPORT
 70
     2
  0
VPORT
  2
*ACTIVE
 70
     0
 10
0.0
 20
0.0
 11
1.0
 21
1.0
 12
202.006301769564
 22
127.42999999999989
 13
0.0
 23
0.0
 14
1.0
 24
1.0
 15
0.0
 25
0.0
 16
0.0
 26
0.0
 36
1.0
 17
0.0
 27
0.0
 37
0.0
 40
299.45318569463541
 41
2.2894736842105261
 42
50.0
 43
0.0
 44
0.0
 50
0.0
 51
0.0
 71
     0
 72
   100
 73
     1
 74
     1
 75
     0
 76
     0
 77
     0
 78
     0
  0
ENDTAB
  0
TABLE
  2
LTYPE
 70
     3
  0
LTYPE
  2
CONTINUOUS
 70
     0
  3
Solid line
 72
    65
 73
     0
 40
0.0
  0
LTYPE
  2
AIGENLINE001
 70
     0
  3
generate AI->DXF Converter
 72
    65
 73
     4
 40
5.8561449999999988
 49
3.5278
 49
-0.776115
 49
0.776115
 49
-0.776115
  0
LTYPE
  2
AIGENLINE002
 70
     0
  3
generate AI->DXF Converter
 72
    65
 73
     2
 40
1.5522299999999991
 49
0.776115
 49
-0.776115
  0
ENDTAB
  0
TABLE
  2
LAYER
 70
     2
  0
LAYER
  2
0
 70
     0
 62
     7
  6
CONTINUOUS
  0
LAYER
  2
_________2
 70
     0
 62
     7
  6
CONTINUOUS
  0
ENDTAB
  0
TABLE
  2
STYLE
 70
     1
  0
STYLE
  2
STANDARD
 70
     0
 40
0.0
 41
0.0
 50
0.0
 71
     0
 42
0.0
  3
TXT
  4
EXTFONT.SHX
  0
ENDTAB
  0
TABLE
  2
VIEW
 70
     0
  0
ENDTAB
  0
TABLE
  2
UCS
 70
     0
  0
ENDTAB
  0
TABLE
  2
APPID
 70
     1
  0
APPID
  2
ACAD
 70
     0
  0
ENDTAB
  0
TABLE
  2
DIMSTYLE
 70
     1
  0
DIMSTYLE
  2
STANDARD
 70
     0
  3

  4

  5

  6

  7

 40
1.0
 41
0.18
 42
0.0625
 43
0.38
 44
0.18
 45
0.0
 46
0.0
 47
0.0
 48
0.0
140
0.18
141
0.09
142
0.0
143
25.399999999999999
144
1.0
145
0.0
146
1.0
147
0.09
 71
     0
 72
     0
 73
     1
 74
     1
 75
     0
 76
     0
 77
     0
 78
     0
170
     0
171
     2
172
     0
173
     0
174
     0
175
     0
176
     0
177
     0
178
     0
  0
ENDTAB
  0
ENDSEC
  0
SECTION
  2
BLOCKS
  0
BLOCK
  8
0
  2
$MODEL_SPACE
 70
     0
 10
0.0
 20
0.0
 30
0.0
  3
$MODEL_SPACE
  1

  0
ENDBLK
  5
1A
  8
0
  0
BLOCK
 67
     1
  8
0
  2
$PAPER_SPACE
 70
     0
 10
0.0
 20
0.0
 30
0.0
  3
$PAPER_SPACE
  1

  0
ENDBLK
  5
17
 67
     1
  8
0
  0
ENDSEC
  0
SECTION
  2
ENTITIES
  0
TEXT
  5
23
  8
0
 62
     7
 10
140.32075999999989
 20
159.38499999999991
 30
0.0
 40
3.0923400000000001
  1
カウンター切込寸法
 41
0.5
 72
     1
 11
148.56700000000001
 21
159.38499999999991
 31
0.0
  0
TEXT
  5
24
  8
0
 62
     7
 10
163.03700000000001
 20
178.4295249999999
 30
0.0
 40
3.0923400000000001
  1
65
 50
90.0
 41
0.5
 72
     1
 11
163.03700000000001
 21
179.7179999999999
 31
0.0
  0
TEXT
  5
25
  8
0
 62
     7
 10
168.53200000000001
 20
188.09828749999991
 30
0.0
 40
3.0923400000000001
  1
230
 50
90.0
 41
0.5
 72
     1
 11
168.53200000000001
 21
190.03099999999989
 31
0.0
  0
TEXT
  5
26
  8
0
 62
     7
 10
163.03700000000001
 20
192.28913499999999
 30
0.0
 40
3.0923400000000001
  1
165
 50
90.0
 41
0.5
 72
     1
 11
163.03700000000001
 21
194.0929999999999
 31
0.0
  0
TEXT
  5
27
  8
0
 62
     7
 10
129.488
 20
194.977
 30
0.0
 40
3.0923400000000001
  1
排水口
 41
0.5
  0
TEXT
  5
28
  8
0
 62
     7
 10
133.666965
 20
168.328
 30
0.0
 40
3.0923400000000001
  1
R10
 41
0.5
 72
     2
 11
137.01699999999991
 21
168.328
 31
0.0
  0
TEXT
  5
29
  8
0
 62
     7
 10
146.89198250000001
 20
169.91900000000001
 30
0.0
 40
3.0923400000000001
  1
130
 41
0.5
 72
     1
 11
148.56700000000001
 21
169.91900000000001
 31
0.0
  0
TEXT
  5
2A
  8
0
 62
     7
 10
103.84399999999999
 20
203.49637249999989
 30
0.0
 40
3.0923400000000001
  1
70
 50
90.0
 41
0.5
 72
     1
 11
103.84399999999999
 21
204.65599999999989
 31
0.0
  0
TEXT
  5
2B
  8
0
 62
     7
 10
109.84099999999999
 20
194.47328749999991
 30
0.0
 40
3.0923400000000001
  1
202
 50
90.0
 41
0.5
 72
     1
 11
109.84099999999999
 21
196.40599999999989
 31
0.0
  0
TEXT
  5
2C
  8
0
 62
     7
 10
59.560200000000002
 20
196.10599999999991
 30
0.0
 40
3.0923400000000001
  1
%%c35
 41
0.5
  0
TEXT
  5
2D
  8
0
 62
     7
 10
144.52898621414641
 20
105.2210360591942
 30
0.0
 40
3.0922499999999991
  1
130
 50
89.862700000000004
 41
0.5
 72
     1
 11
144.53299999999999
 21
106.896
 31
0.0
  0
TEXT
  5
2E
  8
0
 62
     7
 10
35.058886214146511
 20
103.9720360591942
 30
0.0
 40
3.0922499999999991
  1
150
 50
89.862700000000004
 41
0.5
 72
     1
 11
35.062899999999992
 21
105.64700000000001
 31
0.0
  0
TEXT
  5
2F
  8
0
 62
     7
 10
27.73798621414651
 20
102.0970360591942
 30
0.0
 40
3.0922499999999991
  1
180
 50
89.862700000000004
 41
0.5
 72
     1
 11
27.74199999999999
 21
103.77199999999991
 31
0.0
  0
TEXT
  5
30
  8
0
 62
     7
 10
28.758607439324859
 20
175.8804456386363
 30
0.0
 40
3.0922499999999991
  1
%%c485
 50
89.862700000000004
 41
0.5
 72
     1
 11
28.7654
 21
178.715
 31
0.0
  0
TEXT
  5
31
  8
0
 62
     7
 10
76.738291786684044
 20
187.71485878727091
 30
0.0
 40
3.0923400000000001
  1
%%c46
 50
359.863
 41
0.5
 72
     2
 11
80.861400000000003
 21
187.70500000000001
 31
0.0
  0
TEXT
  5
32
  8
0
 62
     7
 10
36.8536
 20
198.16513499999999
 30
0.0
 40
3.0923400000000001
  1
145
 50
90.0
 41
0.5
 72
     1
 11
36.8536
 21
199.96899999999999
 31
0.0
  0
TEXT
  5
33
  8
0
 62
     7
 10
143.59113500000001
 20
82.6828
 30
0.0
 40
3.0923400000000001
  1
400
 41
0.5
 72
     1
 11
145.39500000000001
 21
82.6828
 31
0.0
  0
TEXT
  5
34
  8
0
 62
     7
 10
69.05668750000001
 20
82.6828
 30
0.0
 40
3.0923400000000001
  1
370
 41
0.5
 72
     1
 11
70.989400000000003
 21
82.6828
 31
0.0
  0
LINE
  5
35
  8
0
 62
     7
 10
154.48099999999999
 20
168.46599999999989
 30
0.0
 11
156.69200000000001
 21
169.05799999999991
 31
0.0
  0
LINE
  5
36
  8
0
 62
     7
 10
156.69200000000001
 20
169.05799999999991
 30
0.0
 11
154.48099999999999
 21
169.6509999999999
 31
0.0
  0
LINE
  5
37
  8
0
 62
     7
 10
154.48099999999999
 20
169.6509999999999
 30
0.0
 11
154.48099999999999
 21
168.46599999999989
 31
0.0
  0
LINE
  5
38
  8
0
 62
     7
 10
142.65299999999991
 20
169.63699999999989
 30
0.0
 11
140.44200000000001
 21
169.04400000000001
 31
0.0
  0
LINE
  5
39
  8
0
 62
     7
 10
140.44200000000001
 20
169.04400000000001
 30
0.0
 11
142.65299999999991
 21
168.45099999999991
 31
0.0
  0
LINE
  5
3A
  8
0
 62
     7
 10
142.65299999999991
 20
168.45099999999991
 30
0.0
 11
142.65299999999991
 21
169.63699999999989
 31
0.0
  0
LINE
  5
3B
  8
0
 62
     7
 10
156.69200000000001
 20
169.04400000000001
 30
0.0
 11
140.44200000000001
 21
169.04400000000001
 31
0.0
  0
LINE
  5
3C
  8
0
 62
     7
 10
163.14500000000001
 20
185.99199999999999
 30
0.0
 11
163.73699999999991
 21
183.78099999999989
 31
0.0
  0
LINE
  5
3D
  8
0
 62
     7
 10
163.73699999999991
 20
183.78099999999989
 30
0.0
 11
164.33000000000001
 21
185.99199999999999
 31
0.0
  0
LINE
  5
3E
  8
0
 62
     7
 10
164.33000000000001
 20
185.99199999999999
 30
0.0
 11
163.14500000000001
 21
185.99199999999999
 31
0.0
  0
LINE
  5
3F
  8
0
 62
     7
 10
146.58500000000001
 20
184.9259999999999
 30
0.0
 11
148.56700000000001
 21
183.78
 31
0.0
  0
LINE
  5
40
  8
0
 62
     7
 10
148.56700000000001
 20
183.78
 30
0.0
 11
147.422
 21
185.76300000000001
 31
0.0
  0
LINE
  5
41
  8
0
 62
     7
 10
147.422
 20
185.76300000000001
 30
0.0
 11
146.58500000000001
 21
184.9259999999999
 31
0.0
  0
LINE
  5
42
  8
0
 62
     7
 10
148.55699999999999
 20
183.77000000000001
 30
0.0
 11
138.15600000000001
 21
194.172
 31
0.0
  0
LINE
  5
43
  8
0
 62
     7
 10
138.8249999999999
 20
174.87700000000001
 30
0.0
 11
140.80799999999991
 21
176.02199999999999
 31
0.0
  0
LINE
  5
44
  8
0
 62
     7
 10
140.80799999999991
 20
176.02199999999999
 30
0.0
 11
139.6629999999999
 21
174.03899999999999
 31
0.0
  0
LINE
  5
45
  8
0
 62
     7
 10
139.6629999999999
 20
174.03899999999999
 30
0.0
 11
138.8249999999999
 21
174.87700000000001
 31
0.0
  0
LINE
  5
46
  8
0
 62
     7
 10
140.798
 20
176.03200000000001
 30
0.0
 11
136.392
 21
171.62599999999989
 31
0.0
  0
LINE
  5
47
  8
0
 62
     7
 10
168.715
 20
177.86699999999999
 30
0.0
 11
169.30799999999991
 21
175.65599999999989
 31
0.0
  0
LINE
  5
48
  8
0
 62
     7
 10
169.30799999999991
 20
175.65599999999989
 30
0.0
 11
169.90000000000001
 21
177.86699999999999
 31
0.0
  0
LINE
  5
49
  8
0
 62
     7
 10
169.90000000000001
 20
177.86699999999999
 30
0.0
 11
168.715
 21
177.86699999999999
 31
0.0
  0
LINE
  5
4A
  8
0
 62
     7
 10
169.88599999999991
 20
202.19399999999999
 30
0.0
 11
169.29300000000001
 21
204.40599999999989
 31
0.0
  0
LINE
  5
4B
  8
0
 62
     7
 10
169.29300000000001
 20
204.40599999999989
 30
0.0
 11
168.70099999999991
 21
202.19399999999999
 31
0.0
  0
LINE
  5
4C
  8
0
 62
     7
 10
168.70099999999991
 20
202.19399999999999
 30
0.0
 11
169.88599999999991
 21
202.19399999999999
 31
0.0
  0
LINE
  5
4D
  8
0
 62
     7
 10
169.29300000000001
 20
175.65599999999989
 30
0.0
 11
169.29300000000001
 21
204.40599999999989
 31
0.0
  0
LINE
  5
4E
  8
0
 62
     7
 10
129.488
 20
194.172
 30
0.0
 11
138.15600000000001
 21
194.172
 31
0.0
  0
LINE
  5
4F
  8
0
 62
     7
 10
163.15899999999991
 20
177.86699999999999
 30
0.0
 11
163.75200000000001
 21
175.65599999999989
 31
0.0
  0
LINE
  5
50
  8
0
 62
     7
 10
163.75200000000001
 20
175.65599999999989
 30
0.0
 11
164.34399999999999
 21
177.86699999999999
 31
0.0
  0
LINE
  5
51
  8
0
 62
     7
 10
164.34399999999999
 20
177.86699999999999
 30
0.0
 11
163.15899999999991
 21
177.86699999999999
 31
0.0
  0
LINE
  5
52
  8
0
 62
     7
 10
164.33000000000001
 20
181.56899999999999
 30
0.0
 11
163.73699999999991
 21
183.78099999999989
 31
0.0
  0
LINE
  5
53
  8
0
 62
     7
 10
163.73699999999991
 20
183.78099999999989
 30
0.0
 11
163.14500000000001
 21
181.56899999999999
 31
0.0
  0
LINE
  5
54
  8
0
 62
     7
 10
163.14500000000001
 20
181.56899999999999
 30
0.0
 11
164.33000000000001
 21
181.56899999999999
 31
0.0
  0
LINE
  5
55
  8
0
 62
     7
 10
164.33000000000001
 20
202.19399999999999
 30
0.0
 11
163.73699999999991
 21
204.40599999999989
 31
0.0
  0
LINE
  5
56
  8
0
 62
     7
 10
163.73699999999991
 20
204.40599999999989
 30
0.0
 11
163.14500000000001
 21
202.19399999999999
 31
0.0
  0
LINE
  5
57
  8
0
 62
     7
 10
163.14500000000001
 20
202.19399999999999
 30
0.0
 11
164.33000000000001
 21
202.19399999999999
 31
0.0
  0
LINE
  5
58
  8
0
 62
     7
 10
163.73699999999991
 20
175.65599999999989
 30
0.0
 11
163.73699999999991
 21
204.40599999999989
 31
0.0
  0
ARC
  5
59
  8
0
 62
     7
 10
155.4423129999999
 20
176.9057379999999
 30
0.0
 40
1.249889
 50
270.00002000000001
 51
359.99998999999991
  0
ARC
  5
5A
  8
0
 62
     7
 10
141.6918159999999
 20
176.9057379999999
 30
0.0
 40
1.249887999999999
 50
179.99996999999991
 51
270.00002000000001
  0
LINE
  5
5B
  8
0
 62
     7
 10
141.69200000000001
 20
175.65599999999989
 30
0.0
 11
155.44200000000001
 21
175.65599999999989
 31
0.0
  0
LINE
  5
5C
  8
0
  6
AIGENLINE001
 62
     7
 10
138.839
 20
183.78099999999989
 30
0.0
 11
158.03399999999991
 21
183.78099999999989
 31
0.0
  0
ARC
  5
5D
  8
0
 62
     7
 10
155.39410499999991
 20
203.10797199999999
 30
0.0
 40
1.298964999999999
 50
2.0952939999999991
 51
87.873118999999974
  0
ARC
  5
5E
  8
0
 62
     7
 10
141.74002400000001
 20
203.10797299999999
 30
0.0
 40
1.2989639999999989
 50
92.126843999999977
 51
177.90470300000001
  0
LINE
  5
5F
  8
0
 62
     7
 10
156.69200000000001
 20
174.2709999999999
 30
0.0
 11
156.69200000000001
 21
167.85599999999999
 31
0.0
  0
LINE
  5
60
  8
0
 62
     7
 10
140.44200000000001
 20
174.2709999999999
 30
0.0
 11
140.44200000000001
 21
167.85599999999999
 31
0.0
  0
LINE
  5
61
  8
0
 62
     7
 10
156.69200000000001
 20
203.155
 30
0.0
 11
156.69200000000001
 21
176.90599999999989
 31
0.0
  0
LINE
  5
62
  8
0
  6
AIGENLINE001
 62
     7
 10
148.56700000000001
 20
205.5
 30
0.0
 11
148.56700000000001
 21
174.22799999999989
 31
0.0
  0
LINE
  5
63
  8
0
 62
     7
 10
140.44200000000001
 20
203.155
 30
0.0
 11
140.44200000000001
 21
176.90599999999989
 31
0.0
  0
LINE
  5
64
  8
0
 62
     7
 10
156.87299999999991
 20
175.65599999999989
 30
0.0
 11
170.16399999999999
 21
175.65599999999989
 31
0.0
  0
LINE
  5
65
  8
0
 62
     7
 10
158.73400000000001
 20
183.78099999999989
 30
0.0
 11
164.4379999999999
 21
183.78099999999989
 31
0.0
  0
LINE
  5
66
  8
0
 62
     7
 10
156.87299999999991
 20
204.40599999999989
 30
0.0
 11
170.16399999999999
 21
204.40599999999989
 31
0.0
  0
LINE
  5
67
  8
0
 62
     7
 10
141.69200000000001
 20
204.40599999999989
 30
0.0
 11
155.44200000000001
 21
204.40599999999989
 31
0.0
  0
ARC
  5
68
  8
0
  6
AIGENLINE002
 62
     7
 10
148.56758099999999
 20
183.7804689999999
 30
0.0
 40
2.8122500000000001
 50
0.007029
 51
90.006998999999979
  0
ARC
  5
69
  8
0
  6
AIGENLINE002
 62
     7
 10
148.5670649999999
 20
183.78064099999989
 30
0.0
 40
2.8120769999999999
 50
89.996490000000009
 51
179.99646100000001
  0
ARC
  5
6A
  8
0
  6
AIGENLINE002
 62
     7
 10
148.67504199999991
 20
183.88826099999989
 30
0.0
 40
2.922029999999999
 50
182.10733799999991
 51
267.885673
  0
ARC
  5
6B
  8
0
  6
AIGENLINE002
 62
     7
 10
148.45897099999991
 20
183.88908000000001
 30
0.0
 40
2.9228659999999991
 50
272.12279599999988
 51
357.87721399999998
  0
LINE
  5
6C
  8
0
  6
AIGENLINE002
 62
     7
 10
154.30399999999989
 20
110.6249999999999
 30
0.0
 11
155.05199999999999
 21
110.56
 31
0.0
  0
LINE
  5
6D
  8
0
  6
AIGENLINE002
 62
     7
 10
154.28200000000001
 20
110.377
 30
0.0
 11
155.03
 21
110.31100000000001
 31
0.0
  0
LINE
  5
6E
  8
0
  6
AIGENLINE002
 62
     7
 10
154.375
 20
111.4349999999999
 30
0.0
 11
155.12200000000001
 21
111.37
 31
0.0
  0
LINE
  5
6F
  8
0
  6
AIGENLINE002
 62
     7
 10
154.21100000000001
 20
109.56699999999999
 30
0.0
 11
154.959
 21
109.502
 31
0.0
  0
LINE
  5
70
  8
0
  6
AIGENLINE002
 62
     7
 10
154.39599999999999
 20
111.684
 30
0.0
 11
155.14400000000001
 21
111.6179999999999
 31
0.0
  0
LINE
  5
71
  8
0
  6
AIGENLINE002
 62
     7
 10
154.19
 20
109.318
 30
0.0
 11
154.93700000000001
 21
109.252
 31
0.0
  0
LINE
  5
72
  8
0
  6
AIGENLINE002
 62
     7
 10
154.35900000000001
 20
112.691
 30
0.0
 11
154.48400000000001
 21
112.68000000000001
 31
0.0
  0
LINE
  5
73
  8
0
  6
AIGENLINE002
 62
     7
 10
153.977
 20
108.33199999999999
 30
0.0
 11
154.10299999999989
 21
108.321
 31
0.0
  0
LINE
  5
74
  8
0
  6
AIGENLINE002
 62
     7
 10
154.35900000000001
 20
112.691
 30
0.0
 11
153.977
 21
108.3329999999999
 31
0.0
  0
LINE
  5
75
  8
0
  6
AIGENLINE002
 62
     7
 10
154.48400000000001
 20
112.68000000000001
 30
0.0
 11
154.10299999999989
 21
108.322
 31
0.0
  0
LINE
  5
76
  8
0
  6
AIGENLINE002
 62
     7
 10
155.203
 20
112.304
 30
0.0
 11
154.87700000000001
 21
108.5679999999999
 31
0.0
  0
LINE
  5
77
  8
0
  6
AIGENLINE002
 62
     7
 10
155.203
 20
112.304
 30
0.0
 11
155.45299999999989
 21
112.282
 31
0.0
  0
LINE
  5
78
  8
0
  6
AIGENLINE002
 62
     7
 10
154.87700000000001
 20
108.5679999999999
 30
0.0
 11
155.126
 21
108.54600000000001
 31
0.0
  0
LINE
  5
79
  8
0
  6
AIGENLINE002
 62
     7
 10
154.31399999999999
 20
99.268299999999996
 30
0.0
 11
155.69200000000001
 21
115.02499999999991
 31
0.0
  0
ARC
  5
7A
  8
0
 62
     7
 10
70.989396999999997
 20
200.28103100000001
 30
0.0
 40
2.187478
 50
270.00002000000001
 51
359.99998999999991
  0
ARC
  5
7B
  8
0
 62
     7
 10
70.989396999999997
 20
200.28103100000001
 30
0.0
 40
2.187476999999999
 50
179.99996999999991
 51
270.00002000000001
  0
ARC
  5
7C
  8
0
 62
     7
 10
70.989397999999994
 20
200.28103100000001
 30
0.0
 40
2.187478
 50
90.0
 51
179.99996999999991
  0
ARC
  5
7D
  8
0
 62
     7
 10
70.989396999999997
 20
200.28103100000001
 30
0.0
 40
2.187478
 50
0.00001
 51
89.999980000000008
  0
LINE
  5
7E
  8
0
 62
     7
 10
170.6279999999999
 20
97.074100000000016
 30
0.0
 11
171.90199999999999
 21
98.894499999999994
 31
0.0
  0
ARC
  5
7F
  8
0
 62
     7
 10
169.07430099999999
 20
98.181669999999997
 30
0.0
 40
1.907252999999999
 50
270.50703499999997
 51
324.49929100000003
  0
LINE
  5
80
  8
0
 62
     7
 10
172.56599999999989
 20
100.71899999999999
 30
0.0
 11
173.8179999999999
 21
115.02499999999991
 31
0.0
  0
ARC
  5
81
  8
0
 62
     7
 10
168.80136100000001
 20
101.056004
 30
0.0
 40
3.7796439999999998
 50
325.11223699999999
 51
354.879865
  0
ARC
  5
82
  8
0
  6
AIGENLINE002
 62
     7
 10
160.772368
 20
322.26921099999998
 30
0.0
 40
224.24080599999991
 50
263.3372359999999
 51
264.47727900000001
  0
ARC
  5
83
  8
0
  6
AIGENLINE002
 62
     7
 10
148.77111199999999
 20
200.294681
 30
0.0
 40
101.6776709999999
 50
264.59372100000002
 51
265.93137100000001
  0
ARC
  5
84
  8
0
  6
AIGENLINE002
 62
     7
 10
144.92965799999999
 20
147.11052900000001
 30
0.0
 40
48.355034000000003
 50
266.00042300000001
 51
267.89506499999987
  0
ARC
  5
85
  8
0
  6
AIGENLINE002
 62
     7
 10
143.9271259999999
 20
121.4193639999999
 30
0.0
 40
22.644455999999991
 50
268.04237499999999
 51
269.880289
  0
ARC
  5
86
  8
0
  6
AIGENLINE002
 62
     7
 10
135.28270800000001
 20
120.398685
 30
0.0
 40
21.52257899999999
 50
194.46060299999991
 51
207.54444899999999
  0
ARC
  5
87
  8
0
  6
AIGENLINE002
 62
     7
 10
132.28272599999991
 20
119.04183
 30
0.0
 40
18.236107999999991
 50
208.12332499999991
 51
237.78023399999989
  0
ARC
  5
88
  8
0
  6
AIGENLINE002
 62
     7
 10
134.62469799999991
 20
122.46585399999999
 30
0.0
 40
22.382072000000001
 50
237.38152999999991
 51
248.23696000000001
  0
ARC
  5
89
  8
0
  6
AIGENLINE002
 62
     7
 10
137.09696799999989
 20
128.15191299999989
 30
0.0
 40
28.58011599999999
 50
247.86037899999999
 51
255.229816
  0
ARC
  5
8A
  8
0
  6
AIGENLINE002
 62
     7
 10
139.25770199999999
 20
135.771401
 30
0.0
 40
36.49898499999999
 50
254.99936700000001
 51
260.8561259999999
  0
ARC
  5
8B
  8
0
  6
AIGENLINE002
 62
     7
 10
140.6017149999999
 20
143.2186979999999
 30
0.0
 40
44.065460999999992
 50
260.66960399999999
 51
262.375024
  0
LINE
  5
8C
  8
0
 62
     7
 10
113.532
 20
108.54299999999991
 30
0.0
 11
113.19199999999999
 21
115.02499999999991
 31
0.0
  0
LINE
  5
8D
  8
0
 62
     7
 10
115.863
 20
99.524600000000021
 30
0.0
 11
113.6539999999999
 21
107.76900000000001
 31
0.0
  0
ARC
  5
8E
  8
0
 62
     7
 10
117.2603389999999
 20
108.7367669999999
 30
0.0
 40
3.733585999999999
 50
182.97118699999999
 51
195.02645200000001
  0
LINE
  5
8F
  8
0
 62
     7
 10
119.959
 20
96.52600000000001
 30
0.0
 11
116.736
 21
98.386300000000006
 31
0.0
  0
ARC
  5
90
  8
0
 62
     7
 10
117.688951
 20
100.02136999999991
 30
0.0
 40
1.891904
 50
195.22258600000001
 51
239.79385199999999
  0
LINE
  5
91
  8
0
 62
     7
 10
169.09099999999989
 20
96.274500000000003
 30
0.0
 11
120.89700000000001
 21
96.274500000000003
 31
0.0
  0
ARC
  5
92
  8
0
 62
     7
 10
120.90129399999999
 20
98.165548999999984
 30
0.0
 40
1.891063999999999
 50
240.11263899999989
 51
269.86215800000002
  0
ARC
  5
93
  8
0
 62
     7
 10
96.183927000000011
 20
101.0874869999999
 30
0.0
 40
3.7332949999999991
 50
308.09246899999988
 51
321.71844599999997
  0
ARC
  5
94
  8
0
 62
     7
 10
50.545985999999999
 20
110.7947639999999
 30
0.0
 40
50.033638000000003
 50
346.09758699999998
 51
357.00528700000001
  0
ARC
  5
95
  8
0
 62
     7
 10
29.104118
 20
119.625287
 30
0.0
 40
72.338968999999992
 50
350.87952300000001
 51
355.838255
  0
LINE
  5
96
  8
0
 62
     7
 10
100.791
 20
115.02499999999991
 30
0.0
 11
70.989199999999997
 21
115.02499999999991
 31
0.0
  0
ARC
  5
97
  8
0
 62
     7
 10
100.7927149999999
 20
114.182197
 30
0.0
 40
0.8426899999999999
 50
78.078977000000023
 51
90.090484000000018
  0
ARC
  5
98
  8
0
 62
     7
 10
100.87347699999999
 20
114.5902729999999
 30
0.0
 40
0.426765
 50
47.710776000000003
 51
77.371009000000001
  0
ARC
  5
99
  8
0
 62
     7
 10
100.91018
 20
114.6571209999999
 30
0.0
 40
0.353068
 50
11.123461000000001
 51
44.816181999999991
  0
ARC
  5
9A
  8
0
 62
     7
 10
100.618848
 20
114.581861
 30
0.0
 40
0.6536850000000002
 50
355.89868300000001
 51
12.669943999999999
  0
ARC
  5
9B
  8
0
 62
     7
 10
100.002405
 20
114.60136799999999
 30
0.0
 40
1.2701830000000001
 50
349.75618100000003
 51
357.00982599999998
  0
LINE
  5
9C
  8
0
 62
     7
 10
93.021299999999997
 20
96.274500000000003
 30
0.0
 11
70.989199999999997
 21
96.274500000000003
 31
0.0
  0
LINE
  5
9D
  8
0
 62
     7
 10
94.917100000000005
 20
96.650000000000006
 30
0.0
 11
98.487499999999997
 21
98.149299999999997
 31
0.0
  0
ARC
  5
9E
  8
0
 62
     7
 10
93.780636999999999
 20
99.449526000000006
 30
0.0
 40
3.0213389999999989
 50
289.14955800000001
 51
292.09191900000002
  0
ARC
  5
9F
  8
0
 62
     7
 10
93.036726999999985
 20
101.58582800000001
 30
0.0
 40
5.2834580000000004
 50
283.36072000000001
 51
289.1708549999999
  0
ARC
  5
A0
  8
0
 62
     7
 10
92.697687999999985
 20
102.823137
 30
0.0
 40
6.5657719999999991
 50
276.04551400000003
 51
283.74420499999991
  0
ARC
  5
A1
  8
0
 62
     7
 10
92.999014000000017
 20
100.197042
 30
0.0
 40
3.9226139999999989
 50
270.32504299999999
 51
275.70847099999992
  0
LINE
  5
A2
  8
0
 62
     7
 10
48.9572
 20
96.274500000000003
 30
0.0
 11
70.989199999999997
 21
96.274500000000003
 31
0.0
  0
LINE
  5
A3
  8
0
 62
     7
 10
47.061300000000003
 20
96.650000000000006
 30
0.0
 11
43.491199999999999
 21
98.149299999999997
 31
0.0
  0
ARC
  5
A4
  8
0
 62
     7
 10
48.189310999999996
 20
99.427026999999995
 30
0.0
 40
2.9972939999999988
 50
247.89694900000001
 51
250.86301499999999
  0
ARC
  5
A5
  8
0
 62
     7
 10
48.941823999999997
 20
101.586113
 30
0.0
 40
5.283758999999999
 50
250.82919699999999
 51
256.63894399999998
  0
ARC
  5
A6
  8
0
 62
     7
 10
49.280778999999988
 20
102.82321
 30
0.0
 40
6.5658469999999989
 50
256.25582200000002
 51
263.95437900000002
  0
ARC
  5
A7
  8
0
 62
     7
 10
48.979430000000001
 20
100.197031
 30
0.0
 40
3.9226030000000001
 50
264.29154599999993
 51
269.67506800000001
  0
ARC
  5
A8
  8
0
 62
     7
 10
45.808143999999999
 20
101.10115399999999
 30
0.0
 40
3.7524549999999999
 50
218.31652399999999
 51
231.87260099999989
  0
ARC
  5
A9
  8
0
 62
     7
 10
91.460812000000004
 20
110.79988999999991
 30
0.0
 40
50.062387000000001
 50
182.998886
 51
193.90033199999999
  0
ARC
  5
AA
  8
0
 62
     7
 10
112.874332
 20
119.625287
 30
0.0
 40
72.338968999999992
 50
184.16176499999989
 51
189.120497
  0
LINE
  5
AB
  8
0
 62
     7
 10
159.4429999999999
 20
96.274100000000004
 30
0.0
 11
158.12999999999991
 21
93.149399999999986
 31
0.0
  0
LINE
  5
AC
  8
0
 62
     7
 10
153.18199999999999
 20
93.149399999999986
 30
0.0
 11
158.12999999999991
 21
93.149399999999986
 31
0.0
  0
LINE
  5
AD
  8
0
  6
AIGENLINE002
 62
     7
 10
153.255
 20
98.775000000000006
 30
0.0
 11
154.31399999999999
 21
99.268299999999996
 31
0.0
  0
LINE
  5
AE
  8
0
  6
AIGENLINE002
 62
     7
 10
151.37999999999991
 20
96.524600000000007
 30
0.0
 11
151.37999999999991
 21
92.524799999999999
 31
0.0
  0
LINE
  5
AF
  8
0
  6
AIGENLINE002
 62
     7
 10
145.75499999999991
 20
96.524600000000007
 30
0.0
 11
145.75499999999991
 21
92.524500000000003
 31
0.0
  0
LINE
  5
B0
  8
0
  6
AIGENLINE002
 62
     7
 10
151.37999999999991
 20
96.524600000000007
 30
0.0
 11
145.75499999999991
 21
96.524600000000007
 31
0.0
  0
LINE
  5
B1
  8
0
  6
AIGENLINE002
 62
     7
 10
151.37999999999991
 20
96.524600000000007
 30
0.0
 11
153.255
 21
98.775000000000006
 31
0.0
  0
LINE
  5
B2
  8
0
  6
AIGENLINE002
 62
     7
 10
145.75499999999991
 20
96.524600000000007
 30
0.0
 11
143.88
 21
98.775000000000006
 31
0.0
  0
LINE
  5
B3
  8
0
  6
AIGENLINE002
 62
     7
 10
153.255
 20
98.774600000000007
 30
0.0
 11
143.88
 21
98.774600000000007
 31
0.0
  0
LINE
  5
B4
  8
0
 62
     7
 10
153.12999999999991
 20
92.524500000000003
 30
0.0
 11
153.18199999999999
 21
93.149399999999986
 31
0.0
  0
LINE
  5
B5
  8
0
 62
     7
 10
144.005
 20
92.524500000000003
 30
0.0
 11
143.69200000000001
 21
96.274500000000003
 31
0.0
  0
LINE
  5
B6
  8
0
 62
     7
 10
144.005
 20
92.524500000000003
 30
0.0
 11
153.12999999999991
 21
92.524500000000003
 31
0.0
  0
LINE
  5
B7
  8
0
 62
     7
 10
173.8179999999999
 20
115.02499999999991
 30
0.0
 11
113.19199999999999
 21
115.02499999999991
 31
0.0
  0
LINE
  5
B8
  8
0
 62
     7
 10
34.414999999999999
 20
96.274500000000003
 30
0.0
 11
46.302399999999992
 21
96.274500000000003
 31
0.0
  0
LINE
  5
B9
  8
0
 62
     7
 10
27.747800000000002
 20
92.524500000000003
 30
0.0
 11
65.726799999999997
 21
92.524500000000003
 31
0.0
  0
LINE
  5
BA
  8
0
 62
     7
 10
27.736499999999989
 20
115.02499999999991
 30
0.0
 11
39.786999999999992
 21
115.02499999999991
 31
0.0
  0
LINE
  5
BB
  8
0
 62
     7
 10
41.187100000000001
 20
115.02499999999991
 30
0.0
 11
70.989199999999997
 21
115.02499999999991
 31
0.0
  0
LINE
  5
BC
  8
0
 62
     7
 10
75.551900000000003
 20
92.524500000000003
 30
0.0
 11
66.426900000000003
 21
92.524500000000003
 31
0.0
  0
LINE
  5
BD
  8
0
 62
     7
 10
75.864400000000003
 20
96.274500000000003
 30
0.0
 11
75.551900000000003
 21
92.524500000000003
 31
0.0
  0
LINE
  5
BE
  8
0
 62
     7
 10
66.114400000000003
 20
96.274500000000003
 30
0.0
 11
66.426900000000003
 21
92.524500000000003
 31
0.0
  0
LINE
  5
BF
  8
0
  6
AIGENLINE001
 62
     7
 10
70.989400000000003
 20
117.3889999999999
 30
0.0
 11
70.989400000000003
 21
90.524199999999993
 31
0.0
  0
LINE
  5
C0
  8
0
  6
AIGENLINE001
 62
     7
 10
165.0679999999999
 20
116.9699999999999
 30
0.0
 11
165.0679999999999
 21
111.03100000000001
 31
0.0
  0
LINE
  5
C1
  8
0
  6
AIGENLINE001
 62
     7
 10
66.155199999999994
 20
200.28099999999989
 30
0.0
 11
75.873199999999997
 21
200.28099999999989
 31
0.0
  0
LINE
  5
C2
  8
0
 62
     7
 10
77.068700000000007
 20
209.03099999999989
 30
0.0
 11
111.244
 21
209.03099999999989
 31
0.0
  0
LINE
  5
C3
  8
0
 62
     7
 10
76.923299999999998
 20
200.28099999999989
 30
0.0
 11
105.25700000000001
 21
200.28099999999989
 31
0.0
  0
LINE
  5
C4
  8
0
 62
     7
 10
77.614199999999997
 20
183.78099999999989
 30
0.0
 11
111.36199999999999
 21
183.78099999999989
 31
0.0
  0
LINE
  5
C5
  8
0
 62
     7
 10
104.0839999999999
 20
202.05000000000001
 30
0.0
 11
104.557
 21
200.28099999999989
 31
0.0
  0
LINE
  5
C6
  8
0
 62
     7
 10
104.557
 20
200.28099999999989
 30
0.0
 11
105.03100000000001
 21
202.05000000000001
 31
0.0
  0
LINE
  5
C7
  8
0
 62
     7
 10
105.03100000000001
 20
202.05000000000001
 30
0.0
 11
104.0839999999999
 21
202.05000000000001
 31
0.0
  0
LINE
  5
C8
  8
0
 62
     7
 10
105.01899999999991
 20
207.26300000000001
 30
0.0
 11
104.54600000000001
 21
209.03099999999989
 31
0.0
  0
LINE
  5
C9
  8
0
 62
     7
 10
104.54600000000001
 20
209.03099999999989
 30
0.0
 11
104.072
 21
207.26300000000001
 31
0.0
  0
LINE
  5
CA
  8
0
 62
     7
 10
104.072
 20
207.26300000000001
 30
0.0
 11
105.01899999999991
 21
207.26300000000001
 31
0.0
  0
LINE
  5
CB
  8
0
 62
     7
 10
104.5509999999999
 20
200.30199999999999
 30
0.0
 11
104.5509999999999
 21
209.00999999999999
 31
0.0
  0
LINE
  5
CC
  8
0
 62
     7
 10
110.081
 20
185.55000000000001
 30
0.0
 11
110.55500000000001
 21
183.78099999999989
 31
0.0
  0
LINE
  5
CD
  8
0
 62
     7
 10
110.55500000000001
 20
183.78099999999989
 30
0.0
 11
111.02799999999991
 21
185.55000000000001
 31
0.0
  0
LINE
  5
CE
  8
0
 62
     7
 10
111.02799999999991
 20
185.55000000000001
 30
0.0
 11
110.081
 21
185.55000000000001
 31
0.0
  0
LINE
  5
CF
  8
0
 62
     7
 10
111.01600000000001
 20
207.26300000000001
 30
0.0
 11
110.54299999999991
 21
209.03099999999989
 31
0.0
  0
LINE
  5
D0
  8
0
 62
     7
 10
110.54299999999991
 20
209.03099999999989
 30
0.0
 11
110.0689999999999
 21
207.26300000000001
 31
0.0
  0
LINE
  5
D1
  8
0
 62
     7
 10
110.0689999999999
 20
207.26300000000001
 30
0.0
 11
111.01600000000001
 21
207.26300000000001
 31
0.0
  0
LINE
  5
D2
  8
0
 62
     7
 10
110.54899999999989
 20
183.80199999999999
 30
0.0
 11
110.54899999999989
 21
209.00999999999999
 31
0.0
  0
LINE
  5
D3
  8
0
 62
     7
 10
65.673100000000005
 20
194.965
 30
0.0
 11
59.560200000000002
 21
194.965
 31
0.0
  0
LINE
  5
D4
  8
0
 62
     7
 10
65.673100000000005
 20
194.965
 30
0.0
 11
74.849699999999999
 21
204.14099999999991
 31
0.0
  0
LINE
  5
D5
  8
0
 62
     7
 10
67.855400000000003
 20
197.82299999999989
 30
0.0
 11
69.442499999999995
 21
198.73400000000001
 31
0.0
  0
LINE
  5
D6
  8
0
 62
     7
 10
69.442499999999995
 20
198.73400000000001
 30
0.0
 11
68.524100000000004
 21
197.1509999999999
 31
0.0
  0
LINE
  5
D7
  8
0
 62
     7
 10
68.524100000000004
 20
197.1509999999999
 30
0.0
 11
67.855400000000003
 21
197.82299999999989
 31
0.0
  0
LINE
  5
D8
  8
0
 62
     7
 10
74.124099999999999
 20
202.739
 30
0.0
 11
72.536299999999997
 21
201.82799999999989
 31
0.0
  0
LINE
  5
D9
  8
0
 62
     7
 10
72.536299999999997
 20
201.82799999999989
 30
0.0
 11
73.455399999999983
 21
203.41099999999989
 31
0.0
  0
LINE
  5
DA
  8
0
 62
     7
 10
73.455399999999983
 20
203.41099999999989
 30
0.0
 11
74.124099999999999
 21
202.739
 31
0.0
  0
LINE
  5
DB
  8
0
 62
     7
 10
80.861400000000003
 20
186.56399999999999
 30
0.0
 11
73.7727
 21
186.56399999999999
 31
0.0
  0
LINE
  5
DC
  8
0
 62
     7
 10
68.956299999999999
 20
181.74799999999991
 30
0.0
 11
72.977900000000005
 21
185.77000000000001
 31
0.0
  0
LINE
  5
DD
  8
0
 62
     7
 10
71.390799999999984
 20
184.85900000000001
 30
0.0
 11
72.977900000000005
 21
185.77000000000001
 31
0.0
  0
LINE
  5
DE
  8
0
 62
     7
 10
72.977900000000005
 20
185.77000000000001
 30
0.0
 11
72.0595
 21
184.18700000000001
 31
0.0
  0
LINE
  5
DF
  8
0
 62
     7
 10
72.0595
 20
184.18700000000001
 30
0.0
 11
71.390799999999984
 21
184.85900000000001
 31
0.0
  0
LINE
  5
E0
  8
0
 62
     7
 10
70.5441
 20
182.65899999999999
 30
0.0
 11
68.956299999999999
 21
181.74799999999991
 31
0.0
  0
LINE
  5
E1
  8
0
 62
     7
 10
68.956299999999999
 20
181.74799999999991
 30
0.0
 11
69.875399999999999
 21
183.3309999999999
 31
0.0
  0
LINE
  5
E2
  8
0
 62
     7
 10
69.875399999999999
 20
183.3309999999999
 30
0.0
 11
70.5441
 21
182.65899999999999
 31
0.0
  0
LINE
  5
E3
  8
0
 62
     7
 10
73.7727
 20
186.56399999999999
 30
0.0
 11
72.977900000000005
 21
185.77000000000001
 31
0.0
  0
LINE
  5
E4
  8
0
  6
AIGENLINE001
 62
     7
 10
148.56700000000001
 20
90.524199999999993
 30
0.0
 11
148.56700000000001
 21
100.77500000000001
 31
0.0
  0
ARC
  5
E5
  8
0
 62
     7
 10
41.185740000000003
 20
114.182204
 30
0.0
 40
0.8426829999999999
 50
89.909812000000002
 51
101.921047
  0
ARC
  5
E6
  8
0
 62
     7
 10
41.104986999999987
 20
114.59023999999989
 30
0.0
 40
0.4267990000000001
 50
102.629181
 51
132.28769199999991
  0
ARC
  5
E7
  8
0
 62
     7
 10
41.068271000000003
 20
114.6571209999999
 30
0.0
 40
0.353068
 50
135.18379799999991
 51
168.87651899999989
  0
ARC
  5
E8
  8
0
 62
     7
 10
41.360337999999992
 20
114.581806
 30
0.0
 40
0.6544150000000001
 50
167.33945399999999
 51
184.09191899999999
  0
ARC
  5
E9
  8
0
 62
     7
 10
41.973222
 20
114.6010399999999
 30
0.0
 40
1.267345999999999
 50
182.9820629999999
 51
190.251969
  0
LINE
  5
EA
  8
0
  6
AIGENLINE001
 62
     7
 10
65.364199999999997
 20
183.78099999999989
 30
0.0
 11
76.614199999999997
 21
183.78099999999989
 31
0.0
  0
LINE
  5
EB
  8
0
  6
AIGENLINE001
 62
     7
 10
70.989400000000003
 20
144.34299999999999
 30
0.0
 11
70.989400000000003
 21
213.09399999999999
 31
0.0
  0
LINE
  5
EC
  8
0
 62
     7
 10
70.8643
 20
189.90599999999989
 30
0.0
 11
70.8643
 21
190.65599999999989
 31
0.0
  0
LINE
  5
ED
  8
0
 62
     7
 10
71.114099999999993
 20
189.90599999999989
 30
0.0
 11
71.114099999999993
 21
190.65599999999989
 31
0.0
  0
LINE
  5
EE
  8
0
 62
     7
 10
70.051599999999993
 20
189.90599999999989
 30
0.0
 11
70.051599999999993
 21
190.65599999999989
 31
0.0
  0
LINE
  5
EF
  8
0
 62
     7
 10
71.9268
 20
189.90599999999989
 30
0.0
 11
71.9268
 21
190.65599999999989
 31
0.0
  0
LINE
  5
F0
  8
0
 62
     7
 10
69.801900000000003
 20
189.90599999999989
 30
0.0
 11
69.801900000000003
 21
190.65599999999989
 31
0.0
  0
LINE
  5
F1
  8
0
 62
     7
 10
72.176900000000003
 20
189.90599999999989
 30
0.0
 11
72.176900000000003
 21
190.65599999999989
 31
0.0
  0
LINE
  5
F2
  8
0
 62
     7
 10
68.801699999999997
 20
189.78099999999989
 30
0.0
 11
68.801699999999997
 21
189.90599999999989
 31
0.0
  0
LINE
  5
F3
  8
0
 62
     7
 10
73.176699999999997
 20
189.78099999999989
 30
0.0
 11
73.176699999999997
 21
189.90599999999989
 31
0.0
  0
LINE
  5
F4
  8
0
 62
     7
 10
68.801699999999997
 20
189.78099999999989
 30
0.0
 11
73.176699999999997
 21
189.78099999999989
 31
0.0
  0
LINE
  5
F5
  8
0
 62
     7
 10
68.801699999999997
 20
189.90599999999989
 30
0.0
 11
73.176699999999997
 21
189.90599999999989
 31
0.0
  0
LINE
  5
F6
  8
0
 62
     7
 10
69.114599999999996
 20
190.65599999999989
 30
0.0
 11
72.864199999999997
 21
190.65599999999989
 31
0.0
  0
LINE
  5
F7
  8
0
 62
     7
 10
69.114199999999997
 20
190.65599999999989
 30
0.0
 11
69.114199999999997
 21
190.90599999999989
 31
0.0
  0
LINE
  5
F8
  8
0
 62
     7
 10
72.864199999999997
 20
190.65599999999989
 30
0.0
 11
72.864199999999997
 21
190.90599999999989
 31
0.0
  0
LINE
  5
F9
  8
0
 62
     7
 10
47.124399999999987
 20
190.90599999999989
 30
0.0
 11
94.854099999999988
 21
190.90599999999989
 31
0.0
  0
ARC
  5
FA
  8
0
 62
     7
 10
94.783263000000005
 20
187.0555379999999
 30
0.0
 40
3.8511190000000002
 50
20.515357999999988
 51
88.946503000000007
  0
ARC
  5
FB
  8
0
 62
     7
 10
47.196139999999993
 20
187.05437599999991
 30
0.0
 40
3.8522979999999998
 50
91.067336999999995
 51
159.47820400000001
  0
ARC
  5
FC
  8
0
 62
     7
 10
70.989218999999991
 20
178.71838299999999
 30
0.0
 40
29.062643999999992
 50
160.53102199999989
 51
250.53107199999999
  0
ARC
  5
FD
  8
0
 62
     7
 10
70.989159000000001
 20
178.718526
 30
0.0
 40
29.062757999999999
 50
250.5312769999999
 51
340.53083700000002
  0
ARC
  5
FE
  8
0
 62
     7
 10
70.911652000000004
 20
178.732259
 30
0.0
 40
29.140412999999999
 50
340.556172
 51
359.97306299999991
  0
ARC
  5
FF
  8
0
 62
     7
 10
70.913888999999998
 20
178.7048979999999
 30
0.0
 40
29.138176000000001
 50
0.026862
 51
19.444582
  0
ARC
  5
100
  8
0
 62
     7
 10
70.989392000000009
 20
178.71855300000001
 30
0.0
 40
30.312559
 50
0.00001
 51
89.999980000000008
  0
ARC
  5
101
  8
0
 62
     7
 10
70.989230000000006
 20
178.71838099999991
 30
0.0
 40
30.312730999999989
 50
89.999673999999999
 51
179.9996449999999
  0
ARC
  5
102
  8
0
 62
     7
 10
70.989392000000009
 20
178.71855300000001
 30
0.0
 40
30.312892999999999
 50
179.99996999999991
 51
270.00002000000001
  0
ARC
  5
103
  8
0
 62
     7
 10
70.989219999999989
 20
178.71839199999991
 30
0.0
 40
30.312730999999989
 50
270.00034499999998
 51
0.000316
  0
ARC
  5
104
  8
0
 62
     7
 10
70.989223999999993
 20
183.78098499999999
 30
0.0
 40
4.6875999999999989
 50
359.99790400000001
 51
89.997874999999993
  0
ARC
  5
105
  8
0
 62
     7
 10
70.989397999999994
 20
183.78081299999991
 30
0.0
 40
4.6877719999999989
 50
90.0
 51
179.99996999999991
  0
ARC
  5
106
  8
0
 62
     7
 10
70.989223999999993
 20
183.78098499999999
 30
0.0
 40
4.6875980000000004
 50
180.002115
 51
270.00212499999992
  0
ARC
  5
107
  8
0
 62
     7
 10
70.989396999999997
 20
183.7808149999999
 30
0.0
 40
4.6874269999999987
 50
270.00002000000001
 51
359.99998999999991
  0
ARC
  5
108
  8
0
 62
     7
 10
70.989225000000005
 20
183.78098600000001
 30
0.0
 40
2.8749509999999989
 50
359.996577
 51
89.996546999999978
  0
ARC
  5
109
  8
0
 62
     7
 10
70.989397999999994
 20
183.78081399999991
 30
0.0
 40
2.875122999999999
 50
90.0
 51
179.99996999999991
  0
ARC
  5
10A
  8
0
 62
     7
 10
70.989225000000005
 20
183.78098600000001
 30
0.0
 40
2.8749500000000001
 50
180.00344299999989
 51
270.00345299999992
  0
ARC
  5
10B
  8
0
 62
     7
 10
70.989396999999997
 20
183.7808149999999
 30
0.0
 40
2.8747790000000002
 50
270.00002000000001
 51
359.99998999999991
  0
LINE
  5
10C
  8
0
  6
AIGENLINE001
 62
     7
 10
36.613999999999997
 20
178.71899999999999
 30
0.0
 11
105.3639999999999
 21
178.71899999999999
 31
0.0
  0
LINE
  5
10D
  8
0
 62
     7
 10
36.878100000000003
 20
209.03099999999989
 30
0.0
 11
29.223199999999999
 21
209.03099999999989
 31
0.0
  0
LINE
  5
10E
  8
0
 62
     7
 10
64.8977
 20
148.40600000000001
 30
0.0
 11
29.105
 21
148.40600000000001
 31
0.0
  0
LINE
  5
10F
  8
0
 62
     7
 10
144.7589999999999
 20
100.54300000000001
 30
0.0
 11
145.233
 21
98.774600000000007
 31
0.0
  0
LINE
  5
110
  8
0
 62
     7
 10
145.233
 20
98.774600000000007
 30
0.0
 11
145.70599999999999
 21
100.54300000000001
 31
0.0
  0
LINE
  5
111
  8
0
 62
     7
 10
145.70599999999999
 20
100.54300000000001
 30
0.0
 11
144.7589999999999
 21
100.54300000000001
 31
0.0
  0
LINE
  5
112
  8
0
 62
     7
 10
145.70599999999999
 20
113.25700000000001
 30
0.0
 11
145.233
 21
115.02499999999991
 31
0.0
  0
LINE
  5
113
  8
0
 62
     7
 10
145.233
 20
115.02499999999991
 30
0.0
 11
144.7589999999999
 21
113.25700000000001
 31
0.0
  0
LINE
  5
114
  8
0
 62
     7
 10
144.7589999999999
 20
113.25700000000001
 30
0.0
 11
145.70599999999999
 21
113.25700000000001
 31
0.0
  0
LINE
  5
115
  8
0
 62
     7
 10
145.233
 20
98.774600000000007
 30
0.0
 11
145.233
 21
115.02499999999991
 31
0.0
  0
LINE
  5
116
  8
0
 62
     7
 10
35.295099999999998
 20
98.043199999999999
 30
0.0
 11
35.768799999999999
 21
96.274500000000003
 31
0.0
  0
LINE
  5
117
  8
0
 62
     7
 10
35.768799999999999
 20
96.274500000000003
 30
0.0
 11
36.242499999999993
 21
98.043199999999999
 31
0.0
  0
LINE
  5
118
  8
0
 62
     7
 10
36.242499999999993
 20
98.043199999999999
 30
0.0
 11
35.295099999999998
 21
98.043199999999999
 31
0.0
  0
LINE
  5
119
  8
0
 62
     7
 10
36.230699999999999
 20
113.25700000000001
 30
0.0
 11
35.75739999999999
 21
115.02499999999991
 31
0.0
  0
LINE
  5
11A
  8
0
 62
     7
 10
35.75739999999999
 20
115.02499999999991
 30
0.0
 11
35.28329999999999
 21
113.25700000000001
 31
0.0
  0
LINE
  5
11B
  8
0
 62
     7
 10
35.28329999999999
 20
113.25700000000001
 30
0.0
 11
36.230699999999999
 21
113.25700000000001
 31
0.0
  0
LINE
  5
11C
  8
0
 62
     7
 10
35.762900000000002
 20
96.295900000000003
 30
0.0
 11
35.762900000000002
 21
115.00399999999991
 31
0.0
  0
LINE
  5
11D
  8
0
 62
     7
 10
27.9742
 20
94.293199999999999
 30
0.0
 11
28.447900000000001
 21
92.524500000000003
 31
0.0
  0
LINE
  5
11E
  8
0
 62
     7
 10
28.447900000000001
 20
92.524500000000003
 30
0.0
 11
28.921600000000002
 21
94.293199999999999
 31
0.0
  0
LINE
  5
11F
  8
0
 62
     7
 10
28.921600000000002
 20
94.293199999999999
 30
0.0
 11
27.9742
 21
94.293199999999999
 31
0.0
  0
LINE
  5
120
  8
0
 62
     7
 10
28.9099
 20
113.25700000000001
 30
0.0
 11
28.436499999999999
 21
115.02499999999991
 31
0.0
  0
LINE
  5
121
  8
0
 62
     7
 10
28.436499999999999
 20
115.02499999999991
 30
0.0
 11
27.962499999999999
 21
113.25700000000001
 31
0.0
  0
LINE
  5
122
  8
0
 62
     7
 10
27.962499999999999
 20
113.25700000000001
 30
0.0
 11
28.9099
 21
113.25700000000001
 31
0.0
  0
LINE
  5
123
  8
0
 62
     7
 10
28.44199999999999
 20
92.5458
 30
0.0
 11
28.44199999999999
 21
115.00399999999991
 31
0.0
  0
LINE
  5
124
  8
0
 62
     7
 10
29.438500000000001
 20
150.17400000000001
 30
0.0
 11
29.912199999999999
 21
148.40600000000001
 31
0.0
  0
LINE
  5
125
  8
0
 62
     7
 10
29.912199999999999
 20
148.40600000000001
 30
0.0
 11
30.385899999999999
 21
150.17400000000001
 31
0.0
  0
LINE
  5
126
  8
0
 62
     7
 10
30.385899999999999
 20
150.17400000000001
 30
0.0
 11
29.438500000000001
 21
150.17400000000001
 31
0.0
  0
LINE
  5
127
  8
0
 62
     7
 10
30.374199999999998
 20
207.26300000000001
 30
0.0
 11
29.9009
 21
209.03099999999989
 31
0.0
  0
LINE
  5
128
  8
0
 62
     7
 10
29.9009
 20
209.03099999999989
 30
0.0
 11
29.4268
 21
207.26300000000001
 31
0.0
  0
LINE
  5
129
  8
0
 62
     7
 10
29.4268
 20
207.26300000000001
 30
0.0
 11
30.374199999999998
 21
207.26300000000001
 31
0.0
  0
LINE
  5
12A
  8
0
 62
     7
 10
29.906400000000001
 20
148.42699999999999
 30
0.0
 11
29.906400000000001
 21
209.00999999999999
 31
0.0
  0
LINE
  5
12B
  8
0
 62
     7
 10
64.545000000000002
 20
209.03099999999989
 30
0.0
 11
36.878100000000003
 21
209.03099999999989
 31
0.0
  0
LINE
  5
12C
  8
0
 62
     7
 10
44.4148
 20
190.90599999999989
 30
0.0
 11
36.759900000000002
 21
190.90599999999989
 31
0.0
  0
LINE
  5
12D
  8
0
 62
     7
 10
37.093400000000003
 20
192.67500000000001
 30
0.0
 11
37.567100000000003
 21
190.90599999999989
 31
0.0
  0
LINE
  5
12E
  8
0
 62
     7
 10
37.567100000000003
 20
190.90599999999989
 30
0.0
 11
38.04079999999999
 21
192.67500000000001
 31
0.0
  0
LINE
  5
12F
  8
0
 62
     7
 10
38.04079999999999
 20
192.67500000000001
 30
0.0
 11
37.093400000000003
 21
192.67500000000001
 31
0.0
  0
LINE
  5
130
  8
0
 62
     7
 10
38.0291
 20
207.26300000000001
 30
0.0
 11
37.555700000000002
 21
209.03099999999989
 31
0.0
  0
LINE
  5
131
  8
0
 62
     7
 10
37.555700000000002
 20
209.03099999999989
 30
0.0
 11
37.081699999999991
 21
207.26300000000001
 31
0.0
  0
LINE
  5
132
  8
0
 62
     7
 10
37.081699999999991
 20
207.26300000000001
 30
0.0
 11
38.0291
 21
207.26300000000001
 31
0.0
  0
LINE
  5
133
  8
0
 62
     7
 10
37.561300000000003
 20
190.92699999999999
 30
0.0
 11
37.561300000000003
 21
209.00999999999999
 31
0.0
  0
LINE
  5
134
  8
0
 62
     7
 10
170.39500000000001
 20
95.462100000000007
 30
0.0
 11
170.39500000000001
 21
81.280299999999997
 31
0.0
  0
LINE
  5
135
  8
0
 62
     7
 10
120.39400000000001
 20
95.462100000000007
 30
0.0
 11
120.39400000000001
 21
81.162099999999995
 31
0.0
  0
LINE
  5
136
  8
0
 62
     7
 10
122.164
 20
82.442999999999998
 30
0.0
 11
120.39400000000001
 21
81.969300000000004
 31
0.0
  0
LINE
  5
137
  8
0
 62
     7
 10
120.39400000000001
 20
81.969300000000004
 30
0.0
 11
122.164
 21
81.495599999999996
 31
0.0
  0
LINE
  5
138
  8
0
 62
     7
 10
122.164
 20
81.495599999999996
 30
0.0
 11
122.164
 21
82.442999999999998
 31
0.0
  0
LINE
  5
139
  8
0
 62
     7
 10
168.62700000000001
 20
81.507300000000015
 30
0.0
 11
170.39500000000001
 21
81.980699999999985
 31
0.0
  0
LINE
  5
13A
  8
0
 62
     7
 10
170.39500000000001
 20
81.980699999999985
 30
0.0
 11
168.62700000000001
 21
82.454700000000003
 31
0.0
  0
LINE
  5
13B
  8
0
 62
     7
 10
168.62700000000001
 20
82.454700000000003
 30
0.0
 11
168.62700000000001
 21
81.507300000000015
 31
0.0
  0
LINE
  5
13C
  8
0
 62
     7
 10
120.4159999999999
 20
81.975200000000001
 30
0.0
 11
170.37299999999999
 21
81.975200000000001
 31
0.0
  0
LINE
  5
13D
  8
0
 62
     7
 10
94.114599999999996
 20
95.462100000000007
 30
0.0
 11
94.114599999999996
 21
81.280299999999997
 31
0.0
  0
LINE
  5
13E
  8
0
 62
     7
 10
47.86419999999999
 20
95.462100000000007
 30
0.0
 11
47.86419999999999
 21
81.162099999999995
 31
0.0
  0
LINE
  5
13F
  8
0
 62
     7
 10
49.632899999999999
 20
82.442999999999998
 30
0.0
 11
47.86419999999999
 21
81.969300000000004
 31
0.0
  0
LINE
  5
140
  8
0
 62
     7
 10
47.86419999999999
 20
81.969300000000004
 30
0.0
 11
49.632899999999999
 21
81.495599999999996
 31
0.0
  0
LINE
  5
141
  8
0
 62
     7
 10
49.632899999999999
 20
81.495599999999996
 30
0.0
 11
49.632899999999999
 21
82.442999999999998
 31
0.0
  0
LINE
  5
142
  8
0
 62
     7
 10
92.346199999999996
 20
81.507300000000015
 30
0.0
 11
94.114599999999996
 21
81.980699999999985
 31
0.0
  0
LINE
  5
143
  8
0
 62
     7
 10
94.114599999999996
 20
81.980699999999985
 30
0.0
 11
92.346199999999996
 21
82.454700000000003
 31
0.0
  0
LINE
  5
144
  8
0
 62
     7
 10
92.346199999999996
 20
82.454700000000003
 30
0.0
 11
92.346199999999996
 21
81.507300000000015
 31
0.0
  0
LINE
  5
145
  8
0
 62
     7
 10
47.88559999999999
 20
81.975200000000001
 30
0.0
 11
94.093199999999996
 21
81.975200000000001
 31
0.0
  0
TEXT
  5
146
  8
_________2
 62
     7
 10
39.42500033333333
 20
13.603400000000001
 30
0.0
 40
3.6545800000000002
  1
早川
 41
0.5
 72
     1
 11
41.313200000000002
 21
13.603400000000001
 31
0.0
  0
TEXT
  5
147
  8
_________2
 62
     7
 10
24.586400000000001
 20
0.707627
 30
0.0
 40
3.9357000000000002
  1
実容量：4.5L、重量：12kg、オーバーフロー付
 41
0.5
  0
TEXT
  5
148
  8
_________2
 62
     7
 10
109.179
 20
24.226099999999999
 30
0.0
 40
3.9357000000000002
  1
M2 洗面器
 41
0.5
  0
LINE
  5
149
  8
_________2
 62
     7
 10
205.30099999999999
 20
127.411
 30
0.0
 11
183.55099999999999
 21
127.411
 31
0.0
  0
LINE
  5
14A
  8
_________2
 62
     7
 10
100.2999999999999
 20
-4.0910799999999998
 30
0.0
 11
100.2999999999999
 21
-21.070999999999991
 31
0.0
  0
LINE
  5
14B
  8
_________2
 62
     7
 10
100.2999999999999
 20
275.93099999999993
 30
0.0
 11
100.2999999999999
 21
258.911
 31
0.0
  0
LINE
  5
14C
  8
_________2
 62
     7
 10
17.049199999999988
 20
127.411
 30
0.0
 11
-4.7012099999999988
 21
127.411
 31
0.0
  0
LINE
  5
14D
  8
_________2
 62
     7
 10
76.740700000000004
 20
29.8047
 30
0.0
 11
74.554400000000001
 21
29.8047
 31
0.0
  0
LINE
  5
14E
  8
_________2
 62
     7
 10
77.2333
 20
29.8047
 30
0.0
 11
76.981099999999984
 21
29.8047
 31
0.0
  0
LINE
  5
14F
  8
_________2
 62
     7
 10
77.725999999999999
 20
29.8047
 30
0.0
 11
80.650899999999993
 21
29.8047
 31
0.0
  0
LINE
  5
150
  8
_________2
 62
     7
 10
77.2333
 20
29.8047
 30
0.0
 11
77.485500000000002
 21
29.8047
 31
0.0
  0
LINE
  5
151
  8
_________2
 62
     7
 10
70.837100000000007
 20
29.8047
 30
0.0
 11
68.650199999999998
 21
29.8047
 31
0.0
  0
LINE
  5
152
  8
_________2
 62
     7
 10
71.329099999999997
 20
29.8047
 30
0.0
 11
71.077600000000004
 21
29.8047
 31
0.0
  0
LINE
  5
153
  8
_________2
 62
     7
 10
71.329099999999997
 20
30.2974
 30
0.0
 11
71.329099999999997
 21
32.484400000000001
 31
0.0
  0
LINE
  5
154
  8
_________2
 62
     7
 10
71.329099999999997
 20
29.8047
 30
0.0
 11
71.329099999999997
 21
30.057300000000001
 31
0.0
  0
LINE
  5
155
  8
_________2
 62
     7
 10
71.821700000000007
 20
29.8047
 30
0.0
 11
74.008700000000005
 21
29.8047
 31
0.0
  0
LINE
  5
156
  8
_________2
 62
     7
 10
71.329099999999997
 20
29.8047
 30
0.0
 11
71.581299999999985
 21
29.8047
 31
0.0
  0
LINE
  5
157
  8
_________2
 62
     7
 10
71.329099999999997
 20
29.312799999999999
 30
0.0
 11
71.329099999999997
 21
27.126200000000001
 31
0.0
  0
LINE
  5
158
  8
_________2
 62
     7
 10
71.329099999999997
 20
29.8047
 30
0.0
 11
71.329099999999997
 21
29.5532
 31
0.0
  0
LINE
  5
159
  8
_________2
 62
     7
 10
75.040199999999999
 20
28.5852
 30
0.0
 11
80.218199999999996
 21
27.720400000000001
 31
0.0
  0
LINE
  5
15A
  8
_________2
 62
     7
 10
75.040199999999999
 20
31.024699999999999
 30
0.0
 11
80.218199999999996
 21
31.8901
 31
0.0
  0
LINE
  5
15B
  8
_________2
 62
     7
 10
80.218199999999996
 20
27.720400000000001
 30
0.0
 11
80.218199999999996
 21
31.8901
 31
0.0
  0
LINE
  5
15C
  8
_________2
 62
     7
 10
75.040199999999999
 20
28.5852
 30
0.0
 11
75.040199999999999
 21
31.024699999999999
 31
0.0
  0
ARC
  5
15D
  8
_________2
 62
     7
 10
71.282501999999994
 20
29.757801000000001
 30
0.0
 40
1.267714
 50
2.1220840000000001
 51
87.894083999999992
  0
ARC
  5
15E
  8
_________2
 62
     7
 10
71.375640000000004
 20
29.758545999999999
 30
0.0
 40
1.2669680000000001
 50
92.105782999999988
 51
177.91037
  0
ARC
  5
15F
  8
_________2
 62
     7
 10
71.376013999999998
 20
29.851671
 30
0.0
 40
1.2673680000000001
 50
182.12203600000001
 51
267.877993
  0
ARC
  5
160
  8
_________2
 62
     7
 10
71.282195999999999
 20
29.852347999999999
 30
0.0
 40
1.2680439999999991
 50
272.11916400000001
 51
357.84848499999993
  0
ARC
  5
161
  8
_________2
 62
     7
 10
71.248716999999985
 20
29.724731999999989
 30
0.0
 40
2.1668310000000002
 50
2.1161439999999989
 51
87.874379000000005
  0
ARC
  5
162
  8
_________2
 62
     7
 10
71.408756000000011
 20
29.726146
 30
0.0
 40
2.165392999999999
 50
92.108508999999998
 51
177.91986499999999
  0
ARC
  5
163
  8
_________2
 62
     7
 10
71.409094999999994
 20
29.884751999999999
 30
0.0
 40
2.1657829999999998
 50
182.117133
 51
267.88289700000001
  0
ARC
  5
164
  8
_________2
 62
     7
 10
71.249115000000003
 20
29.885429999999989
 30
0.0
 40
2.1664590000000001
 50
272.11546800000002
 51
357.86560400000002
  0
TEXT
  5
165
  8
_________2
 62
     7
 10
104.605
 20
1.6794899999999999
 30
0.0
 40
3.0923400000000001
  1
図番
 41
0.5
  0
LINE
  5
166
  8
_________2
 62
     7
 10
103.55
 20
5.9087199999999989
 30
0.0
 11
183.55099999999999
 21
5.9087199999999989
 31
0.0
  0
TEXT
  5
167
  8
_________2
 62
     7
 10
104.605
 20
11.679299999999991
 30
0.0
 40
3.0923400000000001
  1
品番
 41
0.5
  0
TEXT
  5
168
  8
_________2
 62
     7
 10
104.605
 20
31.8184
 30
0.0
 40
3.0923400000000001
  1
名称
 41
0.5
  0
TEXT
  5
169
  8
_________2
 62
     7
 10
91.844758333333345
 20
26.822299999999998
 30
0.0
 40
3.6545800000000002
  1
mm
 41
0.5
 72
     1
 11
93.367500000000007
 21
26.822299999999998
 31
0.0
  0
TEXT
  5
16A
  8
_________2
 62
     7
 10
85.642899999999983
 20
31.8184
 30
0.0
 40
3.0923400000000001
  1
単位
 41
0.5
  0
TEXT
  5
16B
  8
_________2
 62
     7
 10
85.642899999999983
 20
19.410799999999991
 30
0.0
 40
3.0923400000000001
  1
尺度
 41
0.5
  0
TEXT
  5
16C
  8
_________2
 62
     7
 10
90.548458666666676
 20
13.218199999999991
 30
0.0
 40
3.6545800000000002
  1
1 ： 8
 41
0.5
 72
     1
 11
93.959400000000016
 21
13.218199999999991
 31
0.0
  0
TEXT
  5
16D
  8
_________2
 62
     7
 10
137.15448749999999
 20
9.1082000000000001
 30
0.0
 40
3.9357000000000002
  1
GA5203R
 41
0.5
 72
     1
 11
143.55000000000001
 21
9.1082000000000001
 31
0.0
  0
TEXT
  5
16E
  8
_________2
 62
     7
 10
137.15448749999999
 20
-0.8926299999999999
 30
0.0
 40
3.9357000000000002
  1
GA5203R
 41
0.5
 72
     1
 11
143.55000000000001
 21
-0.8926299999999999
 31
0.0
  0
TEXT
  5
16F
  8
_________2
 62
     7
 10
20.851000333333332
 20
13.603400000000001
 30
0.0
 40
3.6545800000000002
  1
西田
 41
0.5
 72
     1
 11
22.73919999999999
 21
13.603400000000001
 31
0.0
  0
TEXT
  5
170
  8
_________2
 62
     7
 10
67.785399999999996
 20
13.218199999999991
 30
0.0
 40
3.6545800000000002
  1
14.01.20
 41
0.5
  0
TEXT
  5
171
  8
_________2
 62
     7
 10
66.592699999999994
 20
19.410799999999991
 30
0.0
 40
3.0923400000000001
  1
日付
 41
0.5
  0
TEXT
  5
172
  8
_________2
 62
     7
 10
29.638999999999999
 20
19.410799999999991
 30
0.0
 40
3.0923400000000001
  1
検図
 41
0.5
  0
TEXT
  5
173
  8
_________2
 62
     7
 10
18.020700000000001
 20
5.21143
 30
0.0
 40
3.0923400000000001
  1
備考
 41
0.5
  0
TEXT
  5
174
  8
_________2
 62
     7
 10
18.020700000000001
 20
19.410799999999991
 30
0.0
 40
3.0923400000000001
  1
製図
 41
0.5
  0
TEXT
  5
175
  8
_________2
 62
     7
 10
23.788165333333328
 20
27.936800000000002
 30
0.0
 40
4.4979399999999989
  1
セラトレーディング株式会社
 41
0.5
 72
     1
 11
41.180199999999999
 21
27.936800000000002
 31
0.0
  0
LINE
  5
176
  8
_________2
 62
     7
 10
183.55099999999999
 20
-4.0910799999999998
 30
0.0
 11
17.049199999999988
 21
-4.0910799999999998
 31
0.0
  0
LINE
  5
177
  8
_________2
 62
     7
 10
17.049199999999988
 20
-4.0910799999999998
 30
0.0
 11
17.049199999999988
 21
258.911
 31
0.0
  0
LINE
  5
178
  8
_________2
 62
     7
 10
17.049199999999988
 20
258.911
 30
0.0
 11
183.55099999999999
 21
258.911
 31
0.0
  0
LINE
  5
179
  8
_________2
 62
     7
 10
183.55099999999999
 20
258.911
 30
0.0
 11
183.55099999999999
 21
-4.0910799999999998
 31
0.0
  0
LINE
  5
17A
  8
_________2
 62
     7
 10
65.549599999999998
 20
9.4092999999999982
 30
0.0
 11
65.549599999999998
 21
35.909100000000002
 31
0.0
  0
LINE
  5
17B
  8
_________2
 62
     7
 10
84.549400000000006
 20
9.4092999999999982
 30
0.0
 11
84.549400000000006
 21
35.909100000000002
 31
0.0
  0
LINE
  5
17C
  8
_________2
 62
     7
 10
103.55
 20
-4.0910799999999998
 30
0.0
 11
103.55
 21
35.909100000000002
 31
0.0
  0
LINE
  5
17D
  8
_________2
 62
     7
 10
28.548999999999999
 20
9.4092999999999982
 30
0.0
 11
28.548999999999999
 21
23.409199999999998
 31
0.0
  0
LINE
  5
17E
  8
_________2
 62
     7
 10
17.049199999999988
 20
9.4092999999999982
 30
0.0
 11
103.55
 21
9.4092999999999982
 31
0.0
  0
LINE
  5
17F
  8
_________2
 62
     7
 10
17.049199999999988
 20
23.409199999999998
 30
0.0
 11
103.55
 21
23.409199999999998
 31
0.0
  0
LINE
  5
180
  8
_________2
 62
     7
 10
103.55
 20
15.9085
 30
0.0
 11
183.55099999999999
 21
15.9085
 31
0.0
  0
LINE
  5
181
  8
_________2
 62
     7
 10
17.049199999999988
 20
35.909100000000002
 30
0.0
 11
183.55099999999999
 21
35.909100000000002
 31
0.0
  0
ENDSEC
  0
EOF
