  0
SECTION
  2
HEADER
  9
$ACADVER
  1
AC1009
  9
$INSBASE
 10
0.0
 20
0.0
 30
0.0
  9
$EXTMIN
 10
0.238402
 20
0.447865
 30
0.0
  9
$EXTMAX
 10
210.24000000000001
 20
297.44999999999999
 30
0.0
  9
$LIMMIN
 10
0.0
 20
0.0
  9
$LIMMAX
 10
12.0
 20
9.0
  9
$ORTHOMODE
 70
     0
  9
$REGENMODE
 70
     1
  9
$FILLMODE
 70
     1
  9
$QTEXTMODE
 70
     0
  9
$MIRRTEXT
 70
     1
  9
$DRAGMODE
 70
     2
  9
$LTSCALE
 40
1.0
  9
$OSMODE
 70
    37
  9
$ATTMODE
 70
     1
  9
$TEXTSIZE
 40
0.0
  9
$TRACEWID
 40
0.05
  9
$TEXTSTYLE
  7
STANDARD
  9
$CLAYER
  8
0
  9
$CELTYPE
  6
CONTINUOUS
  9
$CECOLOR
 62
   256
  9
$DIMSCALE
 40
1.0
  9
$DIMASZ
 40
0.18
  9
$DIMEXO
 40
0.0625
  9
$DIMDLI
 40
0.38
  9
$DIMRND
 40
0.0
  9
$DIMDLE
 40
0.0
  9
$DIMEXE
 40
0.18
  9
$DIMTP
 40
0.0
  9
$DIMTM
 40
0.0
  9
$DIMTXT
 40
0.18
  9
$DIMCEN
 40
0.09
  9
$DIMTSZ
 40
0.0
  9
$DIMTOL
 70
     0
  9
$DIMLIM
 70
     0
  9
$DIMTIH
 70
     1
  9
$DIMTOH
 70
     1
  9
$DIMSE1
 70
     0
  9
$DIMSE2
 70
     0
  9
$DIMTAD
 70
     0
  9
$DIMZIN
 70
     0
  9
$DIMBLK
  1

  9
$DIMASO
 70
     1
  9
$DIMSHO
 70
     1
  9
$DIMPOST
  1

  9
$DIMAPOST
  1

  9
$DIMALT
 70
     0
  9
$DIMALTD
 70
     2
  9
$DIMALTF
 40
25.399999999999999
  9
$DIMLFAC
 40
1.0
  9
$DIMTOFL
 70
     0
  9
$DIMTVP
 40
0.0
  9
$DIMTIX
 70
     0
  9
$DIMSOXD
 70
     0
  9
$DIMSAH
 70
     0
  9
$DIMBLK1
  1

  9
$DIMBLK2
  1

  9
$DIMSTYLE
  2
STANDARD
  9
$DIMCLRD
 70
     0
  9
$DIMCLRE
 70
     0
  9
$DIMCLRT
 70
     0
  9
$DIMTFAC
 40
1.0
  9
$DIMGAP
 40
0.09
  9
$LUNITS
 70
     2
  9
$LUPREC
 70
     4
  9
$SKETCHINC
 40
0.1
  9
$FILLETRAD
 40
0.0
  9
$AUNITS
 70
     0
  9
$AUPREC
 70
     0
  9
$MENU
  1
.
  9
$ELEVATION
 40
0.0
  9
$PELEVATION
 40
0.0
  9
$THICKNESS
 40
0.0
  9
$LIMCHECK
 70
     0
  9
$BLIPMODE
 70
     0
  9
$CHAMFERA
 40
0.0
  9
$CHAMFERB
 40
0.0
  9
$SKPOLY
 70
     0
  9
$TDCREATE
 40
2444972.375
  9
$TDUPDATE
 40
2457676.2509900122
  9
$TDINDWG
 40
0.0000269792
  9
$TDUSRTIMER
 40
0.0000269792
  9
$USRTIMER
 70
     1
  9
$ANGBASE
 50
0.0
  9
$ANGDIR
 70
     0
  9
$PDMODE
 70
     0
  9
$PDSIZE
 40
0.0
  9
$PLINEWID
 40
0.0
  9
$COORDS
 70
     1
  9
$SPLFRAME
 70
     0
  9
$SPLINETYPE
 70
     6
  9
$SPLINESEGS
 70
     8
  9
$ATTDIA
 70
     1
  9
$ATTREQ
 70
     1
  9
$HANDLING
 70
     1
  9
$HANDSEED
  5
25C
  9
$SURFTAB1
 70
     6
  9
$SURFTAB2
 70
     6
  9
$SURFTYPE
 70
     6
  9
$SURFU
 70
     6
  9
$SURFV
 70
     6
  9
$UCSNAME
  2

  9
$UCSORG
 10
0.0
 20
0.0
 30
0.0
  9
$UCSXDIR
 10
1.0
 20
0.0
 30
0.0
  9
$UCSYDIR
 10
0.0
 20
1.0
 30
0.0
  9
$PUCSNAME
  2

  9
$PUCSORG
 10
0.0
 20
0.0
 30
0.0
  9
$PUCSXDIR
 10
1.0
 20
0.0
 30
0.0
  9
$PUCSYDIR
 10
0.0
 20
1.0
 30
0.0
  9
$USERI1
 70
     0
  9
$USERI2
 70
     0
  9
$USERI3
 70
     0
  9
$USERI4
 70
     0
  9
$USERI5
 70
     0
  9
$USERR1
 40
0.0
  9
$USERR2
 40
0.0
  9
$USERR3
 40
0.0
  9
$USERR4
 40
0.0
  9
$USERR5
 40
0.0
  9
$WORLDVIEW
 70
     1
  9
$SHADEDGE
 70
     3
  9
$SHADEDIF
 70
    70
  9
$TILEMODE
 70
     1
  9
$MAXACTVP
 70
    48
  9
$PLIMCHECK
 70
     0
  9
$PEXTMIN
 10
1.0000000000000000E+020
 20
1.0000000000000000E+020
 30
1.0000000000000000E+020
  9
$PEXTMAX
 10
-1.0000000000000000E+020
 20
-1.0000000000000000E+020
 30
-1.0000000000000000E+020
  9
$PLIMMIN
 10
0.0
 20
0.0
  9
$PLIMMAX
 10
12.0
 20
9.0
  9
$UNITMODE
 70
     0
  9
$VISRETAIN
 70
     1
  9
$PLINEGEN
 70
     0
  9
$PSLTSCALE
 70
     1
  0
ENDSEC
  0
SECTION
  2
TABLES
  0
TABLE
  2
VPORT
 70
     1
  0
VPORT
  2
*ACTIVE
 70
     0
 10
0.0
 20
0.0
 11
1.0
 21
1.0
 12
177.98836336455309
 22
148.72499999999999
 13
0.0
 23
0.0
 14
1.0
 24
1.0
 15
0.0
 25
0.0
 16
0.0
 26
0.0
 36
1.0
 17
0.0
 27
0.0
 37
0.0
 40
290.0781911758238
 41
2.1063583815028899
 42
50.0
 43
0.0
 44
0.0
 50
0.0
 51
0.0
 71
     0
 72
   100
 73
     1
 74
     1
 75
     0
 76
     0
 77
     0
 78
     0
  0
ENDTAB
  0
TABLE
  2
LTYPE
 70
     4
  0
LTYPE
  2
CONTINUOUS
 70
     0
  3
Solid line
 72
    65
 73
     0
 40
0.0
  0
LTYPE
  2
AIGENLINE001
 70
     0
  3
generate AI->DXF Converter
 72
    65
 73
     4
 40
5.8561449999999988
 49
3.5278
 49
-0.776115
 49
0.776115
 49
-0.776115
  0
LTYPE
  2
AIGENLINE002
 70
     0
  3
generate AI->DXF Converter
 72
    65
 73
     2
 40
1.5522299999999991
 49
0.776115
 49
-0.776115
  0
LTYPE
  2
AIGENLINE003
 70
     0
  3
generate AI->DXF Converter
 72
    65
 73
     6
 40
7.4083750000000004
 49
3.5278
 49
-0.776115
 49
0.776115
 49
-0.776115
 49
0.776115
 49
-0.776115
  0
ENDTAB
  0
TABLE
  2
LAYER
 70
     2
  0
LAYER
  2
0
 70
     0
 62
     7
  6
CONTINUOUS
  0
LAYER
  2
_________2
 70
     0
 62
     7
  6
CONTINUOUS
  0
ENDTAB
  0
TABLE
  2
STYLE
 70
     1
  0
STYLE
  2
STANDARD
 70
     0
 40
0.0
 41
0.0
 50
0.0
 71
     0
 42
0.0
  3
TXT
  4
EXTFONT.SHX
  0
ENDTAB
  0
TABLE
  2
VIEW
 70
     0
  0
ENDTAB
  0
TABLE
  2
UCS
 70
     0
  0
ENDTAB
  0
TABLE
  2
APPID
 70
     3
  0
APPID
  2
ACAD
 70
     0
  0
APPID
  2
ACAD_NAV_VCDISPLAY
 70
     0
  0
APPID
  2
ACAD_MLEADERVER
 70
     0
  0
ENDTAB
  0
TABLE
  2
DIMSTYLE
 70
     1
  0
DIMSTYLE
  2
STANDARD
 70
     0
  3

  4

  5

  6

  7

 40
1.0
 41
0.18
 42
0.0625
 43
0.38
 44
0.18
 45
0.0
 46
0.0
 47
0.0
 48
0.0
140
0.18
141
0.09
142
0.0
143
25.399999999999999
144
1.0
145
0.0
146
1.0
147
0.09
 71
     0
 72
     0
 73
     1
 74
     1
 75
     0
 76
     0
 77
     0
 78
     0
170
     0
171
     2
172
     0
173
     0
174
     0
175
     0
176
     0
177
     0
178
     0
  0
ENDTAB
  0
ENDSEC
  0
SECTION
  2
BLOCKS
  0
BLOCK
  8
0
  2
$MODEL_SPACE
 70
     0
 10
0.0
 20
0.0
 30
0.0
  3
$MODEL_SPACE
  1

  0
ENDBLK
  5
1A
  8
0
  0
BLOCK
 67
     1
  8
0
  2
$PAPER_SPACE
 70
     0
 10
0.0
 20
0.0
 30
0.0
  3
$PAPER_SPACE
  1

  0
ENDBLK
  5
17
 67
     1
  8
0
  0
ENDSEC
  0
SECTION
  2
ENTITIES
  0
TEXT
  5
24
  8
0
 62
     7
 10
25.078700000000001
 20
60.606200000000001
 30
0.0
 40
3.6545800000000002
  1
※壁取付部には厚さ30mm以上の補強木を入れてください。
 41
0.5
  0
TEXT
  5
25
  8
0
 62
     7
 10
144.09775999999999
 20
182.56099999999989
 30
0.0
 40
3.0923400000000001
  1
カウンター切込寸法
 41
0.5
 72
     1
 11
152.34399999999999
 21
182.56099999999989
 31
0.0
  0
TEXT
  5
26
  8
0
 62
     7
 10
36.124099999999999
 20
184.16300000000001
 30
0.0
 40
3.0923400000000001
  1
27.5
 41
0.5
  0
TEXT
  5
27
  8
0
 62
     7
 10
94.004644999999996
 20
191.249
 30
0.0
 40
3.0923400000000001
  1
53.5
 41
0.5
 72
     1
 11
96.323899999999995
 21
191.249
 31
0.0
  0
TEXT
  5
28
  8
0
 62
     7
 10
104.41052500000001
 20
191.11000000000001
 30
0.0
 40
3.0923400000000001
  1
59
 41
0.5
 72
     1
 11
105.699
 21
191.11000000000001
 31
0.0
  0
TEXT
  5
29
  8
0
 62
     7
 10
58.000100000000003
 20
221.78200000000001
 30
0.0
 40
3.0923400000000001
  1
%%c46
 41
0.5
  0
TEXT
  5
2A
  8
0
 62
     7
 10
95.964879999999994
 20
222.24000000000001
 30
0.0
 40
3.0923400000000001
  1
%%c35
 41
0.5
 72
     2
 11
100.08799999999999
 21
222.24000000000001
 31
0.0
  0
TEXT
  5
2B
  8
0
 62
     7
 10
98.622050000000016
 20
184.16300000000001
 30
0.0
 40
3.0923400000000001
  1
112.5
 41
0.5
 72
     1
 11
101.199
 21
184.16300000000001
 31
0.0
  0
TEXT
  5
2C
  8
0
 62
     7
 10
159.13183000000001
 20
100.346
 30
0.0
 40
3.0923400000000001
  1
100
 41
0.5
 72
     1
 11
160.678
 21
100.346
 31
0.0
  0
TEXT
  5
2D
  8
0
 62
     7
 10
75.436734999999999
 20
176.06899999999999
 30
0.0
 40
3.0923400000000001
  1
400
 41
0.5
 72
     1
 11
77.240600000000001
 21
176.06899999999999
 31
0.0
  0
TEXT
  5
2E
  8
0
 62
     7
 10
68.265987500000008
 20
184.16300000000001
 30
0.0
 40
3.0923400000000001
  1
260
 41
0.5
 72
     1
 11
70.198700000000002
 21
184.16300000000001
 31
0.0
  0
TEXT
  5
2F
  8
0
 62
     7
 10
83.607182500000008
 20
143.63999999999999
 30
0.0
 40
3.0923400000000001
  1
180
 41
0.5
 72
     1
 11
85.282200000000003
 21
143.63999999999999
 31
0.0
  0
TEXT
  5
30
  8
0
 62
     7
 10
171.70845399999999
 20
234.054
 30
0.0
 40
3.0923400000000001
  1
壁
 41
0.5
 72
     1
 11
172.43000000000001
 21
234.054
 31
0.0
  0
TEXT
  5
31
  8
0
 62
     7
 10
127.0629825
 20
209.34399999999999
 30
0.0
 40
3.0923400000000001
  1
R10
 41
0.5
 72
     1
 11
128.738
 21
209.34399999999999
 31
0.0
  0
TEXT
  5
32
  8
0
 62
     7
 10
150.98086357142861
 20
221.797
 30
0.0
 40
3.0923400000000001
  1
排水口
 41
0.5
 72
     1
 11
153.52099999999999
 21
221.797
 31
0.0
  0
TEXT
  5
33
  8
0
 62
     7
 10
132.45713499999999
 20
197.30799999999999
 30
0.0
 40
3.0923400000000001
  1
133
 41
0.5
 72
     1
 11
134.261
 21
197.30799999999999
 31
0.0
  0
TEXT
  5
34
  8
0
 62
     7
 10
161.624135
 20
197.30799999999999
 30
0.0
 40
3.0923400000000001
  1
217
 41
0.5
 72
     1
 11
163.428
 21
197.30799999999999
 31
0.0
  0
TEXT
  5
35
  8
0
 62
     7
 10
150.41128749999999
 20
191.49299999999999
 30
0.0
 40
3.0923400000000001
  1
350
 41
0.5
 72
     1
 11
152.34399999999999
 21
191.49299999999999
 31
0.0
  0
TEXT
  5
36
  8
0
 62
     7
 10
62.455872499999991
 20
143.63999999999999
 30
0.0
 40
3.0923400000000001
  1
80
 41
0.5
 72
     1
 11
63.615499999999997
 21
143.63999999999999
 31
0.0
  0
TEXT
  5
37
  8
0
 62
     7
 10
55.311534999999999
 20
238.875
 30
0.0
 40
3.0923400000000001
  1
158
 41
0.5
 72
     1
 11
57.115400000000001
 21
238.875
 31
0.0
  0
TEXT
  5
38
  8
0
 62
     7
 10
88.387439999999998
 20
238.875
 30
0.0
 40
3.0923400000000001
  1
242
 41
0.5
 72
     1
 11
90.448999999999998
 21
238.875
 31
0.0
  0
TEXT
  5
39
  8
0
 62
     7
 10
36.344999999999999
 20
189.458
 30
0.0
 40
3.0923400000000001
  1
27.5
 50
90.0
 41
0.5
  0
TEXT
  5
3A
  8
0
 62
     7
 10
36.344999999999999
 20
234.40048999999999
 30
0.0
 40
3.0923400000000001
  1
27.5
 50
90.0
 41
0.5
 72
     2
 11
36.344999999999999
 21
239.03899999999999
 31
0.0
  0
TEXT
  5
3B
  8
0
 62
     7
 10
66.274799999999999
 20
124.5789825
 30
0.0
 40
3.0923400000000001
  1
120
 50
90.0
 41
0.5
 72
     1
 11
66.274799999999999
 21
126.254
 31
0.0
  0
TEXT
  5
3C
  8
0
 62
     7
 10
116.306
 20
129.54952499999999
 30
0.0
 40
3.0923400000000001
  1
65
 50
90.0
 41
0.5
 72
     1
 11
116.306
 21
130.83799999999999
 31
0.0
  0
TEXT
  5
3D
  8
0
 62
     7
 10
166.03200000000001
 20
215.7879825
 30
0.0
 40
3.0923400000000001
  1
160
 50
90.0
 41
0.5
 72
     1
 11
166.03200000000001
 21
217.46299999999999
 31
0.0
  0
TEXT
  5
3E
  8
0
 62
     7
 10
121.96899999999999
 20
120.41198249999999
 30
0.0
 40
3.0923400000000001
  1
170
 50
90.0
 41
0.5
 72
     1
 11
121.96899999999999
 21
122.087
 31
0.0
  0
TEXT
  5
3F
  8
0
 62
     7
 10
36.536799999999999
 20
122.91198249999999
 30
0.0
 40
3.0923400000000001
  1
140
 50
90.0
 41
0.5
 72
     1
 11
36.536799999999999
 21
124.587
 31
0.0
  0
TEXT
  5
40
  8
0
 62
     7
 10
28.9755
 20
212.32513499999999
 30
0.0
 40
3.0923400000000001
  1
200
 50
90.0
 41
0.5
 72
     1
 11
28.9755
 21
214.12899999999999
 31
0.0
  0
TEXT
  5
41
  8
0
 62
     7
 10
36.344999999999999
 20
212.32513499999999
 30
0.0
 40
3.0923400000000001
  1
145
 50
90.0
 41
0.5
 72
     1
 11
36.344999999999999
 21
214.12899999999999
 31
0.0
  0
TEXT
  5
42
  8
0
 62
     7
 10
115.352
 20
220.91683
 30
0.0
 40
3.0923400000000001
  1
100
 50
90.0
 41
0.5
 72
     1
 11
115.352
 21
222.46299999999999
 31
0.0
  0
LINE
  5
43
  8
0
 62
     7
 10
173.76400000000001
 20
233.10599999999999
 30
0.0
 11
172.43000000000001
 21
230.79599999999999
 31
0.0
  0
LINE
  5
44
  8
0
 62
     7
 10
172.43000000000001
 20
230.79599999999999
 30
0.0
 11
171.09700000000001
 21
233.10599999999999
 31
0.0
  0
LINE
  5
45
  8
0
 62
     7
 10
171.09700000000001
 20
233.10599999999999
 30
0.0
 11
173.76400000000001
 21
233.10599999999999
 31
0.0
  0
LINE
  5
46
  8
0
 62
     7
 10
50.743600000000001
 20
184.05500000000001
 30
0.0
 11
48.5321
 21
183.46299999999999
 31
0.0
  0
LINE
  5
47
  8
0
 62
     7
 10
48.5321
 20
183.46299999999999
 30
0.0
 11
50.743600000000001
 21
182.87
 31
0.0
  0
LINE
  5
48
  8
0
 62
     7
 10
50.743600000000001
 20
182.87
 30
0.0
 11
50.743600000000001
 21
184.05500000000001
 31
0.0
  0
LINE
  5
49
  8
0
 62
     7
 10
89.653800000000004
 20
182.87
 30
0.0
 11
91.865399999999994
 21
183.46299999999999
 31
0.0
  0
LINE
  5
4A
  8
0
 62
     7
 10
91.865399999999994
 20
183.46299999999999
 30
0.0
 11
89.653800000000004
 21
184.05500000000001
 31
0.0
  0
LINE
  5
4B
  8
0
 62
     7
 10
89.653800000000004
 20
184.05500000000001
 30
0.0
 11
89.653800000000004
 21
182.87
 31
0.0
  0
LINE
  5
4C
  8
0
 62
     7
 10
108.404
 20
182.88499999999999
 30
0.0
 11
110.616
 21
183.477
 31
0.0
  0
LINE
  5
4D
  8
0
 62
     7
 10
110.616
 20
183.477
 30
0.0
 11
108.404
 21
184.06999999999999
 31
0.0
  0
LINE
  5
4E
  8
0
 62
     7
 10
108.404
 20
184.06999999999999
 30
0.0
 11
108.404
 21
182.88499999999999
 31
0.0
  0
LINE
  5
4F
  8
0
 62
     7
 10
36.124099999999999
 20
183.46299999999999
 30
0.0
 11
110.616
 21
183.46299999999999
 31
0.0
  0
LINE
  5
50
  8
0
 62
     7
 10
154.55600000000001
 20
100.238
 30
0.0
 11
152.34399999999999
 21
99.645499999999998
 31
0.0
  0
LINE
  5
51
  8
0
 62
     7
 10
152.34399999999999
 20
99.645499999999998
 30
0.0
 11
154.55600000000001
 21
99.052999999999997
 31
0.0
  0
LINE
  5
52
  8
0
 62
     7
 10
154.55600000000001
 20
99.052999999999997
 30
0.0
 11
154.55600000000001
 21
100.238
 31
0.0
  0
LINE
  5
53
  8
0
 62
     7
 10
166.79900000000001
 20
99.067400000000006
 30
0.0
 11
169.011
 21
99.660000000000011
 31
0.0
  0
LINE
  5
54
  8
0
 62
     7
 10
169.011
 20
99.660000000000011
 30
0.0
 11
166.79900000000001
 21
100.253
 31
0.0
  0
LINE
  5
55
  8
0
 62
     7
 10
166.79900000000001
 20
100.253
 30
0.0
 11
166.79900000000001
 21
99.067400000000006
 31
0.0
  0
LINE
  5
56
  8
0
 62
     7
 10
152.34399999999999
 20
99.645499999999998
 30
0.0
 11
169.011
 21
99.645499999999998
 31
0.0
  0
LINE
  5
57
  8
0
 62
     7
 10
169.011
 20
98.945499999999996
 30
0.0
 11
169.011
 21
106.95099999999999
 31
0.0
  0
LINE
  5
58
  8
0
 62
     7
 10
152.34399999999999
 20
98.945499999999996
 30
0.0
 11
152.34399999999999
 21
103.89400000000001
 31
0.0
  0
LINE
  5
59
  8
0
 62
     7
 10
46.160299999999999
 20
175.96100000000001
 30
0.0
 11
43.948700000000002
 21
175.369
 31
0.0
  0
LINE
  5
5A
  8
0
 62
     7
 10
43.948700000000002
 20
175.369
 30
0.0
 11
46.160299999999999
 21
174.7759999999999
 31
0.0
  0
LINE
  5
5B
  8
0
 62
     7
 10
46.160299999999999
 20
174.7759999999999
 30
0.0
 11
46.160299999999999
 21
175.96100000000001
 31
0.0
  0
LINE
  5
5C
  8
0
 62
     7
 10
108.404
 20
174.791
 30
0.0
 11
110.616
 21
175.3829999999999
 31
0.0
  0
LINE
  5
5D
  8
0
 62
     7
 10
110.616
 20
175.3829999999999
 30
0.0
 11
108.404
 21
175.976
 31
0.0
  0
LINE
  5
5E
  8
0
 62
     7
 10
108.404
 20
175.976
 30
0.0
 11
108.404
 21
174.791
 31
0.0
  0
LINE
  5
5F
  8
0
 62
     7
 10
43.948700000000002
 20
175.369
 30
0.0
 11
110.616
 21
175.369
 31
0.0
  0
LINE
  5
60
  8
0
 62
     7
 10
91.865399999999994
 20
182.762
 30
0.0
 11
91.865399999999994
 21
201.834
 31
0.0
  0
LINE
  5
61
  8
0
  6
AIGENLINE001
 62
     7
 10
56.948599999999999
 20
114.849
 30
0.0
 11
56.948599999999999
 21
110.875
 31
0.0
  0
LINE
  5
62
  8
0
  6
AIGENLINE001
 62
     7
 10
54.894300000000001
 20
112.92100000000001
 30
0.0
 11
59.146599999999999
 21
112.92100000000001
 31
0.0
  0
ARC
  5
63
  8
0
  6
AIGENLINE002
 62
     7
 10
56.91007299999999
 20
112.88239
 30
0.0
 40
1.0390520000000001
 50
2.1079340000000002
 51
87.872315999999998
  0
ARC
  5
64
  8
0
  6
AIGENLINE002
 62
     7
 10
56.987285
 20
112.881974
 30
0.0
 40
1.0394709999999989
 50
92.130042000000003
 51
177.86992799999999
  0
ARC
  5
65
  8
0
  6
AIGENLINE002
 62
     7
 10
56.986553999999998
 20
112.95887
 30
0.0
 40
1.038726
 50
182.11099300000001
 51
267.90877699999999
  0
ARC
  5
66
  8
0
  6
AIGENLINE002
 62
     7
 10
56.91002499999999
 20
112.959233
 30
0.0
 40
1.039115999999999
 50
272.130224
 51
357.86978599999998
  0
LINE
  5
67
  8
0
  6
AIGENLINE001
 62
     7
 10
165.94900000000001
 20
112.42100000000001
 30
0.0
 11
171.52500000000001
 21
112.42100000000001
 31
0.0
  0
LINE
  5
68
  8
0
  6
AIGENLINE001
 62
     7
 10
165.94900000000001
 20
125.42100000000001
 30
0.0
 11
171.52500000000001
 21
125.42100000000001
 31
0.0
  0
LINE
  5
69
  8
0
  6
AIGENLINE001
 62
     7
 10
152.34399999999999
 20
104.973
 30
0.0
 11
152.34399999999999
 21
139.54900000000001
 31
0.0
  0
LINE
  5
6A
  8
0
 62
     7
 10
169.011
 20
107.92100000000001
 30
0.0
 11
169.011
 21
136.25399999999999
 31
0.0
  0
LINE
  5
6B
  8
0
 62
     7
 10
135.67699999999999
 20
107.92100000000001
 30
0.0
 11
169.011
 21
107.92100000000001
 31
0.0
  0
LINE
  5
6C
  8
0
 62
     7
 10
135.67699999999999
 20
107.92100000000001
 30
0.0
 11
135.67699999999999
 21
135.42099999999999
 31
0.0
  0
LINE
  5
6D
  8
0
 62
     7
 10
136.511
 20
136.25399999999999
 30
0.0
 11
169.011
 21
136.25399999999999
 31
0.0
  0
ARC
  5
6E
  8
0
 62
     7
 10
136.54268500000001
 20
135.38900699999999
 30
0.0
 40
0.865958
 50
92.093607000000006
 51
177.858992
  0
LINE
  5
6F
  8
0
 62
     7
 10
116.428
 20
127.63200000000001
 30
0.0
 11
117.021
 21
125.42100000000001
 31
0.0
  0
LINE
  5
70
  8
0
 62
     7
 10
117.021
 20
125.42100000000001
 30
0.0
 11
117.614
 21
127.63200000000001
 31
0.0
  0
LINE
  5
71
  8
0
 62
     7
 10
117.614
 20
127.63200000000001
 30
0.0
 11
116.428
 21
127.63200000000001
 31
0.0
  0
LINE
  5
72
  8
0
 62
     7
 10
117.599
 20
134.04300000000001
 30
0.0
 11
117.00700000000001
 21
136.25399999999999
 31
0.0
  0
LINE
  5
73
  8
0
 62
     7
 10
117.00700000000001
 20
136.25399999999999
 30
0.0
 11
116.414
 21
134.04300000000001
 31
0.0
  0
LINE
  5
74
  8
0
 62
     7
 10
116.414
 20
134.04300000000001
 30
0.0
 11
117.599
 21
134.04300000000001
 31
0.0
  0
LINE
  5
75
  8
0
 62
     7
 10
117.00700000000001
 20
125.42100000000001
 30
0.0
 11
117.00700000000001
 21
136.25399999999999
 31
0.0
  0
LINE
  5
76
  8
0
 62
     7
 10
117.70699999999999
 20
125.42100000000001
 30
0.0
 11
107.95399999999999
 21
125.42100000000001
 31
0.0
  0
LINE
  5
77
  8
0
 62
     7
 10
166.154
 20
206.34100000000001
 30
0.0
 11
166.74600000000001
 21
204.12899999999999
 31
0.0
  0
LINE
  5
78
  8
0
 62
     7
 10
166.74600000000001
 20
204.12899999999999
 30
0.0
 11
167.339
 21
206.34100000000001
 31
0.0
  0
LINE
  5
79
  8
0
 62
     7
 10
167.339
 20
206.34100000000001
 30
0.0
 11
166.154
 21
206.34100000000001
 31
0.0
  0
LINE
  5
7A
  8
0
 62
     7
 10
167.32400000000001
 20
228.58500000000001
 30
0.0
 11
166.732
 21
230.79599999999999
 31
0.0
  0
LINE
  5
7B
  8
0
 62
     7
 10
166.732
 20
230.79599999999999
 30
0.0
 11
166.13900000000001
 21
228.58500000000001
 31
0.0
  0
LINE
  5
7C
  8
0
 62
     7
 10
166.13900000000001
 20
228.58500000000001
 30
0.0
 11
167.32400000000001
 21
228.58500000000001
 31
0.0
  0
LINE
  5
7D
  8
0
 62
     7
 10
166.732
 20
204.12899999999999
 30
0.0
 11
166.732
 21
230.79599999999999
 31
0.0
  0
LINE
  5
7E
  8
0
 62
     7
 10
122.09099999999999
 20
110.13200000000001
 30
0.0
 11
122.684
 21
107.92100000000001
 31
0.0
  0
LINE
  5
7F
  8
0
 62
     7
 10
122.684
 20
107.92100000000001
 30
0.0
 11
123.276
 21
110.13200000000001
 31
0.0
  0
LINE
  5
80
  8
0
 62
     7
 10
123.276
 20
110.13200000000001
 30
0.0
 11
122.09099999999999
 21
110.13200000000001
 31
0.0
  0
LINE
  5
81
  8
0
 62
     7
 10
123.262
 20
134.04300000000001
 30
0.0
 11
122.669
 21
136.25399999999999
 31
0.0
  0
LINE
  5
82
  8
0
 62
     7
 10
122.669
 20
136.25399999999999
 30
0.0
 11
122.077
 21
134.04300000000001
 31
0.0
  0
LINE
  5
83
  8
0
 62
     7
 10
122.077
 20
134.04300000000001
 30
0.0
 11
123.262
 21
134.04300000000001
 31
0.0
  0
LINE
  5
84
  8
0
 62
     7
 10
122.669
 20
107.92100000000001
 30
0.0
 11
122.669
 21
136.25399999999999
 31
0.0
  0
LINE
  5
85
  8
0
 62
     7
 10
123.369
 20
107.92100000000001
 30
0.0
 11
111.072
 21
107.92100000000001
 31
0.0
  0
LINE
  5
86
  8
0
 62
     7
 10
123.369
 20
136.25399999999999
 30
0.0
 11
110.828
 21
136.25399999999999
 31
0.0
  0
LINE
  5
87
  8
0
 62
     7
 10
67.567400000000006
 20
134.04300000000001
 30
0.0
 11
66.974800000000002
 21
136.25399999999999
 31
0.0
  0
LINE
  5
88
  8
0
 62
     7
 10
66.974800000000002
 20
136.25399999999999
 30
0.0
 11
66.382199999999997
 21
134.04300000000001
 31
0.0
  0
LINE
  5
89
  8
0
 62
     7
 10
66.382199999999997
 20
134.04300000000001
 30
0.0
 11
67.567400000000006
 21
134.04300000000001
 31
0.0
  0
LINE
  5
8A
  8
0
 62
     7
 10
66.396699999999996
 20
118.46599999999999
 30
0.0
 11
66.9893
 21
116.254
 31
0.0
  0
LINE
  5
8B
  8
0
 62
     7
 10
66.9893
 20
116.254
 30
0.0
 11
67.581800000000001
 21
118.46599999999999
 31
0.0
  0
LINE
  5
8C
  8
0
 62
     7
 10
67.581800000000001
 20
118.46599999999999
 30
0.0
 11
66.396699999999996
 21
118.46599999999999
 31
0.0
  0
LINE
  5
8D
  8
0
 62
     7
 10
66.974800000000002
 20
136.25399999999999
 30
0.0
 11
66.974800000000002
 21
116.254
 31
0.0
  0
LINE
  5
8E
  8
0
  6
AIGENLINE001
 62
     7
 10
100.282
 20
129.11699999999999
 30
0.0
 11
100.282
 21
121.72499999999999
 31
0.0
  0
LINE
  5
8F
  8
0
  6
AIGENLINE001
 62
     7
 10
93.155299999999997
 20
125.42100000000001
 30
0.0
 11
107.254
 21
125.42100000000001
 31
0.0
  0
LINE
  5
90
  8
0
  6
AIGENLINE002
 62
     7
 10
96.698899999999995
 20
123.33799999999999
 30
0.0
 11
103.866
 21
123.33799999999999
 31
0.0
  0
LINE
  5
91
  8
0
  6
AIGENLINE002
 62
     7
 10
96.698899999999995
 20
127.504
 30
0.0
 11
103.866
 21
127.504
 31
0.0
  0
ARC
  5
92
  8
0
  6
AIGENLINE002
 62
     7
 10
103.865807
 20
125.420872
 30
0.0
 40
2.0832630000000001
 50
270.00002000000001
 51
359.99999000000003
  0
ARC
  5
93
  8
0
  6
AIGENLINE002
 62
     7
 10
103.865634
 20
125.42104399999999
 30
0.0
 40
2.0834349999999988
 50
359.995273
 51
89.995243000000002
  0
ARC
  5
94
  8
0
  6
AIGENLINE002
 62
     7
 10
96.699101999999996
 20
125.42104399999999
 30
0.0
 40
2.0834349999999988
 50
90.004736999999977
 51
180.0047469999999
  0
ARC
  5
95
  8
0
  6
AIGENLINE002
 62
     7
 10
96.698929000000007
 20
125.420872
 30
0.0
 40
2.0832619999999991
 50
179.99996999999999
 51
270.00002000000001
  0
LINE
  5
96
  8
0
  6
AIGENLINE001
 62
     7
 10
88.322500000000005
 20
130.00399999999999
 30
0.0
 11
95.334000000000003
 21
130.00399999999999
 31
0.0
  0
LINE
  5
97
  8
0
 62
     7
 10
44.781999999999996
 20
136.25399999999999
 30
0.0
 11
109.782
 21
136.25399999999999
 31
0.0
  0
LINE
  5
98
  8
0
 62
     7
 10
44.781999999999996
 20
107.92100000000001
 30
0.0
 11
109.782
 21
107.92100000000001
 31
0.0
  0
LINE
  5
99
  8
0
 62
     7
 10
43.948700000000002
 20
135.42099999999999
 30
0.0
 11
43.948700000000002
 21
108.754
 31
0.0
  0
ARC
  5
9A
  8
0
 62
     7
 10
44.782046000000001
 20
108.75408400000001
 30
0.0
 40
0.8333739999999998
 50
179.99996999999999
 51
270.00002000000001
  0
LINE
  5
9B
  8
0
 62
     7
 10
110.616
 20
135.42099999999999
 30
0.0
 11
110.616
 21
108.754
 31
0.0
  0
ARC
  5
9C
  8
0
 62
     7
 10
109.78245099999999
 20
108.75408400000001
 30
0.0
 40
0.8333739999999998
 50
270.00002000000001
 51
359.99999000000003
  0
ARC
  5
9D
  8
0
 62
     7
 10
109.750423
 20
135.38898499999999
 30
0.0
 40
0.8659819999999999
 50
2.0967829999999998
 51
87.903206999999995
  0
ARC
  5
9E
  8
0
 62
     7
 10
44.813743999999993
 20
135.389329
 30
0.0
 40
0.8656390000000001
 50
92.098517000000015
 51
177.92513400000001
  0
LINE
  5
9F
  8
0
  6
AIGENLINE002
 62
     7
 10
76.532200000000003
 20
116.254
 30
0.0
 11
88.265299999999996
 21
117.759
 31
0.0
  0
LINE
  5
A0
  8
0
  6
AIGENLINE002
 62
     7
 10
91.933999999999997
 20
135.53399999999999
 30
0.0
 11
89.704700000000003
 21
119.187
 31
0.0
  0
ARC
  5
A1
  8
0
  6
AIGENLINE002
 62
     7
 10
88.010306
 20
119.455009
 30
0.0
 40
1.7154769999999999
 50
278.54773699999998
 51
350.997929
  0
ARC
  5
A2
  8
0
  6
AIGENLINE002
 62
     7
 10
92.783742000000004
 20
135.39348100000001
 30
0.0
 40
0.86124
 50
91.594130000000007
 51
170.63199599999999
  0
LINE
  5
A3
  8
0
  6
AIGENLINE002
 62
     7
 10
64.031999999999996
 20
116.254
 30
0.0
 11
52.29890000000001
 21
117.759
 31
0.0
  0
LINE
  5
A4
  8
0
  6
AIGENLINE002
 62
     7
 10
48.630200000000002
 20
135.53399999999999
 30
0.0
 11
50.8596
 21
119.187
 31
0.0
  0
ARC
  5
A5
  8
0
  6
AIGENLINE002
 62
     7
 10
52.553924000000002
 20
119.455009
 30
0.0
 40
1.7154769999999999
 50
189.00209099999989
 51
261.45228300000002
  0
ARC
  5
A6
  8
0
  6
AIGENLINE002
 62
     7
 10
47.780054
 20
135.39298400000001
 30
0.0
 40
0.861749
 50
9.39588
 51
88.377955
  0
LINE
  5
A7
  8
0
  6
AIGENLINE002
 62
     7
 10
76.532200000000003
 20
116.254
 30
0.0
 11
64.031999999999996
 21
116.254
 31
0.0
  0
LINE
  5
A8
  8
0
  6
AIGENLINE002
 62
     7
 10
66.5321
 20
113.754
 30
0.0
 11
64.031999999999996
 21
116.254
 31
0.0
  0
LINE
  5
A9
  8
0
  6
AIGENLINE002
 62
     7
 10
76.532200000000003
 20
116.254
 30
0.0
 11
74.0321
 21
113.754
 31
0.0
  0
LINE
  5
AA
  8
0
  6
AIGENLINE002
 62
     7
 10
74.0321
 20
107.92100000000001
 30
0.0
 11
74.0321
 21
113.754
 31
0.0
  0
LINE
  5
AB
  8
0
  6
AIGENLINE002
 62
     7
 10
66.5321
 20
107.92100000000001
 30
0.0
 11
66.5321
 21
113.754
 31
0.0
  0
LINE
  5
AC
  8
0
  6
AIGENLINE002
 62
     7
 10
74.0321
 20
113.754
 30
0.0
 11
66.5321
 21
113.754
 31
0.0
  0
LINE
  5
AD
  8
0
  6
AIGENLINE001
 62
     7
 10
70.2821
 20
119.511
 30
0.0
 11
70.2821
 21
104.8
 31
0.0
  0
LINE
  5
AE
  8
0
 62
     7
 10
36.658799999999999
 20
115.13200000000001
 30
0.0
 11
37.251399999999997
 21
112.92100000000001
 31
0.0
  0
LINE
  5
AF
  8
0
 62
     7
 10
37.251399999999997
 20
112.92100000000001
 30
0.0
 11
37.843899999999998
 21
115.13200000000001
 31
0.0
  0
LINE
  5
B0
  8
0
 62
     7
 10
37.843899999999998
 20
115.13200000000001
 30
0.0
 11
36.658799999999999
 21
115.13200000000001
 31
0.0
  0
LINE
  5
B1
  8
0
 62
     7
 10
37.829500000000003
 20
134.04300000000001
 30
0.0
 11
37.236899999999999
 21
136.25399999999999
 31
0.0
  0
LINE
  5
B2
  8
0
 62
     7
 10
37.236899999999999
 20
136.25399999999999
 30
0.0
 11
36.644300000000001
 21
134.04300000000001
 31
0.0
  0
LINE
  5
B3
  8
0
 62
     7
 10
36.644300000000001
 20
134.04300000000001
 30
0.0
 11
37.829500000000003
 21
134.04300000000001
 31
0.0
  0
LINE
  5
B4
  8
0
 62
     7
 10
37.236899999999999
 20
112.92100000000001
 30
0.0
 11
37.236899999999999
 21
136.25399999999999
 31
0.0
  0
LINE
  5
B5
  8
0
 62
     7
 10
43.519199999999991
 20
136.25399999999999
 30
0.0
 11
36.536799999999999
 21
136.25399999999999
 31
0.0
  0
LINE
  5
B6
  8
0
 62
     7
 10
53.632199999999997
 20
112.92100000000001
 30
0.0
 11
36.536799999999999
 21
112.92100000000001
 31
0.0
  0
LINE
  5
B7
  8
0
 62
     7
 10
29.0975
 20
199.67400000000001
 30
0.0
 11
29.690000000000001
 21
197.46199999999999
 31
0.0
  0
LINE
  5
B8
  8
0
 62
     7
 10
29.690000000000001
 20
197.46199999999999
 30
0.0
 11
30.282599999999999
 21
199.67400000000001
 31
0.0
  0
LINE
  5
B9
  8
0
 62
     7
 10
30.282599999999999
 20
199.67400000000001
 30
0.0
 11
29.0975
 21
199.67400000000001
 31
0.0
  0
LINE
  5
BA
  8
0
 62
     7
 10
30.2681
 20
228.584
 30
0.0
 11
29.675599999999999
 21
230.79599999999999
 31
0.0
  0
LINE
  5
BB
  8
0
 62
     7
 10
29.675599999999999
 20
230.79599999999999
 30
0.0
 11
29.082999999999998
 21
228.584
 31
0.0
  0
LINE
  5
BC
  8
0
 62
     7
 10
29.082999999999998
 20
228.584
 30
0.0
 11
30.2681
 21
228.584
 31
0.0
  0
LINE
  5
BD
  8
0
 62
     7
 10
29.675599999999999
 20
197.46199999999999
 30
0.0
 11
29.675599999999999
 21
230.79599999999999
 31
0.0
  0
LINE
  5
BE
  8
0
 62
     7
 10
43.248600000000003
 20
230.79599999999999
 30
0.0
 11
28.9755
 21
230.79599999999999
 31
0.0
  0
LINE
  5
BF
  8
0
 62
     7
 10
36.452399999999997
 20
204.25700000000001
 30
0.0
 11
37.045000000000002
 21
202.04599999999999
 31
0.0
  0
LINE
  5
C0
  8
0
 62
     7
 10
37.045000000000002
 20
202.04599999999999
 30
0.0
 11
37.637599999999999
 21
204.25700000000001
 31
0.0
  0
LINE
  5
C1
  8
0
 62
     7
 10
37.637599999999999
 20
204.25700000000001
 30
0.0
 11
36.452399999999997
 21
204.25700000000001
 31
0.0
  0
LINE
  5
C2
  8
0
 62
     7
 10
36.452399999999997
 20
233.00800000000001
 30
0.0
 11
37.045000000000002
 21
230.79599999999999
 31
0.0
  0
LINE
  5
C3
  8
0
 62
     7
 10
37.045000000000002
 20
230.79599999999999
 30
0.0
 11
37.637599999999999
 21
233.00800000000001
 31
0.0
  0
LINE
  5
C4
  8
0
 62
     7
 10
37.637599999999999
 20
233.00800000000001
 30
0.0
 11
36.452399999999997
 21
233.00800000000001
 31
0.0
  0
LINE
  5
C5
  8
0
 62
     7
 10
37.637599999999999
 20
195.251
 30
0.0
 11
37.045000000000002
 21
197.46199999999999
 31
0.0
  0
LINE
  5
C6
  8
0
 62
     7
 10
37.045000000000002
 20
197.46199999999999
 30
0.0
 11
36.452399999999997
 21
195.251
 31
0.0
  0
LINE
  5
C7
  8
0
 62
     7
 10
36.452399999999997
 20
195.251
 30
0.0
 11
37.637599999999999
 21
195.251
 31
0.0
  0
LINE
  5
C8
  8
0
 62
     7
 10
37.637599999999999
 20
224.001
 30
0.0
 11
37.045000000000002
 21
226.21299999999999
 31
0.0
  0
LINE
  5
C9
  8
0
 62
     7
 10
37.045000000000002
 20
226.21299999999999
 30
0.0
 11
36.452399999999997
 21
224.001
 31
0.0
  0
LINE
  5
CA
  8
0
 62
     7
 10
36.452399999999997
 20
224.001
 30
0.0
 11
37.637599999999999
 21
224.001
 31
0.0
  0
LINE
  5
CB
  8
0
 62
     7
 10
37.045000000000002
 20
189.458
 30
0.0
 11
37.045000000000002
 21
239.03899999999999
 31
0.0
  0
LINE
  5
CC
  8
0
 62
     7
 10
43.248600000000003
 20
197.46199999999999
 30
0.0
 11
28.9755
 21
197.46199999999999
 31
0.0
  0
LINE
  5
CD
  8
0
 62
     7
 10
48.320199999999993
 20
202.04599999999999
 30
0.0
 11
36.344999999999999
 21
202.04599999999999
 31
0.0
  0
LINE
  5
CE
  8
0
 62
     7
 10
48.320199999999993
 20
226.21299999999999
 30
0.0
 11
36.345300000000002
 21
226.21299999999999
 31
0.0
  0
LINE
  5
CF
  8
0
 62
     7
 10
100.282
 20
143.63999999999999
 30
0.0
 11
100.282
 21
130.47
 31
0.0
  0
LINE
  5
D0
  8
0
 62
     7
 10
98.070400000000006
 20
142.36199999999999
 30
0.0
 11
100.282
 21
142.95400000000001
 31
0.0
  0
LINE
  5
D1
  8
0
 62
     7
 10
100.282
 20
142.95400000000001
 30
0.0
 11
98.070400000000006
 21
143.547
 31
0.0
  0
LINE
  5
D2
  8
0
 62
     7
 10
98.070400000000006
 20
143.547
 30
0.0
 11
98.070400000000006
 21
142.36199999999999
 31
0.0
  0
LINE
  5
D3
  8
0
 62
     7
 10
72.493499999999983
 20
143.53299999999999
 30
0.0
 11
70.2821
 21
142.94
 31
0.0
  0
LINE
  5
D4
  8
0
 62
     7
 10
70.2821
 20
142.94
 30
0.0
 11
72.493499999999983
 21
142.34700000000001
 31
0.0
  0
LINE
  5
D5
  8
0
 62
     7
 10
72.493499999999983
 20
142.34700000000001
 30
0.0
 11
72.493499999999983
 21
143.53299999999999
 31
0.0
  0
LINE
  5
D6
  8
0
 62
     7
 10
100.282
 20
142.94
 30
0.0
 11
70.2821
 21
142.94
 31
0.0
  0
LINE
  5
D7
  8
0
 62
     7
 10
181.511
 20
203.536
 30
0.0
 11
181.511
 21
190.107
 31
0.0
  0
LINE
  5
D8
  8
0
 62
     7
 10
143.1329999999999
 20
196.01599999999999
 30
0.0
 11
145.34399999999999
 21
196.608
 31
0.0
  0
LINE
  5
D9
  8
0
 62
     7
 10
145.34399999999999
 20
196.608
 30
0.0
 11
143.1329999999999
 21
197.20099999999999
 31
0.0
  0
LINE
  5
DA
  8
0
 62
     7
 10
143.1329999999999
 20
197.20099999999999
 30
0.0
 11
143.1329999999999
 21
196.01599999999999
 31
0.0
  0
LINE
  5
DB
  8
0
 62
     7
 10
179.29900000000001
 20
196.03
 30
0.0
 11
181.511
 21
196.62299999999999
 31
0.0
  0
LINE
  5
DC
  8
0
 62
     7
 10
181.511
 20
196.62299999999999
 30
0.0
 11
179.29900000000001
 21
197.215
 31
0.0
  0
LINE
  5
DD
  8
0
 62
     7
 10
179.29900000000001
 20
197.215
 30
0.0
 11
179.29900000000001
 21
196.03
 31
0.0
  0
LINE
  5
DE
  8
0
 62
     7
 10
147.55600000000001
 20
197.20099999999999
 30
0.0
 11
145.34399999999999
 21
196.608
 31
0.0
  0
LINE
  5
DF
  8
0
 62
     7
 10
145.34399999999999
 20
196.608
 30
0.0
 11
147.55600000000001
 21
196.01599999999999
 31
0.0
  0
LINE
  5
E0
  8
0
 62
     7
 10
147.55600000000001
 20
196.01599999999999
 30
0.0
 11
147.55600000000001
 21
197.20099999999999
 31
0.0
  0
LINE
  5
E1
  8
0
 62
     7
 10
125.389
 20
197.20099999999999
 30
0.0
 11
123.17700000000001
 21
196.608
 31
0.0
  0
LINE
  5
E2
  8
0
 62
     7
 10
123.17700000000001
 20
196.608
 30
0.0
 11
125.389
 21
196.01599999999999
 31
0.0
  0
LINE
  5
E3
  8
0
 62
     7
 10
125.389
 20
196.01599999999999
 30
0.0
 11
125.389
 21
197.20099999999999
 31
0.0
  0
LINE
  5
E4
  8
0
 62
     7
 10
181.511
 20
196.608
 30
0.0
 11
123.17700000000001
 21
196.608
 31
0.0
  0
LINE
  5
E5
  8
0
 62
     7
 10
179.29900000000001
 20
190.215
 30
0.0
 11
181.511
 21
190.80699999999999
 31
0.0
  0
LINE
  5
E6
  8
0
 62
     7
 10
181.511
 20
190.80699999999999
 30
0.0
 11
179.29900000000001
 21
191.40000000000001
 31
0.0
  0
LINE
  5
E7
  8
0
 62
     7
 10
179.29900000000001
 20
191.40000000000001
 30
0.0
 11
179.29900000000001
 21
190.215
 31
0.0
  0
LINE
  5
E8
  8
0
 62
     7
 10
125.389
 20
191.38499999999999
 30
0.0
 11
123.17700000000001
 21
190.79300000000001
 31
0.0
  0
LINE
  5
E9
  8
0
 62
     7
 10
123.17700000000001
 20
190.79300000000001
 30
0.0
 11
125.389
 21
190.19999999999999
 31
0.0
  0
LINE
  5
EA
  8
0
 62
     7
 10
125.389
 20
190.19999999999999
 30
0.0
 11
125.389
 21
191.38499999999999
 31
0.0
  0
LINE
  5
EB
  8
0
 62
     7
 10
181.511
 20
190.79300000000001
 30
0.0
 11
123.17700000000001
 21
190.79300000000001
 31
0.0
  0
LINE
  5
EC
  8
0
 62
     7
 10
145.34399999999999
 20
195.90799999999999
 30
0.0
 11
145.34399999999999
 21
207.429
 31
0.0
  0
LINE
  5
ED
  8
0
 62
     7
 10
123.17700000000001
 20
190.28399999999999
 30
0.0
 11
123.17700000000001
 21
203.536
 31
0.0
  0
LINE
  5
EE
  8
0
 62
     7
 10
70.2821
 20
143.63999999999999
 30
0.0
 11
70.2821
 21
120.357
 31
0.0
  0
LINE
  5
EF
  8
0
 62
     7
 10
68.070300000000003
 20
142.36199999999999
 30
0.0
 11
70.2821
 21
142.95400000000001
 31
0.0
  0
LINE
  5
F0
  8
0
 62
     7
 10
70.2821
 20
142.95400000000001
 30
0.0
 11
68.070300000000003
 21
143.547
 31
0.0
  0
LINE
  5
F1
  8
0
 62
     7
 10
68.070300000000003
 20
143.547
 30
0.0
 11
68.070300000000003
 21
142.36199999999999
 31
0.0
  0
LINE
  5
F2
  8
0
 62
     7
 10
59.160200000000003
 20
143.53299999999999
 30
0.0
 11
56.948599999999999
 21
142.94
 31
0.0
  0
LINE
  5
F3
  8
0
 62
     7
 10
56.948599999999999
 20
142.94
 30
0.0
 11
59.160200000000003
 21
142.34700000000001
 31
0.0
  0
LINE
  5
F4
  8
0
 62
     7
 10
59.160200000000003
 20
142.34700000000001
 30
0.0
 11
59.160200000000003
 21
143.53299999999999
 31
0.0
  0
LINE
  5
F5
  8
0
 62
     7
 10
70.2821
 20
142.94
 30
0.0
 11
56.948599999999999
 21
142.94
 31
0.0
  0
LINE
  5
F6
  8
0
 62
     7
 10
56.948599999999999
 20
115.91800000000001
 30
0.0
 11
56.948599999999999
 21
143.63999999999999
 31
0.0
  0
LINE
  5
F7
  8
0
 62
     7
 10
110.616
 20
238.875
 30
0.0
 11
110.616
 21
231.49600000000001
 31
0.0
  0
LINE
  5
F8
  8
0
 62
     7
 10
68.070300000000003
 20
237.583
 30
0.0
 11
70.2821
 21
238.17500000000001
 31
0.0
  0
LINE
  5
F9
  8
0
 62
     7
 10
70.2821
 20
238.17500000000001
 30
0.0
 11
68.070300000000003
 21
238.768
 31
0.0
  0
LINE
  5
FA
  8
0
 62
     7
 10
68.070300000000003
 20
238.768
 30
0.0
 11
68.070300000000003
 21
237.583
 31
0.0
  0
LINE
  5
FB
  8
0
 62
     7
 10
108.404
 20
237.59700000000001
 30
0.0
 11
110.616
 21
238.19
 31
0.0
  0
LINE
  5
FC
  8
0
 62
     7
 10
110.616
 20
238.19
 30
0.0
 11
108.404
 21
238.78200000000001
 31
0.0
  0
LINE
  5
FD
  8
0
 62
     7
 10
108.404
 20
238.78200000000001
 30
0.0
 11
108.404
 21
237.59700000000001
 31
0.0
  0
LINE
  5
FE
  8
0
 62
     7
 10
46.160299999999999
 20
238.768
 30
0.0
 11
43.948700000000002
 21
238.17500000000001
 31
0.0
  0
LINE
  5
FF
  8
0
 62
     7
 10
43.948700000000002
 20
238.17500000000001
 30
0.0
 11
46.160299999999999
 21
237.583
 31
0.0
  0
LINE
  5
100
  8
0
 62
     7
 10
46.160299999999999
 20
237.583
 30
0.0
 11
46.160299999999999
 21
238.768
 31
0.0
  0
LINE
  5
101
  8
0
 62
     7
 10
72.493700000000004
 20
238.768
 30
0.0
 11
70.2821
 21
238.17500000000001
 31
0.0
  0
LINE
  5
102
  8
0
 62
     7
 10
70.2821
 20
238.17500000000001
 30
0.0
 11
72.493700000000004
 21
237.583
 31
0.0
  0
LINE
  5
103
  8
0
 62
     7
 10
72.493700000000004
 20
237.583
 30
0.0
 11
72.493700000000004
 21
238.768
 31
0.0
  0
LINE
  5
104
  8
0
 62
     7
 10
110.616
 20
238.17500000000001
 30
0.0
 11
43.948700000000002
 21
238.17500000000001
 31
0.0
  0
LINE
  5
105
  8
0
 62
     7
 10
43.948700000000002
 20
231.70400000000001
 30
0.0
 11
43.948700000000002
 21
238.875
 31
0.0
  0
LINE
  5
106
  8
0
 62
     7
 10
70.2821
 20
223.22499999999999
 30
0.0
 11
70.2821
 21
238.875
 31
0.0
  0
LINE
  5
107
  8
0
 62
     7
 10
63.9758
 20
220.435
 30
0.0
 11
58.091099999999997
 21
220.435
 31
0.0
  0
LINE
  5
108
  8
0
 62
     7
 10
74.975399999999993
 20
210.274
 30
0.0
 11
72.992699999999985
 21
211.41900000000001
 31
0.0
  0
LINE
  5
109
  8
0
 62
     7
 10
72.992699999999985
 20
211.41900000000001
 30
0.0
 11
74.1374
 21
209.43600000000001
 31
0.0
  0
LINE
  5
10A
  8
0
 62
     7
 10
74.1374
 20
209.43600000000001
 30
0.0
 11
74.975399999999993
 21
210.274
 31
0.0
  0
LINE
  5
10B
  8
0
 62
     7
 10
65.588999999999999
 20
217.98500000000001
 30
0.0
 11
67.571700000000007
 21
216.84
 31
0.0
  0
LINE
  5
10C
  8
0
 62
     7
 10
67.571700000000007
 20
216.84
 30
0.0
 11
66.426999999999992
 21
218.82300000000001
 31
0.0
  0
LINE
  5
10D
  8
0
 62
     7
 10
66.426999999999992
 20
218.82300000000001
 30
0.0
 11
65.588999999999999
 21
217.98500000000001
 31
0.0
  0
LINE
  5
10E
  8
0
 62
     7
 10
63.9758
 20
220.435
 30
0.0
 11
76.799199999999999
 21
207.61199999999999
 31
0.0
  0
LINE
  5
10F
  8
0
 62
     7
 10
94.067899999999995
 20
220.84399999999999
 30
0.0
 11
100.08799999999999
 21
220.84399999999999
 31
0.0
  0
LINE
  5
110
  8
0
 62
     7
 10
104.76900000000001
 20
210.98099999999999
 30
0.0
 11
102.786
 21
212.126
 31
0.0
  0
LINE
  5
111
  8
0
 62
     7
 10
102.786
 20
212.126
 30
0.0
 11
103.931
 21
210.143
 31
0.0
  0
LINE
  5
112
  8
0
 62
     7
 10
103.931
 20
210.143
 30
0.0
 11
104.76900000000001
 21
210.98099999999999
 31
0.0
  0
LINE
  5
113
  8
0
 62
     7
 10
96.737499999999997
 20
217.33600000000001
 30
0.0
 11
98.720200000000006
 21
216.191
 31
0.0
  0
LINE
  5
114
  8
0
 62
     7
 10
98.720200000000006
 20
216.191
 30
0.0
 11
97.575700000000012
 21
218.17400000000001
 31
0.0
  0
LINE
  5
115
  8
0
 62
     7
 10
97.575700000000012
 20
218.17400000000001
 30
0.0
 11
96.737499999999997
 21
217.33600000000001
 31
0.0
  0
LINE
  5
116
  8
0
 62
     7
 10
94.067899999999995
 20
220.84399999999999
 30
0.0
 11
105.491
 21
209.42099999999999
 31
0.0
  0
LINE
  5
117
  8
0
 62
     7
 10
116.752
 20
230.79599999999999
 30
0.0
 11
111.316
 21
230.79599999999999
 31
0.0
  0
LINE
  5
118
  8
0
 62
     7
 10
124.81
 20
206.59999999999999
 30
0.0
 11
123.66500000000001
 21
204.61699999999999
 31
0.0
  0
LINE
  5
119
  8
0
 62
     7
 10
123.66500000000001
 20
204.61699999999999
 30
0.0
 11
125.648
 21
205.762
 31
0.0
  0
LINE
  5
11A
  8
0
 62
     7
 10
125.648
 20
205.762
 30
0.0
 11
124.81
 21
206.59999999999999
 31
0.0
  0
LINE
  5
11B
  8
0
 62
     7
 10
123.655
 20
204.62799999999999
 30
0.0
 11
127.88800000000001
 21
208.86099999999999
 31
0.0
  0
LINE
  5
11C
  8
0
 62
     7
 10
149.12899999999999
 20
218.773
 30
0.0
 11
147.98500000000001
 21
216.791
 31
0.0
  0
LINE
  5
11D
  8
0
 62
     7
 10
147.98500000000001
 20
216.791
 30
0.0
 11
149.96799999999999
 21
217.93600000000001
 31
0.0
  0
LINE
  5
11E
  8
0
 62
     7
 10
149.96799999999999
 20
217.93600000000001
 30
0.0
 11
149.12899999999999
 21
218.773
 31
0.0
  0
LINE
  5
11F
  8
0
 62
     7
 10
147.97499999999999
 20
216.80099999999999
 30
0.0
 11
152.20699999999999
 21
221.03399999999999
 31
0.0
  0
LINE
  5
120
  8
0
 62
     7
 10
115.474
 20
216.34100000000001
 30
0.0
 11
116.06699999999999
 21
214.12899999999999
 31
0.0
  0
LINE
  5
121
  8
0
 62
     7
 10
116.06699999999999
 20
214.12899999999999
 30
0.0
 11
116.65900000000001
 21
216.34100000000001
 31
0.0
  0
LINE
  5
122
  8
0
 62
     7
 10
116.65900000000001
 20
216.34100000000001
 30
0.0
 11
115.474
 21
216.34100000000001
 31
0.0
  0
LINE
  5
123
  8
0
 62
     7
 10
116.645
 20
228.584
 30
0.0
 11
116.05200000000001
 21
230.79599999999999
 31
0.0
  0
LINE
  5
124
  8
0
 62
     7
 10
116.05200000000001
 20
230.79599999999999
 30
0.0
 11
115.45999999999999
 21
228.584
 31
0.0
  0
LINE
  5
125
  8
0
 62
     7
 10
115.45999999999999
 20
228.584
 30
0.0
 11
116.645
 21
228.584
 31
0.0
  0
LINE
  5
126
  8
0
 62
     7
 10
116.05200000000001
 20
214.12899999999999
 30
0.0
 11
116.05200000000001
 21
230.79599999999999
 31
0.0
  0
LINE
  5
127
  8
0
 62
     7
 10
116.752
 20
214.12899999999999
 30
0.0
 11
106.248
 21
214.12899999999999
 31
0.0
  0
LINE
  5
128
  8
0
 62
     7
 10
110.616
 20
174.66900000000001
 30
0.0
 11
110.616
 21
197.25099999999989
 31
0.0
  0
LINE
  5
129
  8
0
 62
     7
 10
43.948700000000002
 20
174.66900000000001
 30
0.0
 11
43.948700000000002
 21
197.25099999999989
 31
0.0
  0
LINE
  5
12A
  8
0
 62
     7
 10
48.5321
 20
182.762
 30
0.0
 11
48.5321
 21
201.834
 31
0.0
  0
LINE
  5
12B
  8
0
 62
     7
 10
41.737099999999991
 20
182.87
 30
0.0
 11
43.948700000000002
 21
183.46299999999999
 31
0.0
  0
LINE
  5
12C
  8
0
 62
     7
 10
43.948700000000002
 20
183.46299999999999
 30
0.0
 11
41.737099999999991
 21
184.05500000000001
 31
0.0
  0
LINE
  5
12D
  8
0
 62
     7
 10
41.737099999999991
 20
184.05500000000001
 30
0.0
 11
41.737099999999991
 21
182.87
 31
0.0
  0
LINE
  5
12E
  8
0
 62
     7
 10
98.570700000000002
 20
189.83099999999999
 30
0.0
 11
100.782
 21
190.42400000000001
 31
0.0
  0
LINE
  5
12F
  8
0
 62
     7
 10
100.782
 20
190.42400000000001
 30
0.0
 11
98.570700000000002
 21
191.017
 31
0.0
  0
LINE
  5
130
  8
0
 62
     7
 10
98.570700000000002
 20
191.017
 30
0.0
 11
98.570700000000002
 21
189.83099999999999
 31
0.0
  0
LINE
  5
131
  8
0
 62
     7
 10
94.076899999999995
 20
191.00200000000001
 30
0.0
 11
91.865399999999994
 21
190.41
 31
0.0
  0
LINE
  5
132
  8
0
 62
     7
 10
91.865399999999994
 20
190.41
 30
0.0
 11
94.076899999999995
 21
189.81700000000001
 31
0.0
  0
LINE
  5
133
  8
0
 62
     7
 10
94.076899999999995
 20
189.81700000000001
 30
0.0
 11
94.076899999999995
 21
191.00200000000001
 31
0.0
  0
LINE
  5
134
  8
0
 62
     7
 10
100.782
 20
190.41
 30
0.0
 11
91.865399999999994
 21
190.41
 31
0.0
  0
LINE
  5
135
  8
0
 62
     7
 10
108.404
 20
189.83099999999999
 30
0.0
 11
110.616
 21
190.42400000000001
 31
0.0
  0
LINE
  5
136
  8
0
 62
     7
 10
110.616
 20
190.42400000000001
 30
0.0
 11
108.404
 21
191.017
 31
0.0
  0
LINE
  5
137
  8
0
 62
     7
 10
108.404
 20
191.017
 30
0.0
 11
108.404
 21
189.83099999999999
 31
0.0
  0
LINE
  5
138
  8
0
 62
     7
 10
94.077000000000012
 20
184.05500000000001
 30
0.0
 11
91.865399999999994
 21
183.46299999999999
 31
0.0
  0
LINE
  5
139
  8
0
 62
     7
 10
91.865399999999994
 20
183.46299999999999
 30
0.0
 11
94.077000000000012
 21
182.87
 31
0.0
  0
LINE
  5
13A
  8
0
 62
     7
 10
94.077000000000012
 20
182.87
 30
0.0
 11
94.077000000000012
 21
184.05500000000001
 31
0.0
  0
LINE
  5
13B
  8
0
 62
     7
 10
102.994
 20
191.00200000000001
 30
0.0
 11
100.782
 21
190.41
 31
0.0
  0
LINE
  5
13C
  8
0
 62
     7
 10
100.782
 20
190.41
 30
0.0
 11
102.994
 21
189.81700000000001
 31
0.0
  0
LINE
  5
13D
  8
0
 62
     7
 10
102.994
 20
189.81700000000001
 30
0.0
 11
102.994
 21
191.00200000000001
 31
0.0
  0
LINE
  5
13E
  8
0
 62
     7
 10
110.616
 20
190.41
 30
0.0
 11
100.782
 21
190.41
 31
0.0
  0
LINE
  5
13F
  8
0
 62
     7
 10
100.782
 20
189.71000000000001
 30
0.0
 11
100.782
 21
208.83799999999999
 31
0.0
  0
LINE
  5
140
  8
0
  6
AIGENLINE001
 62
     7
 10
95.855599999999995
 20
214.12899999999999
 30
0.0
 11
105.63200000000001
 21
214.12899999999999
 31
0.0
  0
LINE
  5
141
  8
0
  6
AIGENLINE001
 62
     7
 10
100.782
 20
140.61600000000001
 30
0.0
 11
100.782
 21
130.98599999999999
 31
0.0
  0
LINE
  5
142
  8
0
  6
AIGENLINE001
 62
     7
 10
100.782
 20
219.16900000000001
 30
0.0
 11
100.782
 21
209.53800000000001
 31
0.0
  0
ARC
  5
143
  8
0
 62
     7
 10
100.78251299999999
 20
214.12911
 30
0.0
 40
2.9165509999999988
 50
0.001702
 51
90.001671999999985
  0
ARC
  5
144
  8
0
 62
     7
 10
100.782341
 20
214.12911
 30
0.0
 40
2.9165509999999988
 50
89.998307999999994
 51
179.998278
  0
ARC
  5
145
  8
0
 62
     7
 10
100.78251299999999
 20
214.12911
 30
0.0
 40
2.916722
 50
179.998278
 51
269.99832800000001
  0
ARC
  5
146
  8
0
 62
     7
 10
100.78234
 20
214.12911099999999
 30
0.0
 40
2.9167230000000002
 50
270.001712
 51
0.001682
  0
LINE
  5
147
  8
0
  6
AIGENLINE001
 62
     7
 10
70.2821
 20
222.52500000000001
 30
0.0
 11
70.2821
 21
205.453
 31
0.0
  0
ARC
  5
148
  8
0
  6
AIGENLINE002
 62
     7
 10
145.34432899999999
 20
214.12919600000001
 30
0.0
 40
3.7500110000000002
 50
0.00001
 51
89.999980000000008
  0
ARC
  5
149
  8
0
  6
AIGENLINE002
 62
     7
 10
145.34433000000001
 20
214.12919600000001
 30
0.0
 40
3.7500110000000002
 50
90.0
 51
179.99996999999999
  0
ARC
  5
14A
  8
0
  6
AIGENLINE002
 62
     7
 10
145.34432899999999
 20
214.12919600000001
 30
0.0
 40
3.750008999999999
 50
179.99996999999999
 51
270.00002000000001
  0
ARC
  5
14B
  8
0
  6
AIGENLINE002
 62
     7
 10
145.34432899999999
 20
214.12919700000009
 30
0.0
 40
3.7500110000000002
 50
270.00002000000001
 51
359.99999000000003
  0
ARC
  5
14C
  8
0
 62
     7
 10
70.282114000000007
 20
214.12919600000001
 30
0.0
 40
3.8333829999999991
 50
0.00001
 51
89.999980000000008
  0
ARC
  5
14D
  8
0
 62
     7
 10
70.282115000000005
 20
214.12919600000001
 30
0.0
 40
3.8333829999999991
 50
90.0
 51
179.99996999999999
  0
ARC
  5
14E
  8
0
 62
     7
 10
70.282114000000007
 20
214.12919600000001
 30
0.0
 40
3.8333809999999988
 50
179.99996999999999
 51
270.00002000000001
  0
ARC
  5
14F
  8
0
 62
     7
 10
70.282114000000007
 20
214.12919700000009
 30
0.0
 40
3.8333829999999991
 50
270.00002000000001
 51
359.99999000000003
  0
ARC
  5
150
  8
0
 62
     7
 10
70.282285999999999
 20
214.12902299999999
 30
0.0
 40
6.249960999999999
 50
0.001589
 51
90.001559000000015
  0
ARC
  5
151
  8
0
 62
     7
 10
70.282116000000002
 20
214.12919500000001
 30
0.0
 40
6.2497879999999988
 50
90.0
 51
179.99996999999999
  0
ARC
  5
152
  8
0
 62
     7
 10
70.282285999999999
 20
214.12902299999999
 30
0.0
 40
6.2499580000000003
 50
179.998391
 51
269.99844100000001
  0
ARC
  5
153
  8
0
 62
     7
 10
70.282114000000007
 20
214.129198
 30
0.0
 40
6.2501329999999991
 50
270.00002000000001
 51
359.99999000000003
  0
LINE
  5
154
  8
0
  6
AIGENLINE001
 62
     7
 10
61.752299999999991
 20
214.12899999999999
 30
0.0
 11
78.532499999999999
 21
214.12899999999999
 31
0.0
  0
LINE
  5
155
  8
0
 62
     7
 10
50.198799999999999
 20
202.04599999999999
 30
0.0
 11
90.198999999999984
 21
202.04599999999999
 31
0.0
  0
LINE
  5
156
  8
0
 62
     7
 10
48.5321
 20
224.54599999999999
 30
0.0
 11
48.5321
 21
203.71199999999999
 31
0.0
  0
ARC
  5
157
  8
0
 62
     7
 10
50.198630999999999
 20
203.712367
 30
0.0
 40
1.666574999999999
 50
180.005932
 51
270.005942
  0
LINE
  5
158
  8
0
 62
     7
 10
91.865399999999994
 20
224.54599999999999
 30
0.0
 11
91.865399999999994
 21
203.71199999999999
 31
0.0
  0
ARC
  5
159
  8
0
 62
     7
 10
90.199198999999993
 20
203.712368
 30
0.0
 40
1.6665759999999989
 50
269.99409800000001
 51
359.99406800000003
  0
LINE
  5
15A
  8
0
 62
     7
 10
50.198799999999999
 20
226.21299999999999
 30
0.0
 11
90.198999999999984
 21
226.21299999999999
 31
0.0
  0
ARC
  5
15B
  8
0
 62
     7
 10
90.199025999999989
 20
224.54585299999999
 30
0.0
 40
1.666747999999999
 50
0.00001
 51
89.999980000000008
  0
ARC
  5
15C
  8
0
 62
     7
 10
50.198803999999988
 20
224.54585299999999
 30
0.0
 40
1.666747999999999
 50
90.0
 51
179.99996999999999
  0
LINE
  5
15D
  8
0
  6
AIGENLINE001
 62
     7
 10
145.34399999999999
 20
220.12899999999999
 30
0.0
 11
145.34399999999999
 21
208.12899999999999
 31
0.0
  0
LINE
  5
15E
  8
0
  6
AIGENLINE001
 62
     7
 10
138.905
 20
214.12899999999999
 30
0.0
 11
151.779
 21
214.12899999999999
 31
0.0
  0
LINE
  5
15F
  8
0
 62
     7
 10
181.511
 20
230.79599999999999
 30
0.0
 11
181.511
 21
205.79499999999999
 31
0.0
  0
LINE
  5
160
  8
0
  6
AIGENLINE003
 62
     7
 10
123.17700000000001
 20
230.79599999999999
 30
0.0
 11
181.511
 21
230.79599999999999
 31
0.0
  0
LINE
  5
161
  8
0
 62
     7
 10
119.462
 20
230.79599999999999
 30
0.0
 11
123.17700000000001
 21
230.79599999999999
 31
0.0
  0
LINE
  5
162
  8
0
 62
     7
 10
181.511
 20
230.79599999999999
 30
0.0
 11
185.227
 21
230.79599999999999
 31
0.0
  0
LINE
  5
163
  8
0
 62
     7
 10
124.843
 20
204.12899999999999
 30
0.0
 11
179.845
 21
204.12899999999999
 31
0.0
  0
ARC
  5
164
  8
0
 62
     7
 10
179.78179499999999
 20
205.85860299999999
 30
0.0
 40
1.730534999999999
 50
272.09683699999999
 51
357.90317299999998
  0
LINE
  5
165
  8
0
 62
     7
 10
123.17700000000001
 20
230.79599999999999
 30
0.0
 11
123.17700000000001
 21
205.79599999999999
 31
0.0
  0
ARC
  5
166
  8
0
 62
     7
 10
124.908259
 20
205.86004800000001
 30
0.0
 40
1.7320329999999999
 50
182.12003999999999
 51
267.85629899999998
  0
LINE
  5
167
  8
0
 62
     7
 10
110.616
 20
230.79599999999999
 30
0.0
 11
110.616
 21
198.29499999999999
 31
0.0
  0
LINE
  5
168
  8
0
 62
     7
 10
44.781999999999996
 20
197.46199999999999
 30
0.0
 11
109.783
 21
197.46199999999999
 31
0.0
  0
ARC
  5
169
  8
0
 62
     7
 10
109.751132
 20
198.327101
 30
0.0
 40
0.865273
 50
272.097148
 51
357.90286200000003
  0
LINE
  5
16A
  8
0
  6
AIGENLINE001
 62
     7
 10
100.283
 20
233.38300000000001
 30
0.0
 11
100.283
 21
228.072
 31
0.0
  0
LINE
  5
16B
  8
0
  6
AIGENLINE001
 62
     7
 10
56.948799999999999
 20
233.38300000000001
 30
0.0
 11
56.948799999999999
 21
228.072
 31
0.0
  0
LINE
  5
16C
  8
0
 62
     7
 10
43.948700000000002
 20
230.79599999999999
 30
0.0
 11
43.948700000000002
 21
198.29599999999999
 31
0.0
  0
ARC
  5
16D
  8
0
 62
     7
 10
44.782046000000001
 20
198.295782
 30
0.0
 40
0.8333739999999998
 50
179.99996999999999
 51
270.00002000000001
  0
LINE
  5
16E
  8
0
 62
     7
 10
43.948700000000002
 20
230.79599999999999
 30
0.0
 11
110.616
 21
230.79599999999999
 31
0.0
  0
LINE
  5
16F
  8
_________2
 62
     7
 10
210.24000000000001
 20
148.93000000000001
 30
0.0
 11
188.489
 21
148.93000000000001
 31
0.0
  0
LINE
  5
170
  8
_________2
 62
     7
 10
105.239
 20
17.4282
 30
0.0
 11
105.239
 21
0.447865
 31
0.0
  0
LINE
  5
171
  8
_________2
 62
     7
 10
105.239
 20
297.44999999999999
 30
0.0
 11
105.239
 21
280.43000000000001
 31
0.0
  0
LINE
  5
172
  8
_________2
 62
     7
 10
21.988499999999998
 20
148.93000000000001
 30
0.0
 11
0.238402
 21
148.93000000000001
 31
0.0
  0
LINE
  5
173
  8
_________2
 62
     7
 10
81.679900000000004
 20
51.323999999999998
 30
0.0
 11
79.493700000000004
 21
51.323999999999998
 31
0.0
  0
LINE
  5
174
  8
_________2
 62
     7
 10
82.172600000000017
 20
51.323999999999998
 30
0.0
 11
81.920400000000001
 21
51.323999999999998
 31
0.0
  0
LINE
  5
175
  8
_________2
 62
     7
 10
82.665199999999984
 20
51.323999999999998
 30
0.0
 11
85.590100000000007
 21
51.323999999999998
 31
0.0
  0
LINE
  5
176
  8
_________2
 62
     7
 10
82.172600000000017
 20
51.323999999999998
 30
0.0
 11
82.424400000000006
 21
51.323999999999998
 31
0.0
  0
LINE
  5
177
  8
_________2
 62
     7
 10
75.77600000000001
 20
51.323999999999998
 30
0.0
 11
73.589399999999998
 21
51.323999999999998
 31
0.0
  0
LINE
  5
178
  8
_________2
 62
     7
 10
76.2684
 20
51.323999999999998
 30
0.0
 11
76.016499999999994
 21
51.323999999999998
 31
0.0
  0
LINE
  5
179
  8
_________2
 62
     7
 10
76.2684
 20
51.816600000000001
 30
0.0
 11
76.2684
 21
54.003599999999999
 31
0.0
  0
LINE
  5
17A
  8
_________2
 62
     7
 10
76.2684
 20
51.323999999999998
 30
0.0
 11
76.2684
 21
51.5762
 31
0.0
  0
LINE
  5
17B
  8
_________2
 62
     7
 10
76.76100000000001
 20
51.323999999999998
 30
0.0
 11
78.947999999999993
 21
51.323999999999998
 31
0.0
  0
LINE
  5
17C
  8
_________2
 62
     7
 10
76.2684
 20
51.323999999999998
 30
0.0
 11
76.520499999999998
 21
51.323999999999998
 31
0.0
  0
LINE
  5
17D
  8
_________2
 62
     7
 10
76.2684
 20
50.832000000000001
 30
0.0
 11
76.2684
 21
48.645099999999999
 31
0.0
  0
LINE
  5
17E
  8
_________2
 62
     7
 10
76.2684
 20
51.323999999999998
 30
0.0
 11
76.2684
 21
51.072499999999998
 31
0.0
  0
LINE
  5
17F
  8
_________2
 62
     7
 10
79.979399999999984
 20
50.104399999999998
 30
0.0
 11
85.157399999999996
 21
49.239699999999999
 31
0.0
  0
LINE
  5
180
  8
_________2
 62
     7
 10
79.979399999999984
 20
52.543599999999998
 30
0.0
 11
85.157399999999996
 21
53.408999999999999
 31
0.0
  0
LINE
  5
181
  8
_________2
 62
     7
 10
85.157399999999996
 20
49.239699999999999
 30
0.0
 11
85.157399999999996
 21
53.408999999999999
 31
0.0
  0
LINE
  5
182
  8
_________2
 62
     7
 10
79.979399999999984
 20
50.104399999999998
 30
0.0
 11
79.979399999999984
 21
52.543599999999998
 31
0.0
  0
ARC
  5
183
  8
_________2
 62
     7
 10
76.221776000000006
 20
51.277046999999989
 30
0.0
 40
1.2673589999999999
 50
2.122214
 51
87.893958999999995
  0
ARC
  5
184
  8
_________2
 62
     7
 10
76.315273000000005
 20
51.277056000000002
 30
0.0
 40
1.267363
 50
92.121785999999986
 51
177.878185
  0
ARC
  5
185
  8
_________2
 62
     7
 10
76.315273000000005
 20
51.370902000000001
 30
0.0
 40
1.267363
 50
182.121815
 51
267.87821400000001
  0
ARC
  5
186
  8
_________2
 62
     7
 10
76.221451999999999
 20
51.371234999999999
 30
0.0
 40
1.267695999999999
 50
272.12015300000002
 51
357.863674
  0
ARC
  5
187
  8
_________2
 62
     7
 10
76.268349999999984
 20
51.323979000000001
 30
0.0
 40
2.0849849999999992
 50
0.00001
 51
89.999980000000008
  0
ARC
  5
188
  8
_________2
 62
     7
 10
76.268523000000002
 20
51.324151000000001
 30
0.0
 40
2.084813
 50
90.004733999999999
 51
180.00474399999999
  0
ARC
  5
189
  8
_________2
 62
     7
 10
76.348021000000003
 20
51.404007
 30
0.0
 40
2.1657899999999999
 50
182.117637
 51
267.891862
  0
ARC
  5
18A
  8
_________2
 62
     7
 10
76.188378999999983
 20
51.404665999999992
 30
0.0
 40
2.1664590000000001
 50
272.11546800000002
 51
357.86560400000002
  0
TEXT
  5
18B
  8
_________2
 62
     7
 10
109.544
 20
23.198699999999999
 30
0.0
 40
3.0923400000000001
  1
図番
 41
0.5
  0
LINE
  5
18C
  8
_________2
 62
     7
 10
108.489
 20
27.428000000000001
 30
0.0
 11
188.49000000000001
 21
27.428000000000001
 31
0.0
  0
TEXT
  5
18D
  8
_________2
 62
     7
 10
109.544
 20
33.19850000000001
 30
0.0
 40
3.0923400000000001
  1
品番
 41
0.5
  0
TEXT
  5
18E
  8
_________2
 62
     7
 10
109.544
 20
53.337299999999999
 30
0.0
 40
3.0923400000000001
  1
名称
 41
0.5
  0
TEXT
  5
18F
  8
_________2
 62
     7
 10
96.784058333333334
 20
48.341200000000001
 30
0.0
 40
3.6545800000000002
  1
mm
 41
0.5
 72
     1
 11
98.306799999999996
 21
48.341200000000001
 31
0.0
  0
TEXT
  5
190
  8
_________2
 62
     7
 10
90.582099999999997
 20
53.337299999999999
 30
0.0
 40
3.0923400000000001
  1
単位
 41
0.5
  0
TEXT
  5
191
  8
_________2
 62
     7
 10
90.582099999999997
 20
40.930100000000003
 30
0.0
 40
3.0923400000000001
  1
尺度
 41
0.5
  0
TEXT
  5
192
  8
_________2
 62
     7
 10
95.487658666666675
 20
34.737099999999998
 30
0.0
 40
3.6545800000000002
  1
1 ： 6
 41
0.5
 72
     1
 11
98.898600000000002
 21
34.737099999999998
 31
0.0
  0
TEXT
  5
193
  8
_________2
 62
     7
 10
142.257475
 20
30.627099999999999
 30
0.0
 40
3.9357000000000002
  1
GA6030S
 41
0.5
 72
     1
 11
148.489
 21
30.627099999999999
 31
0.0
  0
TEXT
  5
194
  8
_________2
 62
     7
 10
142.257475
 20
20.6266
 30
0.0
 40
3.9357000000000002
  1
GA6030S
 41
0.5
 72
     1
 11
148.489
 21
20.6266
 31
0.0
  0
TEXT
  5
195
  8
_________2
 62
     7
 10
29.525700000000001
 20
22.226500000000001
 30
0.0
 40
3.9357000000000002
  1
実容量：2.6L、重量：9kg、オーバーフロー付
 41
0.5
  0
TEXT
  5
196
  8
_________2
 62
     7
 10
114.117
 20
45.74499999999999
 30
0.0
 40
3.9357000000000002
  1
プラス 手洗器
 41
0.5
  0
TEXT
  5
197
  8
_________2
 62
     7
 10
44.303290666666669
 20
35.12230000000001
 30
0.0
 40
3.6545800000000002
  1
平井
 41
0.5
 72
     1
 11
46.252400000000002
 21
35.12230000000001
 31
0.0
  0
TEXT
  5
198
  8
_________2
 62
     7
 10
25.728990666666672
 20
35.12230000000001
 30
0.0
 40
3.6545800000000002
  1
石原
 41
0.5
 72
     1
 11
27.678100000000001
 21
35.12230000000001
 31
0.0
  0
TEXT
  5
199
  8
_________2
 62
     7
 10
72.724400000000003
 20
34.737099999999998
 30
0.0
 40
3.6545800000000002
  1
16.09.27
 41
0.5
  0
TEXT
  5
19A
  8
_________2
 62
     7
 10
71.531999999999996
 20
40.930100000000003
 30
0.0
 40
3.0923400000000001
  1
日付
 41
0.5
  0
TEXT
  5
19B
  8
_________2
 62
     7
 10
34.578299999999999
 20
40.930100000000003
 30
0.0
 40
3.0923400000000001
  1
検図
 41
0.5
  0
TEXT
  5
19C
  8
_________2
 62
     7
 10
22.960000000000001
 20
26.730699999999999
 30
0.0
 40
3.0923400000000001
  1
備考
 41
0.5
  0
TEXT
  5
19D
  8
_________2
 62
     7
 10
22.960000000000001
 20
40.930100000000003
 30
0.0
 40
3.0923400000000001
  1
製図
 41
0.5
  0
TEXT
  5
19E
  8
_________2
 62
     7
 10
28.727365333333339
 20
49.456000000000003
 30
0.0
 40
4.4979399999999989
  1
セラトレーディング株式会社
 41
0.5
 72
     1
 11
46.119399999999992
 21
49.456000000000003
 31
0.0
  0
LINE
  5
19F
  8
_________2
 62
     7
 10
188.49000000000001
 20
17.4282
 30
0.0
 11
21.988499999999998
 21
17.4282
 31
0.0
  0
LINE
  5
1A0
  8
_________2
 62
     7
 10
21.988499999999998
 20
17.4282
 30
0.0
 11
21.988499999999998
 21
280.43000000000001
 31
0.0
  0
LINE
  5
1A1
  8
_________2
 62
     7
 10
21.988499999999998
 20
280.43000000000001
 30
0.0
 11
188.49000000000001
 21
280.43000000000001
 31
0.0
  0
LINE
  5
1A2
  8
_________2
 62
     7
 10
188.49000000000001
 20
280.43000000000001
 30
0.0
 11
188.49000000000001
 21
17.4282
 31
0.0
  0
LINE
  5
1A3
  8
_________2
 62
     7
 10
70.488500000000002
 20
30.9282
 30
0.0
 11
70.488500000000002
 21
57.427999999999997
 31
0.0
  0
LINE
  5
1A4
  8
_________2
 62
     7
 10
89.488600000000005
 20
30.9282
 30
0.0
 11
89.488600000000005
 21
57.427999999999997
 31
0.0
  0
LINE
  5
1A5
  8
_________2
 62
     7
 10
108.489
 20
17.4282
 30
0.0
 11
108.489
 21
57.427999999999997
 31
0.0
  0
LINE
  5
1A6
  8
_________2
 62
     7
 10
33.488300000000002
 20
30.9282
 30
0.0
 11
33.488300000000002
 21
44.928499999999993
 31
0.0
  0
LINE
  5
1A7
  8
_________2
 62
     7
 10
21.988499999999998
 20
30.9282
 30
0.0
 11
108.489
 21
30.9282
 31
0.0
  0
LINE
  5
1A8
  8
_________2
 62
     7
 10
21.988499999999998
 20
44.928499999999993
 30
0.0
 11
108.489
 21
44.928499999999993
 31
0.0
  0
LINE
  5
1A9
  8
_________2
 62
     7
 10
108.489
 20
37.427799999999998
 30
0.0
 11
188.49000000000001
 21
37.427799999999998
 31
0.0
  0
LINE
  5
1AA
  8
_________2
 62
     7
 10
21.988499999999998
 20
57.427999999999997
 30
0.0
 11
188.49000000000001
 21
57.427999999999997
 31
0.0
  0
ENDSEC
  0
EOF
