  0
SECTION
  2
HEADER
  9
$ACADVER
  1
AC1009
  9
$INSBASE
 10
0.0
 20
0.0
 30
0.0
  9
$EXTMIN
 10
-4.7012099999999988
 20
-21.070999999999991
 30
0.0
  9
$EXTMAX
 10
205.30099999999999
 20
275.93099999999993
 30
0.0
  9
$LIMMIN
 10
0.0
 20
0.0
  9
$LIMMAX
 10
12.0
 20
9.0
  9
$ORTHOMODE
 70
     0
  9
$REGENMODE
 70
     1
  9
$FILLMODE
 70
     1
  9
$QTEXTMODE
 70
     0
  9
$MIRRTEXT
 70
     1
  9
$DRAGMODE
 70
     2
  9
$LTSCALE
 40
1.0
  9
$OSMODE
 70
    37
  9
$ATTMODE
 70
     1
  9
$TEXTSIZE
 40
0.0
  9
$TRACEWID
 40
0.05
  9
$TEXTSTYLE
  7
STANDARD
  9
$CLAYER
  8
0
  9
$CELTYPE
  6
CONTINUOUS
  9
$CECOLOR
 62
   256
  9
$DIMSCALE
 40
1.0
  9
$DIMASZ
 40
0.18
  9
$DIMEXO
 40
0.0625
  9
$DIMDLI
 40
0.38
  9
$DIMRND
 40
0.0
  9
$DIMDLE
 40
0.0
  9
$DIMEXE
 40
0.18
  9
$DIMTP
 40
0.0
  9
$DIMTM
 40
0.0
  9
$DIMTXT
 40
0.18
  9
$DIMCEN
 40
0.09
  9
$DIMTSZ
 40
0.0
  9
$DIMTOL
 70
     0
  9
$DIMLIM
 70
     0
  9
$DIMTIH
 70
     1
  9
$DIMTOH
 70
     1
  9
$DIMSE1
 70
     0
  9
$DIMSE2
 70
     0
  9
$DIMTAD
 70
     0
  9
$DIMZIN
 70
     0
  9
$DIMBLK
  1

  9
$DIMASO
 70
     1
  9
$DIMSHO
 70
     1
  9
$DIMPOST
  1

  9
$DIMAPOST
  1

  9
$DIMALT
 70
     0
  9
$DIMALTD
 70
     2
  9
$DIMALTF
 40
25.399999999999999
  9
$DIMLFAC
 40
1.0
  9
$DIMTOFL
 70
     0
  9
$DIMTVP
 40
0.0
  9
$DIMTIX
 70
     0
  9
$DIMSOXD
 70
     0
  9
$DIMSAH
 70
     0
  9
$DIMBLK1
  1

  9
$DIMBLK2
  1

  9
$DIMSTYLE
  2
STANDARD
  9
$DIMCLRD
 70
     0
  9
$DIMCLRE
 70
     0
  9
$DIMCLRT
 70
     0
  9
$DIMTFAC
 40
1.0
  9
$DIMGAP
 40
0.09
  9
$LUNITS
 70
     2
  9
$LUPREC
 70
     4
  9
$SKETCHINC
 40
0.1
  9
$FILLETRAD
 40
0.0
  9
$AUNITS
 70
     0
  9
$AUPREC
 70
     0
  9
$MENU
  1
.
  9
$ELEVATION
 40
0.0
  9
$PELEVATION
 40
0.0
  9
$THICKNESS
 40
0.0
  9
$LIMCHECK
 70
     0
  9
$BLIPMODE
 70
     0
  9
$CHAMFERA
 40
0.0
  9
$CHAMFERB
 40
0.0
  9
$SKPOLY
 70
     0
  9
$TDCREATE
 40
2444972.375
  9
$TDUPDATE
 40
2456707.2471790272
  9
$TDINDWG
 40
0.0000073495
  9
$TDUSRTIMER
 40
0.0000073495
  9
$USRTIMER
 70
     1
  9
$ANGBASE
 50
0.0
  9
$ANGDIR
 70
     0
  9
$PDMODE
 70
     0
  9
$PDSIZE
 40
0.0
  9
$PLINEWID
 40
0.0
  9
$COORDS
 70
     1
  9
$SPLFRAME
 70
     0
  9
$SPLINETYPE
 70
     6
  9
$SPLINESEGS
 70
     8
  9
$ATTDIA
 70
     0
  9
$ATTREQ
 70
     1
  9
$HANDLING
 70
     1
  9
$HANDSEED
  5
1C4
  9
$SURFTAB1
 70
     6
  9
$SURFTAB2
 70
     6
  9
$SURFTYPE
 70
     6
  9
$SURFU
 70
     6
  9
$SURFV
 70
     6
  9
$UCSNAME
  2

  9
$UCSORG
 10
0.0
 20
0.0
 30
0.0
  9
$UCSXDIR
 10
1.0
 20
0.0
 30
0.0
  9
$UCSYDIR
 10
0.0
 20
1.0
 30
0.0
  9
$PUCSNAME
  2

  9
$PUCSORG
 10
0.0
 20
0.0
 30
0.0
  9
$PUCSXDIR
 10
1.0
 20
0.0
 30
0.0
  9
$PUCSYDIR
 10
0.0
 20
1.0
 30
0.0
  9
$USERI1
 70
     0
  9
$USERI2
 70
     0
  9
$USERI3
 70
     0
  9
$USERI4
 70
     0
  9
$USERI5
 70
     0
  9
$USERR1
 40
0.0
  9
$USERR2
 40
0.0
  9
$USERR3
 40
0.0
  9
$USERR4
 40
0.0
  9
$USERR5
 40
0.0
  9
$WORLDVIEW
 70
     1
  9
$SHADEDGE
 70
     3
  9
$SHADEDIF
 70
    70
  9
$TILEMODE
 70
     1
  9
$MAXACTVP
 70
    48
  9
$PLIMCHECK
 70
     0
  9
$PEXTMIN
 10
1.0000000000000000E+020
 20
1.0000000000000000E+020
 30
1.0000000000000000E+020
  9
$PEXTMAX
 10
-1.0000000000000000E+020
 20
-1.0000000000000000E+020
 30
-1.0000000000000000E+020
  9
$PLIMMIN
 10
0.0
 20
0.0
  9
$PLIMMAX
 10
12.0
 20
9.0
  9
$UNITMODE
 70
     0
  9
$VISRETAIN
 70
     1
  9
$PLINEGEN
 70
     0
  9
$PSLTSCALE
 70
     1
  0
ENDSEC
  0
SECTION
  2
TABLES
  0
TABLE
  2
VPORT
 70
     2
  0
VPORT
  2
*ACTIVE
 70
     0
 10
0.0
 20
0.0
 11
1.0
 21
1.0
 12
202.006301769564
 22
127.42999999999989
 13
0.0
 23
0.0
 14
1.0
 24
1.0
 15
0.0
 25
0.0
 16
0.0
 26
0.0
 36
1.0
 17
0.0
 27
0.0
 37
0.0
 40
299.45318569463541
 41
2.2894736842105261
 42
50.0
 43
0.0
 44
0.0
 50
0.0
 51
0.0
 71
     0
 72
   100
 73
     1
 74
     1
 75
     0
 76
     0
 77
     0
 78
     0
  0
ENDTAB
  0
TABLE
  2
LTYPE
 70
     4
  0
LTYPE
  2
CONTINUOUS
 70
     0
  3
Solid line
 72
    65
 73
     0
 40
0.0
  0
LTYPE
  2
AIGENLINE001
 70
     0
  3
generate AI->DXF Converter
 72
    65
 73
     4
 40
5.8561449999999988
 49
3.5278
 49
-0.776115
 49
0.776115
 49
-0.776115
  0
LTYPE
  2
AIGENLINE002
 70
     0
  3
generate AI->DXF Converter
 72
    65
 73
     2
 40
1.5522299999999991
 49
0.776115
 49
-0.776115
  0
LTYPE
  2
AIGENLINE003
 70
     0
  3
generate AI->DXF Converter
 72
    65
 73
     6
 40
7.4083750000000004
 49
3.5278
 49
-0.776115
 49
0.776115
 49
-0.776115
 49
0.776115
 49
-0.776115
  0
ENDTAB
  0
TABLE
  2
LAYER
 70
     2
  0
LAYER
  2
0
 70
     0
 62
     7
  6
CONTINUOUS
  0
LAYER
  2
_________2
 70
     0
 62
     7
  6
CONTINUOUS
  0
ENDTAB
  0
TABLE
  2
STYLE
 70
     1
  0
STYLE
  2
STANDARD
 70
     0
 40
0.0
 41
0.0
 50
0.0
 71
     0
 42
0.0
  3
TXT
  4
EXTFONT.SHX
  0
ENDTAB
  0
TABLE
  2
VIEW
 70
     0
  0
ENDTAB
  0
TABLE
  2
UCS
 70
     0
  0
ENDTAB
  0
TABLE
  2
APPID
 70
     1
  0
APPID
  2
ACAD
 70
     0
  0
ENDTAB
  0
TABLE
  2
DIMSTYLE
 70
     1
  0
DIMSTYLE
  2
STANDARD
 70
     0
  3

  4

  5

  6

  7

 40
1.0
 41
0.18
 42
0.0625
 43
0.38
 44
0.18
 45
0.0
 46
0.0
 47
0.0
 48
0.0
140
0.18
141
0.09
142
0.0
143
25.399999999999999
144
1.0
145
0.0
146
1.0
147
0.09
 71
     0
 72
     0
 73
     1
 74
     1
 75
     0
 76
     0
 77
     0
 78
     0
170
     0
171
     2
172
     0
173
     0
174
     0
175
     0
176
     0
177
     0
178
     0
  0
ENDTAB
  0
ENDSEC
  0
SECTION
  2
BLOCKS
  0
BLOCK
  8
0
  2
$MODEL_SPACE
 70
     0
 10
0.0
 20
0.0
 30
0.0
  3
$MODEL_SPACE
  1

  0
ENDBLK
  5
1A
  8
0
  0
BLOCK
 67
     1
  8
0
  2
$PAPER_SPACE
 70
     0
 10
0.0
 20
0.0
 30
0.0
  3
$PAPER_SPACE
  1

  0
ENDBLK
  5
17
 67
     1
  8
0
  0
ENDSEC
  0
SECTION
  2
ENTITIES
  0
TEXT
  5
24
  8
0
 62
     7
 10
20.139500000000002
 20
39.087299999999999
 30
0.0
 40
3.6545800000000002
  1
※壁取付部には厚さ30mm以上の補強木を入れてください。
 41
0.5
  0
TEXT
  5
25
  8
0
 62
     7
 10
66.754480000000001
 20
196.85699999999991
 30
0.0
 40
3.0923400000000001
  1
%%c35
 41
0.5
 72
     2
 11
70.877600000000001
 21
196.85699999999991
 31
0.0
  0
TEXT
  5
26
  8
0
 62
     7
 10
68.681479999999993
 20
174.739
 30
0.0
 40
3.0923400000000001
  1
%%c46
 41
0.5
 72
     2
 11
72.804599999999994
 21
174.739
 31
0.0
  0
TEXT
  5
27
  8
0
 62
     7
 10
155.21498249999991
 20
171.18599999999989
 30
0.0
 40
3.0923400000000001
  1
R10
 41
0.5
 72
     1
 11
156.88999999999999
 21
171.18599999999989
 31
0.0
  0
TEXT
  5
28
  8
0
 62
     7
 10
151.144454
 20
214.45799999999991
 30
0.0
 40
3.0923400000000001
  1
壁
 41
0.5
 72
     1
 11
151.86600000000001
 21
214.45799999999991
 31
0.0
  0
TEXT
  5
29
  8
0
 62
     7
 10
133.64076
 20
149.21000000000001
 30
0.0
 40
3.0923400000000001
  1
カウンター切込寸法
 41
0.5
 72
     1
 11
141.887
 21
149.21000000000001
 31
0.0
  0
TEXT
  5
2A
  8
0
 62
     7
 10
167.93599999999989
 20
186.7672874999999
 30
0.0
 40
3.0923400000000001
  1
270
 50
90.0
 41
0.5
 72
     1
 11
167.93599999999989
 21
188.69999999999999
 31
0.0
  0
TEXT
  5
2B
  8
0
 62
     7
 10
156.00499999999991
 20
194.52498249999991
 30
0.0
 40
3.0923400000000001
  1
180
 50
90.0
 41
0.5
 72
     1
 11
156.00499999999991
 21
196.1999999999999
 31
0.0
  0
TEXT
  5
2C
  8
0
 62
     7
 10
105.7639999999999
 20
184.3961349999999
 30
0.0
 40
3.0923400000000001
  1
300
 50
90.0
 41
0.5
 72
     1
 11
105.7639999999999
 21
186.1999999999999
 31
0.0
  0
TEXT
  5
2D
  8
0
 62
     7
 10
98.852299999999985
 20
201.32083
 30
0.0
 40
3.0923400000000001
  1
100
 50
90.0
 41
0.5
 72
     1
 11
98.852299999999985
 21
202.86699999999999
 31
0.0
  0
TEXT
  5
2E
  8
0
 62
     7
 10
27.7453
 20
194.52498249999991
 30
0.0
 40
3.0923400000000001
  1
180
 50
90.0
 41
0.5
 72
     1
 11
27.7453
 21
196.1999999999999
 31
0.0
  0
TEXT
  5
2F
  8
0
 62
     7
 10
92.804400000000001
 20
178.1461349999999
 30
0.0
 40
3.0923400000000001
  1
175
 50
90.0
 41
0.5
 72
     1
 11
92.804400000000001
 21
179.9499999999999
 31
0.0
  0
TEXT
  5
30
  8
0
 62
     7
 10
92.804400000000001
 20
196.70737249999999
 30
0.0
 40
3.0923400000000001
  1
40
 50
90.0
 41
0.5
 72
     1
 11
92.804400000000001
 21
197.86699999999999
 31
0.0
  0
TEXT
  5
31
  8
0
 62
     7
 10
92.804400000000001
 20
205.0403724999999
 30
0.0
 40
3.0923400000000001
  1
60
 50
90.0
 41
0.5
 72
     1
 11
92.804400000000001
 21
206.1999999999999
 31
0.0
  0
TEXT
  5
32
  8
0
 62
     7
 10
149.78999999999999
 20
97.405882500000004
 30
0.0
 40
3.0923400000000001
  1
130
 50
90.0
 41
0.5
 72
     1
 11
149.78999999999999
 21
99.080900000000014
 31
0.0
  0
TEXT
  5
33
  8
0
 62
     7
 10
102.26000000000001
 20
94.072382500000003
 30
0.0
 40
3.0923400000000001
  1
170
 50
90.0
 41
0.5
 72
     1
 11
102.26000000000001
 21
95.747399999999999
 31
0.0
  0
TEXT
  5
34
  8
0
 62
     7
 10
90.339600000000004
 20
104.0425249999999
 30
0.0
 40
3.0923400000000001
  1
55
 50
90.0
 41
0.5
 72
     1
 11
90.339600000000004
 21
105.3309999999999
 31
0.0
  0
TEXT
  5
35
  8
0
 62
     7
 10
96.299599999999998
 20
95.739082499999995
 30
0.0
 40
3.0923400000000001
  1
150
 50
90.0
 41
0.5
 72
     1
 11
96.299599999999998
 21
97.414100000000005
 31
0.0
  0
TEXT
  5
36
  8
0
 62
     7
 10
129.7908635714285
 20
190.21700000000001
 30
0.0
 40
3.0923400000000001
  1
排水口
 41
0.5
 72
     1
 11
132.33099999999999
 21
190.21700000000001
 31
0.0
  0
TEXT
  5
37
  8
0
 62
     7
 10
155.21298250000001
 20
74.473100000000002
 30
0.0
 40
3.0923400000000001
  1
180
 41
0.5
 72
     1
 11
156.88800000000001
 21
74.473100000000002
 31
0.0
  0
TEXT
  5
38
  8
0
 62
     7
 10
123.098525
 20
116.887
 30
0.0
 40
3.0923400000000001
  1
25
 41
0.5
 72
     1
 11
124.387
 21
116.887
 31
0.0
  0
TEXT
  5
39
  8
0
 62
     7
 10
145.083135
 20
123.07299999999989
 30
0.0
 40
3.0923400000000001
  1
300
 41
0.5
 72
     1
 11
146.887
 21
123.07299999999989
 31
0.0
  0
TEXT
  5
3A
  8
0
 62
     7
 10
139.95428749999991
 20
158.0679999999999
 30
0.0
 40
3.0923400000000001
  1
240
 41
0.5
 72
     1
 11
141.887
 21
158.0679999999999
 31
0.0
  0
TEXT
  5
3B
  8
0
 62
     7
 10
57.555487499999991
 20
152.12899999999999
 30
0.0
 40
3.0923400000000001
  1
250
 41
0.5
 72
     1
 11
59.488199999999999
 21
152.12899999999999
 31
0.0
  0
TEXT
  5
3C
  8
0
 62
     7
 10
57.684334999999997
 20
144.8429999999999
 30
0.0
 40
3.0923400000000001
  1
300
 41
0.5
 72
     1
 11
59.488199999999999
 21
144.8429999999999
 31
0.0
  0
TEXT
  5
3D
  8
0
 62
     7
 10
58.199925
 20
116.09099999999999
 30
0.0
 40
3.0923400000000001
  1
85
 41
0.5
 72
     1
 11
59.488399999999999
 21
116.09099999999999
 31
0.0
  0
LINE
  5
3E
  8
0
 62
     7
 10
169.34999999999999
 20
166.1999999999999
 30
0.0
 11
162.864
 21
166.1999999999999
 31
0.0
  0
LINE
  5
3F
  8
0
 62
     7
 10
168.05799999999991
 20
168.41099999999989
 30
0.0
 11
168.65000000000001
 21
166.1999999999999
 31
0.0
  0
LINE
  5
40
  8
0
 62
     7
 10
168.65000000000001
 20
166.1999999999999
 30
0.0
 11
169.24299999999991
 21
168.41099999999989
 31
0.0
  0
LINE
  5
41
  8
0
 62
     7
 10
169.24299999999991
 20
168.41099999999989
 30
0.0
 11
168.05799999999991
 21
168.41099999999989
 31
0.0
  0
LINE
  5
42
  8
0
 62
     7
 10
169.22799999999989
 20
208.989
 30
0.0
 11
168.636
 21
211.19999999999999
 31
0.0
  0
LINE
  5
43
  8
0
 62
     7
 10
168.636
 20
211.19999999999999
 30
0.0
 11
168.04300000000001
 21
208.989
 31
0.0
  0
LINE
  5
44
  8
0
 62
     7
 10
168.04300000000001
 20
208.989
 30
0.0
 11
169.22799999999989
 21
208.989
 31
0.0
  0
LINE
  5
45
  8
0
 62
     7
 10
168.636
 20
166.1999999999999
 30
0.0
 11
168.636
 21
211.19999999999999
 31
0.0
  0
LINE
  5
46
  8
0
 62
     7
 10
157.40499999999989
 20
181.1999999999999
 30
0.0
 11
150.7229999999999
 21
181.1999999999999
 31
0.0
  0
LINE
  5
47
  8
0
 62
     7
 10
159.53100000000001
 20
156.78999999999991
 30
0.0
 11
161.74299999999991
 21
157.3829999999999
 31
0.0
  0
LINE
  5
48
  8
0
 62
     7
 10
161.74299999999991
 20
157.3829999999999
 30
0.0
 11
159.53100000000001
 21
157.97499999999991
 31
0.0
  0
LINE
  5
49
  8
0
 62
     7
 10
159.53100000000001
 20
157.97499999999991
 30
0.0
 11
159.53100000000001
 21
156.78999999999991
 31
0.0
  0
LINE
  5
4A
  8
0
 62
     7
 10
123.95399999999989
 20
157.96100000000001
 30
0.0
 11
121.74299999999999
 21
157.36799999999991
 31
0.0
  0
LINE
  5
4B
  8
0
 62
     7
 10
121.74299999999999
 20
157.36799999999991
 30
0.0
 11
123.95399999999989
 21
156.7759999999999
 31
0.0
  0
LINE
  5
4C
  8
0
 62
     7
 10
123.95399999999989
 20
156.7759999999999
 30
0.0
 11
123.95399999999989
 21
157.96100000000001
 31
0.0
  0
LINE
  5
4D
  8
0
 62
     7
 10
161.74299999999991
 20
157.36799999999991
 30
0.0
 11
121.74299999999999
 21
157.36799999999991
 31
0.0
  0
LINE
  5
4E
  8
0
  6
AIGENLINE001
 62
     7
 10
49.488399999999999
 20
191.499
 30
0.0
 11
49.488399999999999
 21
196.434
 31
0.0
  0
LINE
  5
4F
  8
0
 62
     7
 10
151.083
 20
107.7029999999999
 30
0.0
 11
150.49000000000001
 21
109.91500000000001
 31
0.0
  0
LINE
  5
50
  8
0
 62
     7
 10
150.49000000000001
 20
109.91500000000001
 30
0.0
 11
149.89799999999991
 21
107.7029999999999
 31
0.0
  0
LINE
  5
51
  8
0
 62
     7
 10
149.89799999999991
 20
107.7029999999999
 30
0.0
 11
151.083
 21
107.7029999999999
 31
0.0
  0
LINE
  5
52
  8
0
 62
     7
 10
149.91200000000001
 20
90.459100000000007
 30
0.0
 11
150.50499999999991
 21
88.247399999999999
 31
0.0
  0
LINE
  5
53
  8
0
 62
     7
 10
150.50499999999991
 20
88.247399999999999
 30
0.0
 11
151.09700000000001
 21
90.459100000000007
 31
0.0
  0
LINE
  5
54
  8
0
 62
     7
 10
151.09700000000001
 20
90.459100000000007
 30
0.0
 11
149.91200000000001
 21
90.459100000000007
 31
0.0
  0
LINE
  5
55
  8
0
 62
     7
 10
150.49000000000001
 20
109.914
 30
0.0
 11
150.49000000000001
 21
88.247399999999999
 31
0.0
  0
LINE
  5
56
  8
0
 62
     7
 10
169.6759999999999
 20
121.795
 30
0.0
 11
171.88800000000001
 21
122.38799999999991
 31
0.0
  0
LINE
  5
57
  8
0
 62
     7
 10
171.88800000000001
 20
122.38799999999991
 30
0.0
 11
169.6759999999999
 21
122.98
 31
0.0
  0
LINE
  5
58
  8
0
 62
     7
 10
169.6759999999999
 20
122.98
 30
0.0
 11
169.6759999999999
 21
121.795
 31
0.0
  0
LINE
  5
59
  8
0
 62
     7
 10
124.0989999999999
 20
122.96599999999999
 30
0.0
 11
121.887
 21
122.37299999999991
 31
0.0
  0
LINE
  5
5A
  8
0
 62
     7
 10
121.887
 20
122.37299999999991
 30
0.0
 11
124.0989999999999
 21
121.7799999999999
 31
0.0
  0
LINE
  5
5B
  8
0
 62
     7
 10
124.0989999999999
 20
121.7799999999999
 30
0.0
 11
124.0989999999999
 21
122.96599999999999
 31
0.0
  0
LINE
  5
5C
  8
0
 62
     7
 10
171.88800000000001
 20
122.37299999999991
 30
0.0
 11
121.88799999999991
 21
122.37299999999991
 31
0.0
  0
LINE
  5
5D
  8
0
 62
     7
 10
171.88800000000001
 20
123.07299999999989
 30
0.0
 11
171.88800000000001
 21
110.6139999999999
 31
0.0
  0
LINE
  5
5E
  8
0
 62
     7
 10
121.88799999999991
 20
123.07299999999989
 30
0.0
 11
121.88799999999991
 21
110.371
 31
0.0
  0
LINE
  5
5F
  8
0
 62
     7
 10
119.676
 20
115.43899999999999
 30
0.0
 11
121.88799999999991
 21
116.032
 31
0.0
  0
LINE
  5
60
  8
0
 62
     7
 10
121.88799999999991
 20
116.032
 30
0.0
 11
119.676
 21
116.625
 31
0.0
  0
LINE
  5
61
  8
0
 62
     7
 10
119.676
 20
116.625
 30
0.0
 11
119.676
 21
115.43899999999999
 31
0.0
  0
LINE
  5
62
  8
0
 62
     7
 10
128.28399999999991
 20
116.6239999999999
 30
0.0
 11
126.072
 21
116.032
 31
0.0
  0
LINE
  5
63
  8
0
 62
     7
 10
126.072
 20
116.032
 30
0.0
 11
128.28399999999991
 21
115.43899999999999
 31
0.0
  0
LINE
  5
64
  8
0
 62
     7
 10
128.28399999999991
 20
115.43899999999999
 30
0.0
 11
128.28399999999991
 21
116.6239999999999
 31
0.0
  0
LINE
  5
65
  8
0
 62
     7
 10
129.21600000000001
 20
116.032
 30
0.0
 11
118.1699999999999
 21
116.032
 31
0.0
  0
LINE
  5
66
  8
0
 62
     7
 10
126.0539999999999
 20
116.732
 30
0.0
 11
126.0539999999999
 21
110.6139999999999
 31
0.0
  0
LINE
  5
67
  8
0
 62
     7
 10
169.6759999999999
 20
73.194999999999993
 30
0.0
 11
171.88800000000001
 21
73.787499999999994
 31
0.0
  0
LINE
  5
68
  8
0
 62
     7
 10
171.88800000000001
 20
73.787499999999994
 30
0.0
 11
169.6759999999999
 21
74.380799999999994
 31
0.0
  0
LINE
  5
69
  8
0
 62
     7
 10
169.6759999999999
 20
74.380799999999994
 30
0.0
 11
169.6759999999999
 21
73.194999999999993
 31
0.0
  0
LINE
  5
6A
  8
0
 62
     7
 10
144.09899999999999
 20
74.365600000000001
 30
0.0
 11
141.887
 21
73.773099999999999
 31
0.0
  0
LINE
  5
6B
  8
0
 62
     7
 10
141.887
 20
73.773099999999999
 30
0.0
 11
144.09899999999999
 21
73.180499999999995
 31
0.0
  0
LINE
  5
6C
  8
0
 62
     7
 10
144.09899999999999
 20
73.180499999999995
 30
0.0
 11
144.09899999999999
 21
74.365600000000001
 31
0.0
  0
LINE
  5
6D
  8
0
 62
     7
 10
171.88800000000001
 20
73.773099999999999
 30
0.0
 11
141.887
 21
73.773099999999999
 31
0.0
  0
LINE
  5
6E
  8
0
 62
     7
 10
171.88800000000001
 20
73.073000000000008
 30
0.0
 11
171.88800000000001
 21
84.213800000000006
 31
0.0
  0
LINE
  5
6F
  8
0
 62
     7
 10
141.887
 20
73.073000000000008
 30
0.0
 11
141.887
 21
78.657499999999999
 31
0.0
  0
LINE
  5
70
  8
0
  6
AIGENLINE001
 62
     7
 10
169.03
 20
100.74799999999991
 30
0.0
 11
175.02500000000001
 21
100.74799999999991
 31
0.0
  0
LINE
  5
71
  8
0
  6
AIGENLINE001
 62
     7
 10
153.6579999999999
 20
106.581
 30
0.0
 11
156.20899999999989
 21
106.581
 31
0.0
  0
LINE
  5
72
  8
0
  6
AIGENLINE002
 62
     7
 10
154.72099999999989
 20
108.581
 30
0.0
 11
154.72099999999989
 21
104.581
 31
0.0
  0
ARC
  5
73
  8
0
  6
AIGENLINE002
 62
     7
 10
155.239768
 20
104.600003
 30
0.0
 40
0.5192230000000001
 50
182.13401799999991
 51
267.90551299999998
  0
ARC
  5
74
  8
0
  6
AIGENLINE002
 62
     7
 10
155.240082
 20
108.56148999999991
 30
0.0
 40
0.519549
 50
92.127841000000004
 51
177.83262799999989
  0
LINE
  5
75
  8
0
  6
AIGENLINE001
 62
     7
 10
141.887
 20
90.2166
 30
0.0
 11
141.887
 21
79.357600000000005
 31
0.0
  0
LINE
  5
76
  8
0
  6
AIGENLINE002
 62
     7
 10
132.24700000000001
 20
88.247399999999999
 30
0.0
 11
151.88800000000001
 21
88.247399999999999
 31
0.0
  0
LINE
  5
77
  8
0
  6
AIGENLINE002
 62
     7
 10
126.0539999999999
 20
109.914
 30
0.0
 11
128.95199999999991
 21
91.073700000000017
 31
0.0
  0
ARC
  5
78
  8
0
  6
AIGENLINE002
 62
     7
 10
132.34245000000001
 20
91.691789999999983
 30
0.0
 40
3.4457439999999999
 50
190.3211869999999
 51
268.41312599999998
  0
LINE
  5
79
  8
0
  6
AIGENLINE002
 62
     7
 10
155.221
 20
109.914
 30
0.0
 11
155.221
 21
91.580899999999986
 31
0.0
  0
ARC
  5
7A
  8
0
  6
AIGENLINE002
 62
     7
 10
151.8874679999999
 20
91.580691999999985
 30
0.0
 40
3.3333239999999988
 50
270.00298099999998
 51
0.002951
  0
LINE
  5
7B
  8
0
  6
AIGENLINE002
 62
     7
 10
145.721
 20
87.0809
 30
0.0
 11
145.721
 21
81.581100000000006
 31
0.0
  0
LINE
  5
7C
  8
0
  6
AIGENLINE002
 62
     7
 10
145.721
 20
87.0809
 30
0.0
 11
146.887
 21
88.247399999999999
 31
0.0
  0
LINE
  5
7D
  8
0
 62
     7
 10
148.221
 20
82.080600000000004
 30
0.0
 11
158.55399999999989
 21
82.080600000000004
 31
0.0
  0
LINE
  5
7E
  8
0
 62
     7
 10
160.221
 20
83.747399999999999
 30
0.0
 11
160.221
 21
84.913899999999998
 31
0.0
  0
ARC
  5
7F
  8
0
 62
     7
 10
158.55428699999999
 20
83.747356000000011
 30
0.0
 40
1.666747999999999
 50
270.00002000000001
 51
359.99998999999991
  0
LINE
  5
80
  8
0
 62
     7
 10
135.887
 20
81.581100000000006
 30
0.0
 11
147.88800000000001
 21
81.581100000000006
 31
0.0
  0
LINE
  5
81
  8
0
 62
     7
 10
135.55399999999989
 20
81.913899999999998
 30
0.0
 11
135.55399999999989
 21
84.913899999999998
 31
0.0
  0
ARC
  5
82
  8
0
 62
     7
 10
135.9002669999999
 20
81.927006000000006
 30
0.0
 40
0.346176
 50
182.17565699999989
 51
267.88365499999992
  0
LINE
  5
83
  8
0
 62
     7
 10
148.221
 20
84.913899999999998
 30
0.0
 11
148.221
 21
81.913899999999998
 31
0.0
  0
ARC
  5
84
  8
0
 62
     7
 10
147.874818
 20
81.927278000000001
 30
0.0
 40
0.346445
 50
272.1004069999999
 51
357.78110099999998
  0
LINE
  5
85
  8
0
  6
AIGENLINE002
 62
     7
 10
138.054
 20
87.0809
 30
0.0
 11
138.054
 21
81.581100000000006
 31
0.0
  0
LINE
  5
86
  8
0
  6
AIGENLINE002
 62
     7
 10
138.054
 20
87.0809
 30
0.0
 11
145.721
 21
87.0809
 31
0.0
  0
LINE
  5
87
  8
0
  6
AIGENLINE002
 62
     7
 10
138.054
 20
87.0809
 30
0.0
 11
136.88800000000001
 21
88.247399999999999
 31
0.0
  0
LINE
  5
88
  8
0
  6
AIGENLINE001
 62
     7
 10
161.887
 20
114.149
 30
0.0
 11
161.887
 21
106.3129999999999
 31
0.0
  0
LINE
  5
89
  8
0
 62
     7
 10
171.88800000000001
 20
109.914
 30
0.0
 11
171.88800000000001
 21
84.913899999999998
 31
0.0
  0
LINE
  5
8A
  8
0
 62
     7
 10
122.221
 20
84.913899999999998
 30
0.0
 11
171.88800000000001
 21
84.913899999999998
 31
0.0
  0
LINE
  5
8B
  8
0
 62
     7
 10
121.88799999999991
 20
85.247399999999985
 30
0.0
 11
121.88799999999991
 21
109.081
 31
0.0
  0
ARC
  5
8C
  8
0
 62
     7
 10
122.23418599999999
 20
85.260483999999977
 30
0.0
 40
0.3468739999999999
 50
182.1684259999999
 51
267.77238299999999
  0
LINE
  5
8D
  8
0
 62
     7
 10
122.721
 20
109.914
 30
0.0
 11
171.88800000000001
 21
109.914
 31
0.0
  0
ARC
  5
8E
  8
0
 62
     7
 10
122.752627
 20
109.049345
 30
0.0
 40
0.865634
 50
92.098205999999976
 51
177.92544499999991
  0
LINE
  5
8F
  8
0
 62
     7
 10
103.6599999999999
 20
81.581100000000006
 30
0.0
 11
66.188299999999984
 21
81.581100000000006
 31
0.0
  0
LINE
  5
90
  8
0
 62
     7
 10
103.55199999999989
 20
107.7029999999999
 30
0.0
 11
102.95999999999989
 21
109.914
 31
0.0
  0
LINE
  5
91
  8
0
 62
     7
 10
102.95999999999989
 20
109.914
 30
0.0
 11
102.367
 21
107.7029999999999
 31
0.0
  0
LINE
  5
92
  8
0
 62
     7
 10
102.367
 20
107.7029999999999
 30
0.0
 11
103.55199999999989
 21
107.7029999999999
 31
0.0
  0
LINE
  5
93
  8
0
 62
     7
 10
102.38200000000001
 20
83.792799999999986
 30
0.0
 11
102.9739999999999
 21
81.581100000000006
 31
0.0
  0
LINE
  5
94
  8
0
 62
     7
 10
102.9739999999999
 20
81.581100000000006
 30
0.0
 11
103.56699999999999
 21
83.792799999999986
 31
0.0
  0
LINE
  5
95
  8
0
 62
     7
 10
103.56699999999999
 20
83.792799999999986
 30
0.0
 11
102.38200000000001
 21
83.792799999999986
 31
0.0
  0
LINE
  5
96
  8
0
 62
     7
 10
102.95999999999989
 20
109.914
 30
0.0
 11
102.95999999999989
 21
81.581100000000006
 31
0.0
  0
LINE
  5
97
  8
0
 62
     7
 10
97.592200000000005
 20
107.7029999999999
 30
0.0
 11
96.999700000000004
 21
109.914
 31
0.0
  0
LINE
  5
98
  8
0
 62
     7
 10
96.999700000000004
 20
109.914
 30
0.0
 11
96.407000000000025
 21
107.7029999999999
 31
0.0
  0
LINE
  5
99
  8
0
 62
     7
 10
96.407000000000025
 20
107.7029999999999
 30
0.0
 11
97.592200000000005
 21
107.7029999999999
 31
0.0
  0
LINE
  5
9A
  8
0
 62
     7
 10
96.421599999999998
 20
87.126300000000001
 30
0.0
 11
97.014200000000002
 21
84.913899999999998
 31
0.0
  0
LINE
  5
9B
  8
0
 62
     7
 10
97.014200000000002
 20
84.913899999999998
 30
0.0
 11
97.606899999999996
 21
87.126300000000001
 31
0.0
  0
LINE
  5
9C
  8
0
 62
     7
 10
97.606899999999996
 20
87.126300000000001
 30
0.0
 11
96.421599999999998
 21
87.126300000000001
 31
0.0
  0
LINE
  5
9D
  8
0
 62
     7
 10
96.999700000000004
 20
109.914
 30
0.0
 11
96.999700000000004
 21
84.914599999999993
 31
0.0
  0
LINE
  5
9E
  8
0
 62
     7
 10
91.7393
 20
100.74799999999991
 30
0.0
 11
71.544799999999995
 21
100.74799999999991
 31
0.0
  0
LINE
  5
9F
  8
0
 62
     7
 10
91.632199999999997
 20
107.7029999999999
 30
0.0
 11
91.039599999999979
 21
109.914
 31
0.0
  0
LINE
  5
A0
  8
0
 62
     7
 10
91.039599999999979
 20
109.914
 30
0.0
 11
90.446900000000014
 21
107.7029999999999
 31
0.0
  0
LINE
  5
A1
  8
0
 62
     7
 10
90.446900000000014
 20
107.7029999999999
 30
0.0
 11
91.632199999999997
 21
107.7029999999999
 31
0.0
  0
LINE
  5
A2
  8
0
 62
     7
 10
90.461500000000001
 20
102.959
 30
0.0
 11
91.054100000000005
 21
100.747
 31
0.0
  0
LINE
  5
A3
  8
0
 62
     7
 10
91.054100000000005
 20
100.747
 30
0.0
 11
91.646799999999999
 21
102.959
 31
0.0
  0
LINE
  5
A4
  8
0
 62
     7
 10
91.646799999999999
 20
102.959
 30
0.0
 11
90.461500000000001
 21
102.959
 31
0.0
  0
LINE
  5
A5
  8
0
 62
     7
 10
91.039599999999979
 20
109.914
 30
0.0
 11
91.039599999999979
 21
100.74799999999991
 31
0.0
  0
LINE
  5
A6
  8
0
 62
     7
 10
103.6599999999999
 20
109.914
 30
0.0
 11
84.944500000000005
 21
109.914
 31
0.0
  0
LINE
  5
A7
  8
0
 62
     7
 10
97.699700000000007
 20
84.913899999999998
 30
0.0
 11
84.8553
 21
84.913899999999998
 31
0.0
  0
LINE
  5
A8
  8
0
  6
AIGENLINE002
 62
     7
 10
80.321899999999985
 20
109.914
 30
0.0
 11
78.891800000000003
 21
91.325199999999995
 31
0.0
  0
ARC
  5
A9
  8
0
  6
AIGENLINE002
 62
     7
 10
75.457571999999999
 20
91.700242000000003
 30
0.0
 40
3.454648999999999
 50
271.83680800000002
 51
353.76819099999989
  0
LINE
  5
AA
  8
0
  6
AIGENLINE002
 62
     7
 10
63.321599999999997
 20
87.0809
 30
0.0
 11
63.321599999999997
 21
81.581100000000006
 31
0.0
  0
LINE
  5
AB
  8
0
  6
AIGENLINE002
 62
     7
 10
63.321599999999997
 20
87.0809
 30
0.0
 11
64.488500000000002
 21
88.247399999999999
 31
0.0
  0
LINE
  5
AC
  8
0
 62
     7
 10
54.616599999999998
 20
115.9829999999999
 30
0.0
 11
52.404899999999998
 21
115.39099999999991
 31
0.0
  0
LINE
  5
AD
  8
0
 62
     7
 10
52.404899999999998
 20
115.39099999999991
 30
0.0
 11
54.616599999999998
 21
114.798
 31
0.0
  0
LINE
  5
AE
  8
0
 62
     7
 10
54.616599999999998
 20
114.798
 30
0.0
 11
54.616599999999998
 21
115.9829999999999
 31
0.0
  0
LINE
  5
AF
  8
0
 62
     7
 10
64.360100000000003
 20
114.8129999999999
 30
0.0
 11
66.571899999999985
 21
115.405
 31
0.0
  0
LINE
  5
B0
  8
0
 62
     7
 10
66.571899999999985
 20
115.405
 30
0.0
 11
64.360100000000003
 21
115.998
 31
0.0
  0
LINE
  5
B1
  8
0
 62
     7
 10
64.360100000000003
 20
115.998
 30
0.0
 11
64.360100000000003
 21
114.8129999999999
 31
0.0
  0
LINE
  5
B2
  8
0
 62
     7
 10
52.405099999999997
 20
115.39099999999991
 30
0.0
 11
66.571700000000007
 21
115.39099999999991
 31
0.0
  0
LINE
  5
B3
  8
0
 62
     7
 10
66.571700000000007
 20
116.09099999999999
 30
0.0
 11
66.571700000000007
 21
104.672
 31
0.0
  0
LINE
  5
B4
  8
0
  6
AIGENLINE002
 62
     7
 10
70.844700000000003
 20
100.74799999999991
 30
0.0
 11
62.531599999999997
 21
100.74799999999991
 31
0.0
  0
LINE
  5
B5
  8
0
  6
AIGENLINE001
 62
     7
 10
66.571700000000007
 20
97.697999999999993
 30
0.0
 11
66.571700000000007
 21
103.97199999999999
 31
0.0
  0
LINE
  5
B6
  8
0
  6
AIGENLINE002
 62
     7
 10
65.738299999999995
 20
98.664699999999996
 30
0.0
 11
67.405100000000004
 21
98.664699999999996
 31
0.0
  0
LINE
  5
B7
  8
0
  6
AIGENLINE002
 62
     7
 10
65.738299999999995
 20
102.831
 30
0.0
 11
67.405100000000004
 21
102.831
 31
0.0
  0
ARC
  5
B8
  8
0
  6
AIGENLINE002
 62
     7
 10
67.325163000000003
 20
100.827923
 30
0.0
 40
2.1646860000000001
 50
272.11621799999989
 51
357.87431600000002
  0
ARC
  5
B9
  8
0
  6
AIGENLINE002
 62
     7
 10
67.404925000000006
 20
100.747803
 30
0.0
 40
2.0834349999999988
 50
359.995273
 51
89.995243000000002
  0
ARC
  5
BA
  8
0
  6
AIGENLINE002
 62
     7
 10
65.738522000000003
 20
100.747803
 30
0.0
 40
2.0834349999999988
 50
90.004736999999977
 51
180.0047469999999
  0
ARC
  5
BB
  8
0
  6
AIGENLINE002
 62
     7
 10
65.817964000000003
 20
100.8276029999999
 30
0.0
 40
2.164353999999999
 50
182.1175519999999
 51
267.89195299999989
  0
LINE
  5
BC
  8
0
 62
     7
 10
52.405099999999997
 20
116.09099999999999
 30
0.0
 11
52.405099999999997
 21
104.672
 31
0.0
  0
LINE
  5
BD
  8
0
  6
AIGENLINE002
 62
     7
 10
56.677700000000002
 20
100.74799999999991
 30
0.0
 11
48.365000000000002
 21
100.74799999999991
 31
0.0
  0
LINE
  5
BE
  8
0
  6
AIGENLINE001
 62
     7
 10
52.405099999999997
 20
97.697999999999993
 30
0.0
 11
52.405099999999997
 21
103.97199999999999
 31
0.0
  0
LINE
  5
BF
  8
0
  6
AIGENLINE002
 62
     7
 10
51.5717
 20
98.664699999999996
 30
0.0
 11
53.238399999999999
 21
98.664699999999996
 31
0.0
  0
LINE
  5
C0
  8
0
  6
AIGENLINE002
 62
     7
 10
51.5717
 20
102.831
 30
0.0
 11
53.238399999999999
 21
102.831
 31
0.0
  0
ARC
  5
C1
  8
0
  6
AIGENLINE002
 62
     7
 10
53.158485999999989
 20
100.827933
 30
0.0
 40
2.1646969999999999
 50
272.11647499999992
 51
357.87405899999987
  0
ARC
  5
C2
  8
0
  6
AIGENLINE002
 62
     7
 10
53.158118000000002
 20
100.6676769999999
 30
0.0
 40
2.1650510000000001
 50
2.1163899999999991
 51
87.874125000000006
  0
ARC
  5
C3
  8
0
  6
AIGENLINE002
 62
     7
 10
51.571855999999997
 20
100.747803
 30
0.0
 40
2.0834349999999988
 50
90.004736999999977
 51
180.0047469999999
  0
ARC
  5
C4
  8
0
  6
AIGENLINE002
 62
     7
 10
51.651297
 20
100.8276029999999
 30
0.0
 40
2.164353999999999
 50
182.1175519999999
 51
267.89195299999989
  0
LINE
  5
C5
  8
0
 62
     7
 10
49.154899999999998
 20
82.080600000000004
 30
0.0
 11
53.15509999999999
 21
82.080600000000004
 31
0.0
  0
LINE
  5
C6
  8
0
 62
     7
 10
47.488199999999999
 20
83.747399999999999
 30
0.0
 11
47.488199999999999
 21
84.913899999999998
 31
0.0
  0
ARC
  5
C7
  8
0
 62
     7
 10
49.154933
 20
83.747354999999985
 30
0.0
 40
1.666747
 50
179.99996999999991
 51
270.00002000000001
  0
LINE
  5
C8
  8
0
 62
     7
 10
53.488199999999992
 20
81.581100000000006
 30
0.0
 11
65.488200000000006
 21
81.581100000000006
 31
0.0
  0
LINE
  5
C9
  8
0
 62
     7
 10
53.15509999999999
 20
81.913899999999998
 30
0.0
 11
53.15509999999999
 21
84.913899999999998
 31
0.0
  0
ARC
  5
CA
  8
0
 62
     7
 10
53.500593999999992
 20
81.926614000000001
 30
0.0
 40
0.3457699999999999
 50
182.11319299999991
 51
267.94611900000001
  0
LINE
  5
CB
  8
0
 62
     7
 10
65.821700000000007
 20
84.913899999999998
 30
0.0
 11
65.821700000000007
 21
81.913899999999998
 31
0.0
  0
ARC
  5
CC
  8
0
 62
     7
 10
65.475532000000001
 20
81.927283000000003
 30
0.0
 40
0.34645
 50
272.10119999999989
 51
357.78030799999988
  0
LINE
  5
CD
  8
0
  6
AIGENLINE002
 62
     7
 10
43.408499999999989
 20
88.247399999999999
 30
0.0
 11
75.568299999999994
 21
88.247399999999999
 31
0.0
  0
LINE
  5
CE
  8
0
  6
AIGENLINE002
 62
     7
 10
38.654899999999991
 20
109.914
 30
0.0
 11
40.085000000000001
 21
91.325199999999995
 31
0.0
  0
ARC
  5
CF
  8
0
  6
AIGENLINE002
 62
     7
 10
43.518610999999993
 20
91.699596999999983
 30
0.0
 40
3.453984999999999
 50
186.22226399999991
 51
268.172777
  0
LINE
  5
D0
  8
0
  6
AIGENLINE002
 62
     7
 10
55.655200000000001
 20
87.0809
 30
0.0
 11
55.655200000000001
 21
81.581100000000006
 31
0.0
  0
LINE
  5
D1
  8
0
  6
AIGENLINE002
 62
     7
 10
55.655200000000001
 20
87.0809
 30
0.0
 11
63.321599999999997
 21
87.0809
 31
0.0
  0
LINE
  5
D2
  8
0
  6
AIGENLINE002
 62
     7
 10
55.655200000000001
 20
87.0809
 30
0.0
 11
54.488300000000002
 21
88.247399999999999
 31
0.0
  0
LINE
  5
D3
  8
0
 62
     7
 10
84.488399999999999
 20
85.247399999999985
 30
0.0
 11
84.488399999999999
 21
109.081
 31
0.0
  0
LINE
  5
D4
  8
0
 62
     7
 10
34.8215
 20
84.913899999999998
 30
0.0
 11
84.155299999999997
 21
84.913899999999998
 31
0.0
  0
ARC
  5
D5
  8
0
 62
     7
 10
84.142492000000004
 20
85.259767000000011
 30
0.0
 40
0.34613
 50
272.11352999999991
 51
357.94569999999999
  0
LINE
  5
D6
  8
0
 62
     7
 10
34.488399999999999
 20
85.247399999999985
 30
0.0
 11
34.488399999999999
 21
109.081
 31
0.0
  0
ARC
  5
D7
  8
0
 62
     7
 10
34.834612
 20
85.260091000000017
 30
0.0
 40
0.346466
 50
182.10594
 51
267.83486899999991
  0
LINE
  5
D8
  8
0
  6
AIGENLINE001
 62
     7
 10
59.488199999999999
 20
78.678899999999999
 30
0.0
 11
59.488199999999999
 21
112.3869999999999
 31
0.0
  0
LINE
  5
D9
  8
0
 62
     7
 10
35.321399999999997
 20
109.914
 30
0.0
 11
83.655000000000001
 21
109.914
 31
0.0
  0
ARC
  5
DA
  8
0
 62
     7
 10
83.622617000000005
 20
109.04862900000001
 30
0.0
 40
0.8663770000000001
 50
2.120153999999999
 51
87.856155000000001
  0
ARC
  5
DB
  8
0
 62
     7
 10
35.353115999999993
 20
109.0496889999999
 30
0.0
 40
0.865292
 50
92.099968999999973
 51
177.947372
  0
LINE
  5
DC
  8
0
 62
     7
 10
92.926400000000001
 20
167.578
 30
0.0
 11
93.518900000000002
 21
165.3659999999999
 31
0.0
  0
LINE
  5
DD
  8
0
 62
     7
 10
93.518900000000002
 20
165.3659999999999
 30
0.0
 11
94.111599999999996
 21
167.578
 31
0.0
  0
LINE
  5
DE
  8
0
 62
     7
 10
94.111599999999996
 20
167.578
 30
0.0
 11
92.926400000000001
 21
167.578
 31
0.0
  0
LINE
  5
DF
  8
0
 62
     7
 10
94.096999999999994
 20
198.988
 30
0.0
 11
93.504400000000004
 21
201.19999999999999
 31
0.0
  0
LINE
  5
E0
  8
0
 62
     7
 10
93.504400000000004
 20
201.19999999999999
 30
0.0
 11
92.911699999999996
 21
198.988
 31
0.0
  0
LINE
  5
E1
  8
0
 62
     7
 10
92.911699999999996
 20
198.988
 30
0.0
 11
94.096999999999994
 21
198.988
 31
0.0
  0
LINE
  5
E2
  8
0
 62
     7
 10
92.926400000000001
 20
203.41099999999989
 30
0.0
 11
93.518900000000002
 21
201.19999999999999
 31
0.0
  0
LINE
  5
E3
  8
0
 62
     7
 10
93.518900000000002
 20
201.19999999999999
 30
0.0
 11
94.111599999999996
 21
203.41099999999989
 31
0.0
  0
LINE
  5
E4
  8
0
 62
     7
 10
94.111599999999996
 20
203.41099999999989
 30
0.0
 11
92.926400000000001
 21
203.41099999999989
 31
0.0
  0
LINE
  5
E5
  8
0
 62
     7
 10
94.096999999999994
 20
192.322
 30
0.0
 11
93.504400000000004
 21
194.53399999999999
 31
0.0
  0
LINE
  5
E6
  8
0
 62
     7
 10
93.504400000000004
 20
194.53399999999999
 30
0.0
 11
92.911699999999996
 21
192.322
 31
0.0
  0
LINE
  5
E7
  8
0
 62
     7
 10
92.911699999999996
 20
192.322
 30
0.0
 11
94.096999999999994
 21
192.322
 31
0.0
  0
LINE
  5
E8
  8
0
 62
     7
 10
93.504400000000004
 20
165.3659999999999
 30
0.0
 11
93.504400000000004
 21
197.86699999999999
 31
0.0
  0
LINE
  5
E9
  8
0
 62
     7
 10
92.926400000000001
 20
196.745
 30
0.0
 11
93.518900000000002
 21
194.53299999999999
 31
0.0
  0
LINE
  5
EA
  8
0
 62
     7
 10
93.518900000000002
 20
194.53299999999999
 30
0.0
 11
94.111599999999996
 21
196.745
 31
0.0
  0
LINE
  5
EB
  8
0
 62
     7
 10
94.111599999999996
 20
196.745
 30
0.0
 11
92.926400000000001
 21
196.745
 31
0.0
  0
LINE
  5
EC
  8
0
 62
     7
 10
94.096999999999994
 20
208.989
 30
0.0
 11
93.504400000000004
 21
211.19999999999999
 31
0.0
  0
LINE
  5
ED
  8
0
 62
     7
 10
93.504400000000004
 20
211.19999999999999
 30
0.0
 11
92.911699999999996
 21
208.989
 31
0.0
  0
LINE
  5
EE
  8
0
 62
     7
 10
92.911699999999996
 20
208.989
 30
0.0
 11
94.096999999999994
 21
208.989
 31
0.0
  0
LINE
  5
EF
  8
0
 62
     7
 10
93.504400000000004
 20
197.86699999999999
 30
0.0
 11
93.504400000000004
 21
211.19999999999999
 31
0.0
  0
LINE
  5
F0
  8
0
 62
     7
 10
94.204499999999996
 20
165.3659999999999
 30
0.0
 11
80.482799999999997
 21
165.3659999999999
 31
0.0
  0
LINE
  5
F1
  8
0
 62
     7
 10
98.974299999999985
 20
196.745
 30
0.0
 11
99.566599999999994
 21
194.53299999999999
 31
0.0
  0
LINE
  5
F2
  8
0
 62
     7
 10
99.566599999999994
 20
194.53299999999999
 30
0.0
 11
100.15899999999991
 21
196.745
 31
0.0
  0
LINE
  5
F3
  8
0
 62
     7
 10
100.15899999999991
 20
196.745
 30
0.0
 11
98.974299999999985
 21
196.745
 31
0.0
  0
LINE
  5
F4
  8
0
 62
     7
 10
100.1449999999999
 20
208.989
 30
0.0
 11
99.552199999999999
 21
211.19999999999999
 31
0.0
  0
LINE
  5
F5
  8
0
 62
     7
 10
99.552199999999999
 20
211.19999999999999
 30
0.0
 11
98.959800000000016
 21
208.989
 31
0.0
  0
LINE
  5
F6
  8
0
 62
     7
 10
98.959800000000016
 20
208.989
 30
0.0
 11
100.1449999999999
 21
208.989
 31
0.0
  0
LINE
  5
F7
  8
0
 62
     7
 10
99.552199999999999
 20
194.53399999999999
 30
0.0
 11
99.552199999999999
 21
211.19999999999999
 31
0.0
  0
LINE
  5
F8
  8
0
 62
     7
 10
27.8672
 20
183.41200000000001
 30
0.0
 11
28.459800000000001
 21
181.1999999999999
 31
0.0
  0
LINE
  5
F9
  8
0
 62
     7
 10
28.459800000000001
 20
181.1999999999999
 30
0.0
 11
29.052499999999998
 21
183.41200000000001
 31
0.0
  0
LINE
  5
FA
  8
0
 62
     7
 10
29.052499999999998
 20
183.41200000000001
 30
0.0
 11
27.8672
 21
183.41200000000001
 31
0.0
  0
LINE
  5
FB
  8
0
 62
     7
 10
29.0379
 20
208.989
 30
0.0
 11
28.4453
 21
211.19999999999999
 31
0.0
  0
LINE
  5
FC
  8
0
 62
     7
 10
28.4453
 20
211.19999999999999
 30
0.0
 11
27.852599999999999
 21
208.989
 31
0.0
  0
LINE
  5
FD
  8
0
 62
     7
 10
27.852599999999999
 20
208.989
 30
0.0
 11
29.0379
 21
208.989
 31
0.0
  0
LINE
  5
FE
  8
0
 62
     7
 10
28.4453
 20
181.1999999999999
 30
0.0
 11
28.4453
 21
211.19999999999999
 31
0.0
  0
LINE
  5
FF
  8
0
 62
     7
 10
33.7883
 20
211.19999999999999
 30
0.0
 11
27.7453
 21
211.19999999999999
 31
0.0
  0
LINE
  5
100
  8
0
 62
     7
 10
51.467300000000002
 20
181.1999999999999
 30
0.0
 11
27.7453
 21
181.1999999999999
 31
0.0
  0
LINE
  5
101
  8
0
 62
     7
 10
105.886
 20
163.41200000000001
 30
0.0
 11
106.4789999999999
 21
161.1999999999999
 31
0.0
  0
LINE
  5
102
  8
0
 62
     7
 10
106.4789999999999
 20
161.1999999999999
 30
0.0
 11
107.071
 21
163.41200000000001
 31
0.0
  0
LINE
  5
103
  8
0
 62
     7
 10
107.071
 20
163.41200000000001
 30
0.0
 11
105.886
 21
163.41200000000001
 31
0.0
  0
LINE
  5
104
  8
0
 62
     7
 10
107.057
 20
208.989
 30
0.0
 11
106.464
 21
211.19999999999999
 31
0.0
  0
LINE
  5
105
  8
0
 62
     7
 10
106.464
 20
211.19999999999999
 30
0.0
 11
105.872
 21
208.989
 31
0.0
  0
LINE
  5
106
  8
0
 62
     7
 10
105.872
 20
208.989
 30
0.0
 11
107.057
 21
208.989
 31
0.0
  0
LINE
  5
107
  8
0
 62
     7
 10
106.464
 20
161.1999999999999
 30
0.0
 11
106.464
 21
211.19999999999999
 31
0.0
  0
LINE
  5
108
  8
0
 62
     7
 10
107.16499999999991
 20
161.1999999999999
 30
0.0
 11
85.6935
 21
161.1999999999999
 31
0.0
  0
LINE
  5
109
  8
0
 62
     7
 10
100.252
 20
194.53399999999999
 30
0.0
 11
80.338399999999993
 21
194.53399999999999
 31
0.0
  0
LINE
  5
10A
  8
0
 62
     7
 10
94.204499999999996
 20
201.19999999999999
 30
0.0
 11
65.171300000000002
 21
201.19999999999999
 31
0.0
  0
LINE
  5
10B
  8
0
 62
     7
 10
107.16499999999991
 20
211.19999999999999
 30
0.0
 11
84.688599999999994
 21
211.19999999999999
 31
0.0
  0
LINE
  5
10C
  8
0
 62
     7
 10
67.139099999999999
 20
173.54900000000001
 30
0.0
 11
72.804599999999994
 21
173.54900000000001
 31
0.0
  0
LINE
  5
10D
  8
0
 62
     7
 10
54.794899999999998
 20
185.0559999999999
 30
0.0
 11
56.777799999999999
 21
183.91099999999989
 31
0.0
  0
LINE
  5
10E
  8
0
 62
     7
 10
56.777799999999999
 20
183.91099999999989
 30
0.0
 11
55.633000000000003
 21
185.89400000000001
 31
0.0
  0
LINE
  5
10F
  8
0
 62
     7
 10
55.633000000000003
 20
185.89400000000001
 30
0.0
 11
54.794899999999998
 21
185.0559999999999
 31
0.0
  0
LINE
  5
110
  8
0
 62
     7
 10
64.181700000000006
 20
177.34399999999999
 30
0.0
 11
62.198799999999991
 21
178.489
 31
0.0
  0
LINE
  5
111
  8
0
 62
     7
 10
62.198799999999991
 20
178.489
 30
0.0
 11
63.343600000000002
 21
176.50599999999989
 31
0.0
  0
LINE
  5
112
  8
0
 62
     7
 10
63.343600000000002
 20
176.50599999999989
 30
0.0
 11
64.181700000000006
 21
177.34399999999999
 31
0.0
  0
LINE
  5
113
  8
0
 62
     7
 10
67.139099999999999
 20
173.54900000000001
 30
0.0
 11
53.407600000000002
 21
187.28099999999989
 31
0.0
  0
LINE
  5
114
  8
0
 62
     7
 10
36.700000000000003
 20
144.7359999999999
 30
0.0
 11
34.488199999999992
 21
144.14299999999989
 31
0.0
  0
LINE
  5
115
  8
0
 62
     7
 10
34.488199999999992
 20
144.14299999999989
 30
0.0
 11
36.700000000000003
 21
143.55000000000001
 31
0.0
  0
LINE
  5
116
  8
0
 62
     7
 10
36.700000000000003
 20
143.55000000000001
 30
0.0
 11
36.700000000000003
 21
144.7359999999999
 31
0.0
  0
LINE
  5
117
  8
0
 62
     7
 10
82.276799999999994
 20
143.565
 30
0.0
 11
84.488600000000005
 21
144.1579999999999
 31
0.0
  0
LINE
  5
118
  8
0
 62
     7
 10
84.488600000000005
 20
144.1579999999999
 30
0.0
 11
82.276799999999994
 21
144.74999999999989
 31
0.0
  0
LINE
  5
119
  8
0
 62
     7
 10
82.276799999999994
 20
144.74999999999989
 30
0.0
 11
82.276799999999994
 21
143.565
 31
0.0
  0
LINE
  5
11A
  8
0
 62
     7
 10
34.488399999999999
 20
144.14299999999989
 30
0.0
 11
84.488399999999999
 21
144.14299999999989
 31
0.0
  0
LINE
  5
11B
  8
0
 62
     7
 10
41.6999
 20
152.02099999999999
 30
0.0
 11
39.488100000000003
 21
151.429
 31
0.0
  0
LINE
  5
11C
  8
0
 62
     7
 10
39.488100000000003
 20
151.429
 30
0.0
 11
41.6999
 21
150.83600000000001
 31
0.0
  0
LINE
  5
11D
  8
0
 62
     7
 10
41.6999
 20
150.83600000000001
 30
0.0
 11
41.6999
 21
152.02099999999999
 31
0.0
  0
LINE
  5
11E
  8
0
 62
     7
 10
77.276899999999983
 20
150.851
 30
0.0
 11
79.488699999999994
 21
151.4429999999999
 31
0.0
  0
LINE
  5
11F
  8
0
 62
     7
 10
79.488699999999994
 20
151.4429999999999
 30
0.0
 11
77.276899999999983
 21
152.036
 31
0.0
  0
LINE
  5
120
  8
0
 62
     7
 10
77.276899999999983
 20
152.036
 30
0.0
 11
77.276899999999983
 21
150.851
 31
0.0
  0
LINE
  5
121
  8
0
 62
     7
 10
39.488300000000002
 20
151.429
 30
0.0
 11
79.488500000000002
 21
151.429
 31
0.0
  0
LINE
  5
122
  8
0
 62
     7
 10
84.488399999999999
 20
143.4429999999999
 30
0.0
 11
84.488399999999999
 21
160.26400000000001
 31
0.0
  0
LINE
  5
123
  8
0
 62
     7
 10
34.488399999999999
 20
143.4429999999999
 30
0.0
 11
34.488399999999999
 21
160.26400000000001
 31
0.0
  0
LINE
  5
124
  8
0
 62
     7
 10
38.654899999999991
 20
150.7289999999999
 30
0.0
 11
38.654899999999991
 21
164.64199999999991
 31
0.0
  0
LINE
  5
125
  8
0
 62
     7
 10
80.321899999999985
 20
150.7289999999999
 30
0.0
 11
80.321899999999985
 21
164.64199999999991
 31
0.0
  0
LINE
  5
126
  8
0
 62
     7
 10
70.877600000000001
 20
195.667
 30
0.0
 11
65.0214
 21
195.667
 31
0.0
  0
LINE
  5
127
  8
0
 62
     7
 10
63.5336
 20
197.99299999999991
 30
0.0
 11
61.550800000000002
 21
199.13800000000001
 31
0.0
  0
LINE
  5
128
  8
0
 62
     7
 10
61.550800000000002
 20
199.13800000000001
 30
0.0
 11
62.695599999999999
 21
197.155
 31
0.0
  0
LINE
  5
129
  8
0
 62
     7
 10
62.695599999999999
 20
197.155
 30
0.0
 11
63.5336
 21
197.99299999999991
 31
0.0
  0
LINE
  5
12A
  8
0
 62
     7
 10
55.443100000000001
 20
204.40799999999999
 30
0.0
 11
57.426000000000002
 21
203.26300000000001
 31
0.0
  0
LINE
  5
12B
  8
0
 62
     7
 10
57.426000000000002
 20
203.26300000000001
 30
0.0
 11
56.281199999999998
 21
205.2459999999999
 31
0.0
  0
LINE
  5
12C
  8
0
 62
     7
 10
56.281199999999998
 20
205.2459999999999
 30
0.0
 11
55.443100000000001
 21
204.40799999999999
 31
0.0
  0
LINE
  5
12D
  8
0
 62
     7
 10
54.892600000000002
 20
205.79599999999999
 30
0.0
 11
65.0214
 21
195.667
 31
0.0
  0
ARC
  5
12E
  8
0
 62
     7
 10
59.488388999999998
 20
181.199904
 30
0.0
 40
5.0000720000000003
 50
0.001984
 51
90.001953999999998
  0
ARC
  5
12F
  8
0
 62
     7
 10
59.488218999999987
 20
181.200076
 30
0.0
 40
4.9999000000000002
 50
90.0
 51
179.99996999999991
  0
ARC
  5
130
  8
0
 62
     7
 10
59.488303000000002
 20
181.1999899999999
 30
0.0
 40
4.9999839999999987
 50
179.99898300000001
 51
269.99903299999988
  0
ARC
  5
131
  8
0
 62
     7
 10
59.488303000000002
 20
181.200164
 30
0.0
 40
5.000157999999999
 50
269.99903299999988
 51
359.9990029999999
  0
ARC
  5
132
  8
0
 62
     7
 10
59.488216999999999
 20
181.200076
 30
0.0
 40
3.8333829999999991
 50
0.00001
 51
89.999980000000008
  0
ARC
  5
133
  8
0
 62
     7
 10
59.488391
 20
181.2002479999999
 30
0.0
 40
3.8332099999999989
 50
90.002574999999993
 51
180.00258500000001
  0
ARC
  5
134
  8
0
 62
     7
 10
59.488388999999998
 20
181.199904
 30
0.0
 40
3.8332089999999992
 50
179.9973949999999
 51
269.99744500000003
  0
ARC
  5
135
  8
0
 62
     7
 10
59.488216999999999
 20
181.20007699999999
 30
0.0
 40
3.8333829999999991
 50
270.00002000000001
 51
359.99998999999991
  0
LINE
  5
136
  8
0
  6
AIGENLINE001
 62
     7
 10
52.167299999999997
 20
181.1999999999999
 30
0.0
 11
66.739199999999997
 21
181.1999999999999
 31
0.0
  0
LINE
  5
137
  8
0
 62
     7
 10
47.488199999999999
 20
194.0329999999999
 30
0.0
 11
51.488300000000002
 21
194.0329999999999
 31
0.0
  0
ARC
  5
138
  8
0
 62
     7
 10
51.468984000000013
 20
194.5526899999999
 30
0.0
 40
0.519567
 50
272.13181600000001
 51
357.88793399999992
  0
ARC
  5
139
  8
0
 62
     7
 10
47.507674999999999
 20
194.552852
 30
0.0
 40
0.5197350000000001
 50
182.12930099999991
 51
267.85098900000003
  0
LINE
  5
13A
  8
0
  6
AIGENLINE001
 62
     7
 10
52.405099999999997
 20
209.28499999999991
 30
0.0
 11
52.405099999999997
 21
213.77000000000001
 31
0.0
  0
LINE
  5
13B
  8
0
  6
AIGENLINE001
 62
     7
 10
66.571700000000007
 20
209.28499999999991
 30
0.0
 11
66.571700000000007
 21
213.77000000000001
 31
0.0
  0
ARC
  5
13C
  8
0
 62
     7
 10
59.488216999999999
 20
201.200188
 30
0.0
 40
2.9166369999999988
 50
0.00001
 51
89.999980000000008
  0
ARC
  5
13D
  8
0
 62
     7
 10
59.48821800000001
 20
201.200188
 30
0.0
 40
2.9166369999999988
 50
90.0
 51
179.99996999999991
  0
ARC
  5
13E
  8
0
 62
     7
 10
59.488216999999999
 20
201.200188
 30
0.0
 40
2.916636
 50
179.99996999999991
 51
270.00002000000001
  0
ARC
  5
13F
  8
0
 62
     7
 10
59.488216999999999
 20
201.20018899999999
 30
0.0
 40
2.9166369999999988
 50
270.00002000000001
 51
359.99998999999991
  0
LINE
  5
140
  8
0
 62
     7
 10
40.988300000000002
 20
165.3659999999999
 30
0.0
 11
77.988500000000002
 21
165.3659999999999
 31
0.0
  0
LINE
  5
141
  8
0
 62
     7
 10
38.654899999999991
 20
167.6999999999999
 30
0.0
 11
38.654899999999991
 21
192.1999999999999
 31
0.0
  0
ARC
  5
142
  8
0
 62
     7
 10
40.988281999999991
 20
167.6998669999999
 30
0.0
 40
2.3333779999999988
 50
179.99996999999991
 51
270.00002000000001
  0
LINE
  5
143
  8
0
 62
     7
 10
80.321899999999985
 20
167.6999999999999
 30
0.0
 11
80.321899999999985
 21
192.1999999999999
 31
0.0
  0
ARC
  5
144
  8
0
 62
     7
 10
77.988496999999995
 20
167.6998679999999
 30
0.0
 40
2.3333779999999988
 50
270.00002000000001
 51
359.99998999999991
  0
LINE
  5
145
  8
0
 62
     7
 10
40.988300000000002
 20
194.53399999999999
 30
0.0
 11
77.988500000000002
 21
194.53399999999999
 31
0.0
  0
ARC
  5
146
  8
0
 62
     7
 10
77.988496999999995
 20
192.20016299999989
 30
0.0
 40
2.3333779999999988
 50
0.00001
 51
89.999980000000008
  0
ARC
  5
147
  8
0
 62
     7
 10
40.988283000000003
 20
192.20016299999989
 30
0.0
 40
2.3333779999999988
 50
90.0
 51
179.99996999999991
  0
LINE
  5
148
  8
0
  6
AIGENLINE001
 62
     7
 10
54.170699999999989
 20
201.19999999999999
 30
0.0
 11
64.471199999999996
 21
201.19999999999999
 31
0.0
  0
LINE
  5
149
  8
0
 62
     7
 10
84.488399999999999
 20
163.1999999999999
 30
0.0
 11
84.488399999999999
 21
210.6999999999999
 31
0.0
  0
LINE
  5
14A
  8
0
 62
     7
 10
36.488300000000002
 20
161.1999999999999
 30
0.0
 11
82.488500000000002
 21
161.1999999999999
 31
0.0
  0
ARC
  5
14B
  8
0
 62
     7
 10
82.488508999999979
 20
163.19985600000001
 30
0.0
 40
1.9998910000000001
 50
270.00002000000001
 51
359.99998999999991
  0
LINE
  5
14C
  8
0
 62
     7
 10
34.488399999999999
 20
163.1999999999999
 30
0.0
 11
34.488399999999999
 21
210.6999999999999
 31
0.0
  0
LINE
  5
14D
  8
0
  6
AIGENLINE001
 62
     7
 10
59.488199999999999
 20
156.881
 30
0.0
 11
59.488199999999999
 21
215.01599999999999
 31
0.0
  0
ARC
  5
14E
  8
0
 62
     7
 10
36.48827
 20
163.19985500000001
 30
0.0
 40
1.9998899999999999
 50
179.99996999999991
 51
270.00002000000001
  0
LINE
  5
14F
  8
0
 62
     7
 10
34.988300000000002
 20
211.19999999999999
 30
0.0
 11
83.988500000000016
 21
211.19999999999999
 31
0.0
  0
ARC
  5
150
  8
0
 62
     7
 10
83.969199000000003
 20
210.68095600000001
 30
0.0
 40
0.5195610000000001
 50
2.130487
 51
87.869502999999995
  0
ARC
  5
151
  8
0
 62
     7
 10
35.007576
 20
210.68096199999999
 30
0.0
 40
0.519555
 50
92.129931000000013
 51
177.87003899999999
  0
LINE
  5
152
  8
0
 62
     7
 10
137.1939999999999
 20
185.0559999999999
 30
0.0
 11
139.17699999999999
 21
183.91099999999989
 31
0.0
  0
LINE
  5
153
  8
0
 62
     7
 10
139.17699999999999
 20
183.91099999999989
 30
0.0
 11
138.03200000000001
 21
185.89400000000001
 31
0.0
  0
LINE
  5
154
  8
0
 62
     7
 10
138.03200000000001
 20
185.89400000000001
 30
0.0
 11
137.1939999999999
 21
185.0559999999999
 31
0.0
  0
LINE
  5
155
  8
0
 62
     7
 10
133.43700000000001
 20
189.6509999999999
 30
0.0
 11
139.17699999999999
 21
183.91099999999989
 31
0.0
  0
LINE
  5
156
  8
0
 62
     7
 10
159.27199999999999
 20
167.833
 30
0.0
 11
161.25499999999991
 21
166.6879999999999
 31
0.0
  0
LINE
  5
157
  8
0
 62
     7
 10
161.25499999999991
 20
166.6879999999999
 30
0.0
 11
160.11000000000001
 21
168.67099999999991
 31
0.0
  0
LINE
  5
158
  8
0
 62
     7
 10
160.11000000000001
 20
168.67099999999991
 30
0.0
 11
159.27199999999999
 21
167.833
 31
0.0
  0
LINE
  5
159
  8
0
 62
     7
 10
161.25499999999991
 20
166.6879999999999
 30
0.0
 11
157.417
 21
170.5259999999999
 31
0.0
  0
ARC
  5
15A
  8
0
  6
AIGENLINE002
 62
     7
 10
141.887585
 20
181.1999899999999
 30
0.0
 40
3.8332969999999991
 50
0.001297
 51
90.001266999999999
  0
ARC
  5
15B
  8
0
  6
AIGENLINE002
 62
     7
 10
141.88741399999989
 20
181.1999899999999
 30
0.0
 40
3.8332969999999991
 50
89.998712999999995
 51
179.99868299999989
  0
ARC
  5
15C
  8
0
  6
AIGENLINE002
 62
     7
 10
141.88749799999999
 20
181.200076
 30
0.0
 40
3.8333809999999988
 50
179.99996999999991
 51
270.00002000000001
  0
ARC
  5
15D
  8
0
  6
AIGENLINE002
 62
     7
 10
141.88749799999999
 20
181.20007699999999
 30
0.0
 40
3.8333829999999991
 50
270.00002000000001
 51
359.99998999999991
  0
LINE
  5
15E
  8
0
  6
AIGENLINE003
 62
     7
 10
134.26900000000001
 20
181.1999999999999
 30
0.0
 11
150.02299999999991
 21
181.1999999999999
 31
0.0
  0
LINE
  5
15F
  8
0
  6
AIGENLINE001
 62
     7
 10
141.887
 20
162.77799999999999
 30
0.0
 11
141.887
 21
214.69
 31
0.0
  0
LINE
  5
160
  8
0
  6
AIGENLINE003
 62
     7
 10
121.74299999999999
 20
211.19999999999999
 30
0.0
 11
161.74299999999991
 21
211.19999999999999
 31
0.0
  0
ARC
  5
161
  8
0
 62
     7
 10
160.07599500000001
 20
167.866612
 30
0.0
 40
1.666747999999999
 50
270.00002000000001
 51
359.99998999999991
  0
LINE
  5
162
  8
0
 62
     7
 10
161.74299999999991
 20
156.68299999999991
 30
0.0
 11
161.74299999999991
 21
165.03200000000001
 31
0.0
  0
LINE
  5
163
  8
0
 62
     7
 10
121.74299999999999
 20
156.68299999999991
 30
0.0
 11
121.74299999999999
 21
165.03200000000001
 31
0.0
  0
LINE
  5
164
  8
0
 62
     7
 10
156.12700000000001
 20
183.41200000000001
 30
0.0
 11
156.71899999999999
 21
181.1999999999999
 31
0.0
  0
LINE
  5
165
  8
0
 62
     7
 10
156.71899999999999
 20
181.1999999999999
 30
0.0
 11
157.31200000000001
 21
183.41200000000001
 31
0.0
  0
LINE
  5
166
  8
0
 62
     7
 10
157.31200000000001
 20
183.41200000000001
 30
0.0
 11
156.12700000000001
 21
183.41200000000001
 31
0.0
  0
LINE
  5
167
  8
0
 62
     7
 10
157.29699999999991
 20
208.989
 30
0.0
 11
156.70500000000001
 21
211.19999999999999
 31
0.0
  0
LINE
  5
168
  8
0
 62
     7
 10
156.70500000000001
 20
211.19999999999999
 30
0.0
 11
156.11199999999999
 21
208.989
 31
0.0
  0
LINE
  5
169
  8
0
 62
     7
 10
156.11199999999999
 20
208.989
 30
0.0
 11
157.29699999999991
 21
208.989
 31
0.0
  0
LINE
  5
16A
  8
0
 62
     7
 10
156.70500000000001
 20
181.1999999999999
 30
0.0
 11
156.70500000000001
 21
211.19999999999999
 31
0.0
  0
LINE
  5
16B
  8
0
 62
     7
 10
161.74299999999991
 20
167.86699999999999
 30
0.0
 11
161.74299999999991
 21
211.19999999999999
 31
0.0
  0
LINE
  5
16C
  8
0
 62
     7
 10
161.74299999999991
 20
211.19999999999999
 30
0.0
 11
170.41900000000001
 21
211.19999999999999
 31
0.0
  0
LINE
  5
16D
  8
0
 62
     7
 10
113.7939999999999
 20
211.19999999999999
 30
0.0
 11
121.74299999999999
 21
211.19999999999999
 31
0.0
  0
LINE
  5
16E
  8
0
 62
     7
 10
123.40899999999991
 20
166.1999999999999
 30
0.0
 11
160.07599999999999
 21
166.1999999999999
 31
0.0
  0
LINE
  5
16F
  8
0
 62
     7
 10
121.74299999999999
 20
167.86699999999999
 30
0.0
 11
121.74299999999999
 21
211.19999999999999
 31
0.0
  0
ARC
  5
170
  8
0
 62
     7
 10
123.409268
 20
167.86661099999989
 30
0.0
 40
1.666747
 50
179.99996999999991
 51
270.00002000000001
  0
LINE
  5
171
  8
0
 62
     7
 10
153.19999999999999
 20
213.50999999999991
 30
0.0
 11
151.86600000000001
 21
211.19999999999999
 31
0.0
  0
LINE
  5
172
  8
0
 62
     7
 10
151.86600000000001
 20
211.19999999999999
 30
0.0
 11
150.53200000000001
 21
213.50999999999991
 31
0.0
  0
LINE
  5
173
  8
0
 62
     7
 10
150.53200000000001
 20
213.50999999999991
 30
0.0
 11
153.19999999999999
 21
213.50999999999991
 31
0.0
  0
TEXT
  5
174
  8
_________2
 62
     7
 10
39.42500033333333
 20
13.603400000000001
 30
0.0
 40
3.6545800000000002
  1
早川
 41
0.5
 72
     1
 11
41.313200000000002
 21
13.603400000000001
 31
0.0
  0
TEXT
  5
175
  8
_________2
 62
     7
 10
24.586400000000001
 20
0.707627
 30
0.0
 40
3.9357000000000002
  1
実容量：3.7L、重量：8kg
 41
0.5
  0
TEXT
  5
176
  8
_________2
 62
     7
 10
109.179
 20
24.226099999999999
 30
0.0
 40
3.9357000000000002
  1
プラス 手洗器
 41
0.5
  0
LINE
  5
177
  8
_________2
 62
     7
 10
205.30099999999999
 20
127.411
 30
0.0
 11
183.55099999999999
 21
127.411
 31
0.0
  0
LINE
  5
178
  8
_________2
 62
     7
 10
100.2999999999999
 20
-4.0910799999999998
 30
0.0
 11
100.2999999999999
 21
-21.070999999999991
 31
0.0
  0
LINE
  5
179
  8
_________2
 62
     7
 10
100.2999999999999
 20
275.93099999999993
 30
0.0
 11
100.2999999999999
 21
258.911
 31
0.0
  0
LINE
  5
17A
  8
_________2
 62
     7
 10
17.049199999999988
 20
127.411
 30
0.0
 11
-4.7012099999999988
 21
127.411
 31
0.0
  0
LINE
  5
17B
  8
_________2
 62
     7
 10
76.740700000000004
 20
29.8047
 30
0.0
 11
74.554400000000001
 21
29.8047
 31
0.0
  0
LINE
  5
17C
  8
_________2
 62
     7
 10
77.2333
 20
29.8047
 30
0.0
 11
76.981099999999984
 21
29.8047
 31
0.0
  0
LINE
  5
17D
  8
_________2
 62
     7
 10
77.725999999999999
 20
29.8047
 30
0.0
 11
80.650899999999993
 21
29.8047
 31
0.0
  0
LINE
  5
17E
  8
_________2
 62
     7
 10
77.2333
 20
29.8047
 30
0.0
 11
77.485500000000002
 21
29.8047
 31
0.0
  0
LINE
  5
17F
  8
_________2
 62
     7
 10
70.837100000000007
 20
29.8047
 30
0.0
 11
68.650199999999998
 21
29.8047
 31
0.0
  0
LINE
  5
180
  8
_________2
 62
     7
 10
71.329099999999997
 20
29.8047
 30
0.0
 11
71.077600000000004
 21
29.8047
 31
0.0
  0
LINE
  5
181
  8
_________2
 62
     7
 10
71.329099999999997
 20
30.2974
 30
0.0
 11
71.329099999999997
 21
32.484400000000001
 31
0.0
  0
LINE
  5
182
  8
_________2
 62
     7
 10
71.329099999999997
 20
29.8047
 30
0.0
 11
71.329099999999997
 21
30.057300000000001
 31
0.0
  0
LINE
  5
183
  8
_________2
 62
     7
 10
71.821700000000007
 20
29.8047
 30
0.0
 11
74.008700000000005
 21
29.8047
 31
0.0
  0
LINE
  5
184
  8
_________2
 62
     7
 10
71.329099999999997
 20
29.8047
 30
0.0
 11
71.581299999999985
 21
29.8047
 31
0.0
  0
LINE
  5
185
  8
_________2
 62
     7
 10
71.329099999999997
 20
29.312799999999999
 30
0.0
 11
71.329099999999997
 21
27.126200000000001
 31
0.0
  0
LINE
  5
186
  8
_________2
 62
     7
 10
71.329099999999997
 20
29.8047
 30
0.0
 11
71.329099999999997
 21
29.5532
 31
0.0
  0
LINE
  5
187
  8
_________2
 62
     7
 10
75.040199999999999
 20
28.5852
 30
0.0
 11
80.218199999999996
 21
27.720400000000001
 31
0.0
  0
LINE
  5
188
  8
_________2
 62
     7
 10
75.040199999999999
 20
31.024699999999999
 30
0.0
 11
80.218199999999996
 21
31.8901
 31
0.0
  0
LINE
  5
189
  8
_________2
 62
     7
 10
80.218199999999996
 20
27.720400000000001
 30
0.0
 11
80.218199999999996
 21
31.8901
 31
0.0
  0
LINE
  5
18A
  8
_________2
 62
     7
 10
75.040199999999999
 20
28.5852
 30
0.0
 11
75.040199999999999
 21
31.024699999999999
 31
0.0
  0
ARC
  5
18B
  8
_________2
 62
     7
 10
71.282501999999994
 20
29.757801000000001
 30
0.0
 40
1.267714
 50
2.1220840000000001
 51
87.894083999999992
  0
ARC
  5
18C
  8
_________2
 62
     7
 10
71.375640000000004
 20
29.758545999999999
 30
0.0
 40
1.2669680000000001
 50
92.105782999999988
 51
177.91037
  0
ARC
  5
18D
  8
_________2
 62
     7
 10
71.376013999999998
 20
29.851671
 30
0.0
 40
1.2673680000000001
 50
182.12203600000001
 51
267.877993
  0
ARC
  5
18E
  8
_________2
 62
     7
 10
71.282195999999999
 20
29.852347999999999
 30
0.0
 40
1.2680439999999991
 50
272.11916400000001
 51
357.84848499999993
  0
ARC
  5
18F
  8
_________2
 62
     7
 10
71.248716999999985
 20
29.724731999999989
 30
0.0
 40
2.1668310000000002
 50
2.1161439999999989
 51
87.874379000000005
  0
ARC
  5
190
  8
_________2
 62
     7
 10
71.408756000000011
 20
29.726146
 30
0.0
 40
2.165392999999999
 50
92.108508999999998
 51
177.91986499999999
  0
ARC
  5
191
  8
_________2
 62
     7
 10
71.409094999999994
 20
29.884751999999999
 30
0.0
 40
2.1657829999999998
 50
182.117133
 51
267.88289700000001
  0
ARC
  5
192
  8
_________2
 62
     7
 10
71.249115000000003
 20
29.885429999999989
 30
0.0
 40
2.1664590000000001
 50
272.11546800000002
 51
357.86560400000002
  0
TEXT
  5
193
  8
_________2
 62
     7
 10
104.605
 20
1.6794899999999999
 30
0.0
 40
3.0923400000000001
  1
図番
 41
0.5
  0
LINE
  5
194
  8
_________2
 62
     7
 10
103.55
 20
5.9087199999999989
 30
0.0
 11
183.55099999999999
 21
5.9087199999999989
 31
0.0
  0
TEXT
  5
195
  8
_________2
 62
     7
 10
104.605
 20
11.679299999999991
 30
0.0
 40
3.0923400000000001
  1
品番
 41
0.5
  0
TEXT
  5
196
  8
_________2
 62
     7
 10
104.605
 20
31.8184
 30
0.0
 40
3.0923400000000001
  1
名称
 41
0.5
  0
TEXT
  5
197
  8
_________2
 62
     7
 10
91.844758333333345
 20
26.822299999999998
 30
0.0
 40
3.6545800000000002
  1
mm
 41
0.5
 72
     1
 11
93.367500000000007
 21
26.822299999999998
 31
0.0
  0
TEXT
  5
198
  8
_________2
 62
     7
 10
85.642899999999983
 20
31.8184
 30
0.0
 40
3.0923400000000001
  1
単位
 41
0.5
  0
TEXT
  5
199
  8
_________2
 62
     7
 10
85.642899999999983
 20
19.410799999999991
 30
0.0
 40
3.0923400000000001
  1
尺度
 41
0.5
  0
TEXT
  5
19A
  8
_________2
 62
     7
 10
90.548458666666676
 20
13.218199999999991
 30
0.0
 40
3.6545800000000002
  1
1 ： 6
 41
0.5
 72
     1
 11
93.959400000000016
 21
13.218199999999991
 31
0.0
  0
TEXT
  5
19B
  8
_________2
 62
     7
 10
137.15448749999999
 20
9.1082000000000001
 30
0.0
 40
3.9357000000000002
  1
GA6033R
 41
0.5
 72
     1
 11
143.55000000000001
 21
9.1082000000000001
 31
0.0
  0
TEXT
  5
19C
  8
_________2
 62
     7
 10
137.15448749999999
 20
-0.8926299999999999
 30
0.0
 40
3.9357000000000002
  1
GA6033R
 41
0.5
 72
     1
 11
143.55000000000001
 21
-0.8926299999999999
 31
0.0
  0
TEXT
  5
19D
  8
_________2
 62
     7
 10
20.790090666666661
 20
13.603400000000001
 30
0.0
 40
3.6545800000000002
  1
菅原
 41
0.5
 72
     1
 11
22.73919999999999
 21
13.603400000000001
 31
0.0
  0
TEXT
  5
19E
  8
_________2
 62
     7
 10
67.785399999999996
 20
13.218199999999991
 30
0.0
 40
3.6545800000000002
  1
14.02.07
 41
0.5
  0
TEXT
  5
19F
  8
_________2
 62
     7
 10
66.592699999999994
 20
19.410799999999991
 30
0.0
 40
3.0923400000000001
  1
日付
 41
0.5
  0
TEXT
  5
1A0
  8
_________2
 62
     7
 10
29.638999999999999
 20
19.410799999999991
 30
0.0
 40
3.0923400000000001
  1
検図
 41
0.5
  0
TEXT
  5
1A1
  8
_________2
 62
     7
 10
18.020700000000001
 20
5.21143
 30
0.0
 40
3.0923400000000001
  1
備考
 41
0.5
  0
TEXT
  5
1A2
  8
_________2
 62
     7
 10
18.020700000000001
 20
19.410799999999991
 30
0.0
 40
3.0923400000000001
  1
製図
 41
0.5
  0
TEXT
  5
1A3
  8
_________2
 62
     7
 10
23.788165333333328
 20
27.936800000000002
 30
0.0
 40
4.4979399999999989
  1
セラトレーディング株式会社
 41
0.5
 72
     1
 11
41.180199999999999
 21
27.936800000000002
 31
0.0
  0
LINE
  5
1A4
  8
_________2
 62
     7
 10
183.55099999999999
 20
-4.0910799999999998
 30
0.0
 11
17.049199999999988
 21
-4.0910799999999998
 31
0.0
  0
LINE
  5
1A5
  8
_________2
 62
     7
 10
17.049199999999988
 20
-4.0910799999999998
 30
0.0
 11
17.049199999999988
 21
258.911
 31
0.0
  0
LINE
  5
1A6
  8
_________2
 62
     7
 10
17.049199999999988
 20
258.911
 30
0.0
 11
183.55099999999999
 21
258.911
 31
0.0
  0
LINE
  5
1A7
  8
_________2
 62
     7
 10
183.55099999999999
 20
258.911
 30
0.0
 11
183.55099999999999
 21
-4.0910799999999998
 31
0.0
  0
LINE
  5
1A8
  8
_________2
 62
     7
 10
65.549599999999998
 20
9.4092999999999982
 30
0.0
 11
65.549599999999998
 21
35.909100000000002
 31
0.0
  0
LINE
  5
1A9
  8
_________2
 62
     7
 10
84.549400000000006
 20
9.4092999999999982
 30
0.0
 11
84.549400000000006
 21
35.909100000000002
 31
0.0
  0
LINE
  5
1AA
  8
_________2
 62
     7
 10
103.55
 20
-4.0910799999999998
 30
0.0
 11
103.55
 21
35.909100000000002
 31
0.0
  0
LINE
  5
1AB
  8
_________2
 62
     7
 10
28.548999999999999
 20
9.4092999999999982
 30
0.0
 11
28.548999999999999
 21
23.409199999999998
 31
0.0
  0
LINE
  5
1AC
  8
_________2
 62
     7
 10
17.049199999999988
 20
9.4092999999999982
 30
0.0
 11
103.55
 21
9.4092999999999982
 31
0.0
  0
LINE
  5
1AD
  8
_________2
 62
     7
 10
17.049199999999988
 20
23.409199999999998
 30
0.0
 11
103.55
 21
23.409199999999998
 31
0.0
  0
LINE
  5
1AE
  8
_________2
 62
     7
 10
103.55
 20
15.9085
 30
0.0
 11
183.55099999999999
 21
15.9085
 31
0.0
  0
LINE
  5
1AF
  8
_________2
 62
     7
 10
17.049199999999988
 20
35.909100000000002
 30
0.0
 11
183.55099999999999
 21
35.909100000000002
 31
0.0
  0
ENDSEC
  0
EOF
