  0
SECTION
  2
HEADER
  9
$ACADVER
  1
AC1009
  9
$INSBASE
 10
0.0
 20
0.0
 30
0.0
  9
$EXTMIN
 10
0.238402
 20
0.447865
 30
0.0
  9
$EXTMAX
 10
210.24000000000001
 20
297.44999999999999
 30
0.0
  9
$LIMMIN
 10
0.0
 20
0.0
  9
$LIMMAX
 10
12.0
 20
9.0
  9
$ORTHOMODE
 70
     0
  9
$REGENMODE
 70
     1
  9
$FILLMODE
 70
     1
  9
$QTEXTMODE
 70
     0
  9
$MIRRTEXT
 70
     1
  9
$DRAGMODE
 70
     2
  9
$LTSCALE
 40
1.0
  9
$OSMODE
 70
    37
  9
$ATTMODE
 70
     1
  9
$TEXTSIZE
 40
0.0
  9
$TRACEWID
 40
0.05
  9
$TEXTSTYLE
  7
STANDARD
  9
$CLAYER
  8
0
  9
$CELTYPE
  6
CONTINUOUS
  9
$CECOLOR
 62
   256
  9
$DIMSCALE
 40
1.0
  9
$DIMASZ
 40
0.18
  9
$DIMEXO
 40
0.0625
  9
$DIMDLI
 40
0.38
  9
$DIMRND
 40
0.0
  9
$DIMDLE
 40
0.0
  9
$DIMEXE
 40
0.18
  9
$DIMTP
 40
0.0
  9
$DIMTM
 40
0.0
  9
$DIMTXT
 40
0.18
  9
$DIMCEN
 40
0.09
  9
$DIMTSZ
 40
0.0
  9
$DIMTOL
 70
     0
  9
$DIMLIM
 70
     0
  9
$DIMTIH
 70
     1
  9
$DIMTOH
 70
     1
  9
$DIMSE1
 70
     0
  9
$DIMSE2
 70
     0
  9
$DIMTAD
 70
     0
  9
$DIMZIN
 70
     0
  9
$DIMBLK
  1

  9
$DIMASO
 70
     1
  9
$DIMSHO
 70
     1
  9
$DIMPOST
  1

  9
$DIMAPOST
  1

  9
$DIMALT
 70
     0
  9
$DIMALTD
 70
     2
  9
$DIMALTF
 40
25.399999999999999
  9
$DIMLFAC
 40
1.0
  9
$DIMTOFL
 70
     0
  9
$DIMTVP
 40
0.0
  9
$DIMTIX
 70
     0
  9
$DIMSOXD
 70
     0
  9
$DIMSAH
 70
     0
  9
$DIMBLK1
  1

  9
$DIMBLK2
  1

  9
$DIMSTYLE
  2
STANDARD
  9
$DIMCLRD
 70
     0
  9
$DIMCLRE
 70
     0
  9
$DIMCLRT
 70
     0
  9
$DIMTFAC
 40
1.0
  9
$DIMGAP
 40
0.09
  9
$LUNITS
 70
     2
  9
$LUPREC
 70
     4
  9
$SKETCHINC
 40
0.1
  9
$FILLETRAD
 40
0.0
  9
$AUNITS
 70
     0
  9
$AUPREC
 70
     0
  9
$MENU
  1
.
  9
$ELEVATION
 40
0.0
  9
$PELEVATION
 40
0.0
  9
$THICKNESS
 40
0.0
  9
$LIMCHECK
 70
     0
  9
$BLIPMODE
 70
     0
  9
$CHAMFERA
 40
0.0
  9
$CHAMFERB
 40
0.0
  9
$SKPOLY
 70
     0
  9
$TDCREATE
 40
2444972.375
  9
$TDUPDATE
 40
2457829.2498058681
  9
$TDINDWG
 40
0.0000277778
  9
$TDUSRTIMER
 40
0.0000277778
  9
$USRTIMER
 70
     1
  9
$ANGBASE
 50
0.0
  9
$ANGDIR
 70
     0
  9
$PDMODE
 70
     0
  9
$PDSIZE
 40
0.0
  9
$PLINEWID
 40
0.0
  9
$COORDS
 70
     1
  9
$SPLFRAME
 70
     0
  9
$SPLINETYPE
 70
     6
  9
$SPLINESEGS
 70
     8
  9
$ATTDIA
 70
     1
  9
$ATTREQ
 70
     1
  9
$HANDLING
 70
     1
  9
$HANDSEED
  5
275
  9
$SURFTAB1
 70
     6
  9
$SURFTAB2
 70
     6
  9
$SURFTYPE
 70
     6
  9
$SURFU
 70
     6
  9
$SURFV
 70
     6
  9
$UCSNAME
  2

  9
$UCSORG
 10
0.0
 20
0.0
 30
0.0
  9
$UCSXDIR
 10
1.0
 20
0.0
 30
0.0
  9
$UCSYDIR
 10
0.0
 20
1.0
 30
0.0
  9
$PUCSNAME
  2

  9
$PUCSORG
 10
0.0
 20
0.0
 30
0.0
  9
$PUCSXDIR
 10
1.0
 20
0.0
 30
0.0
  9
$PUCSYDIR
 10
0.0
 20
1.0
 30
0.0
  9
$USERI1
 70
     0
  9
$USERI2
 70
     0
  9
$USERI3
 70
     0
  9
$USERI4
 70
     0
  9
$USERI5
 70
     0
  9
$USERR1
 40
0.0
  9
$USERR2
 40
0.0
  9
$USERR3
 40
0.0
  9
$USERR4
 40
0.0
  9
$USERR5
 40
0.0
  9
$WORLDVIEW
 70
     1
  9
$SHADEDGE
 70
     3
  9
$SHADEDIF
 70
    70
  9
$TILEMODE
 70
     1
  9
$MAXACTVP
 70
    48
  9
$PLIMCHECK
 70
     0
  9
$PEXTMIN
 10
1.0000000000000000E+020
 20
1.0000000000000000E+020
 30
1.0000000000000000E+020
  9
$PEXTMAX
 10
-1.0000000000000000E+020
 20
-1.0000000000000000E+020
 30
-1.0000000000000000E+020
  9
$PLIMMIN
 10
0.0
 20
0.0
  9
$PLIMMAX
 10
12.0
 20
9.0
  9
$UNITMODE
 70
     0
  9
$VISRETAIN
 70
     1
  9
$PLINEGEN
 70
     0
  9
$PSLTSCALE
 70
     1
  0
ENDSEC
  0
SECTION
  2
TABLES
  0
TABLE
  2
VPORT
 70
     1
  0
VPORT
  2
*ACTIVE
 70
     0
 10
0.0
 20
0.0
 11
1.0
 21
1.0
 12
177.98836336455309
 22
148.72499999999999
 13
0.0
 23
0.0
 14
1.0
 24
1.0
 15
0.0
 25
0.0
 16
0.0
 26
0.0
 36
1.0
 17
0.0
 27
0.0
 37
0.0
 40
290.0781911758238
 41
2.1063583815028899
 42
50.0
 43
0.0
 44
0.0
 50
0.0
 51
0.0
 71
     0
 72
   100
 73
     1
 74
     1
 75
     0
 76
     0
 77
     0
 78
     0
  0
ENDTAB
  0
TABLE
  2
LTYPE
 70
     3
  0
LTYPE
  2
CONTINUOUS
 70
     0
  3
Solid line
 72
    65
 73
     0
 40
0.0
  0
LTYPE
  2
AIGENLINE001
 70
     0
  3
generate AI->DXF Converter
 72
    65
 73
     2
 40
1.5522299999999991
 49
0.776115
 49
-0.776115
  0
LTYPE
  2
AIGENLINE002
 70
     0
  3
generate AI->DXF Converter
 72
    65
 73
     2
 40
1.5522299999999991
 49
0.776115
 49
-0.776115
  0
ENDTAB
  0
TABLE
  2
LAYER
 70
     2
  0
LAYER
  2
0
 70
     0
 62
     7
  6
CONTINUOUS
  0
LAYER
  2
_________2
 70
     0
 62
     7
  6
CONTINUOUS
  0
ENDTAB
  0
TABLE
  2
STYLE
 70
     1
  0
STYLE
  2
STANDARD
 70
     0
 40
0.0
 41
0.0
 50
0.0
 71
     0
 42
0.0
  3
TXT
  4
EXTFONT.SHX
  0
ENDTAB
  0
TABLE
  2
VIEW
 70
     0
  0
ENDTAB
  0
TABLE
  2
UCS
 70
     0
  0
ENDTAB
  0
TABLE
  2
APPID
 70
     3
  0
APPID
  2
ACAD
 70
     0
  0
APPID
  2
ACAD_NAV_VCDISPLAY
 70
     0
  0
APPID
  2
ACAD_MLEADERVER
 70
     0
  0
ENDTAB
  0
TABLE
  2
DIMSTYLE
 70
     1
  0
DIMSTYLE
  2
STANDARD
 70
     0
  3

  4

  5

  6

  7

 40
1.0
 41
0.18
 42
0.0625
 43
0.38
 44
0.18
 45
0.0
 46
0.0
 47
0.0
 48
0.0
140
0.18
141
0.09
142
0.0
143
25.399999999999999
144
1.0
145
0.0
146
1.0
147
0.09
 71
     0
 72
     0
 73
     1
 74
     1
 75
     0
 76
     0
 77
     0
 78
     0
170
     0
171
     2
172
     0
173
     0
174
     0
175
     0
176
     0
177
     0
178
     0
  0
ENDTAB
  0
ENDSEC
  0
SECTION
  2
BLOCKS
  0
BLOCK
  8
0
  2
$MODEL_SPACE
 70
     0
 10
0.0
 20
0.0
 30
0.0
  3
$MODEL_SPACE
  1

  0
ENDBLK
  5
1A
  8
0
  0
BLOCK
 67
     1
  8
0
  2
$PAPER_SPACE
 70
     0
 10
0.0
 20
0.0
 30
0.0
  3
$PAPER_SPACE
  1

  0
ENDBLK
  5
17
 67
     1
  8
0
  0
ENDSEC
  0
SECTION
  2
ENTITIES
  0
TEXT
  5
23
  8
0
 62
     7
 10
143.14099999999999
 20
227.208
 30
0.0
 40
3.0923400000000001
  1
R60
 50
315.0
 41
0.5
  0
TEXT
  5
24
  8
0
 62
     7
 10
44.61999999999999
 20
235.10900000000001
 30
0.0
 40
3.0923400000000001
  1
メーカーロゴ
 41
0.5
  0
TEXT
  5
25
  8
0
 62
     7
 10
85.612579999999994
 20
196.38800000000001
 30
0.0
 40
3.0923400000000001
  1
%%c45
 41
0.5
 72
     2
 11
89.735699999999994
 21
196.38800000000001
 31
0.0
  0
TEXT
  5
26
  8
0
 62
     7
 10
85.612579999999994
 20
217.01300000000001
 30
0.0
 40
3.0923400000000001
  1
%%c35
 41
0.5
 72
     2
 11
89.735699999999994
 21
217.01300000000001
 31
0.0
  0
TEXT
  5
27
  8
0
 62
     7
 10
114.054
 20
223.99937249999999
 30
0.0
 40
3.0923400000000001
  1
60
 50
90.0
 41
0.5
 72
     1
 11
114.054
 21
225.15899999999999
 31
0.0
  0
TEXT
  5
28
  8
0
 62
     7
 10
114.054
 20
215.558525
 30
0.0
 40
3.0923400000000001
  1
73
 50
90.0
 41
0.5
 72
     1
 11
114.054
 21
216.84700000000001
 31
0.0
  0
TEXT
  5
29
  8
0
 62
     7
 10
32.920999999999999
 20
198.0782025
 30
0.0
 40
3.0923400000000001
  1
%%c450
 50
90.0
 41
0.5
 72
     1
 11
32.920999999999999
 21
200.78399999999999
 31
0.0
  0
TEXT
  5
2A
  8
0
 62
     7
 10
38.420999999999999
 20
218.79313500000001
 30
0.0
 40
3.0923400000000001
  1
133
 50
90.0
 41
0.5
 72
     1
 11
38.420999999999999
 21
220.59700000000001
 31
0.0
  0
TEXT
  5
2B
  8
0
 62
     7
 10
109.22922
 20
162.982
 30
0.0
 40
3.0923400000000001
  1
7
 41
0.5
 72
     2
 11
110.26000000000001
 21
162.982
 31
0.0
  0
TEXT
  5
2C
  8
0
 62
     7
 10
44.985999999999997
 20
162.982
 30
0.0
 40
3.0923400000000001
  1
7
 41
0.5
  0
TEXT
  5
2D
  8
0
 62
     7
 10
38.420999999999999
 20
167.797
 30
0.0
 40
3.0923400000000001
  1
7
 50
90.0
 41
0.5
  0
TEXT
  5
2E
  8
0
 62
     7
 10
38.420999999999999
 20
191.2339825
 30
0.0
 40
3.0923400000000001
  1
310
 50
90.0
 41
0.5
 72
     1
 11
38.420999999999999
 21
192.90899999999999
 31
0.0
  0
TEXT
  5
2F
  8
0
 62
     7
 10
137.02500000000001
 20
197.989
 30
0.0
 40
3.0923400000000001
  1
R10
 41
0.5
  0
TEXT
  5
30
  8
0
 62
     7
 10
143.56675999999999
 20
172.03899999999999
 30
0.0
 40
3.0923400000000001
  1
カウンター切込寸法
 41
0.5
 72
     1
 11
151.81299999999999
 21
172.03899999999999
 31
0.0
  0
TEXT
  5
31
  8
0
 62
     7
 10
75.561440000000005
 20
162.982
 30
0.0
 40
3.0923400000000001
  1
436
 41
0.5
 72
     1
 11
77.623000000000005
 21
162.982
 31
0.0
  0
TEXT
  5
32
  8
0
 62
     7
 10
150.13798249999999
 20
182.108
 30
0.0
 40
3.0923400000000001
  1
120
 41
0.5
 72
     1
 11
151.81299999999999
 21
182.108
 31
0.0
  0
TEXT
  5
33
  8
0
 62
     7
 10
164.97944000000001
 20
104.027
 30
0.0
 40
3.0923400000000001
  1
225
 41
0.5
 72
     1
 11
167.041
 21
104.027
 31
0.0
  0
TEXT
  5
34
  8
0
 62
     7
 10
131.62700000000001
 20
207.726
 30
0.0
 40
3.0923400000000001
  1
排水口
 41
0.5
  0
TEXT
  5
35
  8
0
 62
     7
 10
114.054
 20
118.5349825
 30
0.0
 40
3.0923400000000001
  1
140
 50
90.0
 41
0.5
 72
     1
 11
114.054
 21
120.20999999999999
 31
0.0
  0
TEXT
  5
36
  8
0
 62
     7
 10
168.85499999999999
 20
133.07844
 30
0.0
 40
3.0923400000000001
  1
15
 50
90.0
 41
0.5
 72
     2
 11
168.85499999999999
 21
135.13999999999999
 31
0.0
  0
TEXT
  5
37
  8
0
 62
     7
 10
150.411
 20
122.0433725
 30
0.0
 40
3.0923400000000001
  1
90
 50
90.0
 41
0.5
 72
     1
 11
150.411
 21
123.203
 31
0.0
  0
TEXT
  5
38
  8
0
 62
     7
 10
40.95989999999999
 20
120.6676775
 30
0.0
 40
3.0923400000000001
  1
110
 50
90.0
 41
0.5
 72
     1
 11
40.95989999999999
 21
122.08499999999999
 31
0.0
  0
TEXT
  5
39
  8
0
 62
     7
 10
165.977
 20
195.7573725
 30
0.0
 40
3.0923400000000001
  1
60
 50
90.0
 41
0.5
 72
     1
 11
165.977
 21
196.917
 31
0.0
  0
TEXT
  5
3A
  8
0
 62
     7
 10
171.477
 20
207.03644
 30
0.0
 40
3.0923400000000001
  1
255
 50
90.0
 41
0.5
 72
     1
 11
171.477
 21
209.09800000000001
 31
0.0
  0
TEXT
  5
3B
  8
0
 62
     7
 10
165.977
 20
211.10513499999999
 30
0.0
 40
3.0923400000000001
  1
195
 50
90.0
 41
0.5
 72
     1
 11
165.977
 21
212.90899999999999
 31
0.0
  0
ARC
  5
3C
  8
0
  6
AIGENLINE001
 62
     7
 10
76.729792000000003
 20
124.015289
 30
0.0
 40
1.493819
 50
272.12252899999999
 51
357.88434599999999
  0
ARC
  5
3D
  8
0
  6
AIGENLINE001
 62
     7
 10
76.840271000000001
 20
124.015117
 30
0.0
 40
1.493639999999999
 50
182.109298
 51
267.88386600000001
  0
ARC
  5
3E
  8
0
  6
AIGENLINE001
 62
     7
 10
76.785203999999993
 20
123.960228
 30
0.0
 40
1.4375619999999989
 50
90.003433000000001
 51
180.003443
  0
ARC
  5
3F
  8
0
  6
AIGENLINE001
 62
     7
 10
76.729965000000007
 20
123.905168
 30
0.0
 40
1.493641
 50
2.1092960000000001
 51
87.883829000000006
  0
LINE
  5
40
  8
0
 62
     7
 10
49.425699999999992
 20
210.30000000000001
 30
0.0
 11
50.510100000000001
 21
208.28399999999999
 31
0.0
  0
LINE
  5
41
  8
0
 62
     7
 10
50.510100000000001
 20
208.28399999999999
 30
0.0
 11
50.579500000000003
 21
210.572
 31
0.0
  0
LINE
  5
42
  8
0
 62
     7
 10
50.579500000000003
 20
210.572
 30
0.0
 11
49.425699999999992
 21
210.30000000000001
 31
0.0
  0
LINE
  5
43
  8
0
 62
     7
 10
50.510100000000001
 20
208.28399999999999
 30
0.0
 11
44.61999999999999
 21
234.40899999999999
 31
0.0
  0
LINE
  5
44
  8
0
 62
     7
 10
66.139499999999984
 20
234.40899999999999
 30
0.0
 11
44.61999999999999
 21
234.40899999999999
 31
0.0
  0
LINE
  5
45
  8
0
 62
     7
 10
81.592600000000004
 20
197.65000000000001
 30
0.0
 11
79.609899999999996
 21
198.79400000000001
 31
0.0
  0
LINE
  5
46
  8
0
 62
     7
 10
79.609899999999996
 20
198.79400000000001
 30
0.0
 11
80.754800000000003
 21
196.81100000000001
 31
0.0
  0
LINE
  5
47
  8
0
 62
     7
 10
80.754800000000003
 20
196.81100000000001
 30
0.0
 11
81.592600000000004
 21
197.65000000000001
 31
0.0
  0
LINE
  5
48
  8
0
 62
     7
 10
73.651600000000002
 20
203.917
 30
0.0
 11
75.634299999999996
 21
202.773
 31
0.0
  0
LINE
  5
49
  8
0
 62
     7
 10
75.634299999999996
 20
202.773
 30
0.0
 11
74.489500000000007
 21
204.756
 31
0.0
  0
LINE
  5
4A
  8
0
 62
     7
 10
74.489500000000007
 20
204.756
 30
0.0
 11
73.651600000000002
 21
203.917
 31
0.0
  0
LINE
  5
4B
  8
0
 62
     7
 10
82.709699999999998
 20
195.68799999999999
 30
0.0
 11
73.394400000000005
 21
205.02000000000001
 31
0.0
  0
LINE
  5
4C
  8
0
 62
     7
 10
89.735699999999994
 20
195.68799999999999
 30
0.0
 11
82.709699999999998
 21
195.68799999999999
 31
0.0
  0
LINE
  5
4D
  8
0
 62
     7
 10
81.150899999999993
 20
218.71600000000001
 30
0.0
 11
79.168300000000002
 21
219.86099999999999
 31
0.0
  0
LINE
  5
4E
  8
0
 62
     7
 10
79.168300000000002
 20
219.86099999999999
 30
0.0
 11
80.313100000000006
 21
217.87799999999999
 31
0.0
  0
LINE
  5
4F
  8
0
 62
     7
 10
80.313100000000006
 20
217.87799999999999
 30
0.0
 11
81.150899999999993
 21
218.71600000000001
 31
0.0
  0
LINE
  5
50
  8
0
 62
     7
 10
74.093400000000003
 20
224.09999999999999
 30
0.0
 11
76.076099999999997
 21
222.95599999999999
 31
0.0
  0
LINE
  5
51
  8
0
 62
     7
 10
76.076099999999997
 20
222.95599999999999
 30
0.0
 11
74.931299999999993
 21
224.93899999999999
 31
0.0
  0
LINE
  5
52
  8
0
 62
     7
 10
74.931299999999993
 20
224.93899999999999
 30
0.0
 11
74.093400000000003
 21
224.09999999999999
 31
0.0
  0
LINE
  5
53
  8
0
 62
     7
 10
82.709699999999998
 20
216.31299999999999
 30
0.0
 11
73.394400000000005
 21
225.64500000000001
 31
0.0
  0
LINE
  5
54
  8
0
 62
     7
 10
89.735699999999994
 20
216.31299999999999
 30
0.0
 11
82.709699999999998
 21
216.31299999999999
 31
0.0
  0
LINE
  5
55
  8
0
 62
     7
 10
114.161
 20
223.62299999999999
 30
0.0
 11
114.754
 21
221.411
 31
0.0
  0
LINE
  5
56
  8
0
 62
     7
 10
114.754
 20
221.411
 30
0.0
 11
115.346
 21
223.62299999999999
 31
0.0
  0
LINE
  5
57
  8
0
 62
     7
 10
115.346
 20
223.62299999999999
 30
0.0
 11
114.161
 21
223.62299999999999
 31
0.0
  0
LINE
  5
58
  8
0
 62
     7
 10
114.161
 20
214.49600000000001
 30
0.0
 11
114.754
 21
212.28399999999999
 31
0.0
  0
LINE
  5
59
  8
0
 62
     7
 10
114.754
 20
212.28399999999999
 30
0.0
 11
115.346
 21
214.49600000000001
 31
0.0
  0
LINE
  5
5A
  8
0
 62
     7
 10
115.346
 20
214.49600000000001
 30
0.0
 11
114.161
 21
214.49600000000001
 31
0.0
  0
LINE
  5
5B
  8
0
 62
     7
 10
115.33199999999999
 20
219.19900000000001
 30
0.0
 11
114.739
 21
221.411
 31
0.0
  0
LINE
  5
5C
  8
0
 62
     7
 10
114.739
 20
221.411
 30
0.0
 11
114.14700000000001
 21
219.19900000000001
 31
0.0
  0
LINE
  5
5D
  8
0
 62
     7
 10
114.14700000000001
 20
219.19900000000001
 30
0.0
 11
115.33199999999999
 21
219.19900000000001
 31
0.0
  0
LINE
  5
5E
  8
0
 62
     7
 10
115.33199999999999
 20
226.69800000000001
 30
0.0
 11
114.739
 21
228.90899999999999
 31
0.0
  0
LINE
  5
5F
  8
0
 62
     7
 10
114.739
 20
228.90899999999999
 30
0.0
 11
114.14700000000001
 21
226.69800000000001
 31
0.0
  0
LINE
  5
60
  8
0
 62
     7
 10
114.14700000000001
 20
226.69800000000001
 30
0.0
 11
115.33199999999999
 21
226.69800000000001
 31
0.0
  0
LINE
  5
61
  8
0
 62
     7
 10
114.754
 20
212.28399999999999
 30
0.0
 11
114.754
 21
228.90899999999999
 31
0.0
  0
LINE
  5
62
  8
0
 62
     7
 10
39.7136
 20
210.072
 30
0.0
 11
39.121000000000002
 21
212.28399999999999
 31
0.0
  0
LINE
  5
63
  8
0
 62
     7
 10
39.121000000000002
 20
212.28399999999999
 30
0.0
 11
38.528500000000001
 21
210.072
 31
0.0
  0
LINE
  5
64
  8
0
 62
     7
 10
38.528500000000001
 20
210.072
 30
0.0
 11
39.7136
 21
210.072
 31
0.0
  0
LINE
  5
65
  8
0
 62
     7
 10
39.7136
 20
226.697
 30
0.0
 11
39.121000000000002
 21
228.90899999999999
 31
0.0
  0
LINE
  5
66
  8
0
 62
     7
 10
39.121000000000002
 20
228.90899999999999
 30
0.0
 11
38.528500000000001
 21
226.697
 31
0.0
  0
LINE
  5
67
  8
0
 62
     7
 10
38.528500000000001
 20
226.697
 30
0.0
 11
39.7136
 21
226.697
 31
0.0
  0
LINE
  5
68
  8
0
 62
     7
 10
38.54290000000001
 20
214.49600000000001
 30
0.0
 11
39.1355
 21
212.28399999999999
 31
0.0
  0
LINE
  5
69
  8
0
 62
     7
 10
39.1355
 20
212.28399999999999
 30
0.0
 11
39.728099999999998
 21
214.49600000000001
 31
0.0
  0
LINE
  5
6A
  8
0
 62
     7
 10
39.728099999999998
 20
214.49600000000001
 30
0.0
 11
38.54290000000001
 21
214.49600000000001
 31
0.0
  0
LINE
  5
6B
  8
0
 62
     7
 10
38.54290000000001
 20
170.447
 30
0.0
 11
39.1355
 21
172.65899999999999
 31
0.0
  0
LINE
  5
6C
  8
0
 62
     7
 10
39.1355
 20
172.65899999999999
 30
0.0
 11
39.728099999999998
 21
170.447
 31
0.0
  0
LINE
  5
6D
  8
0
 62
     7
 10
39.728099999999998
 20
170.447
 30
0.0
 11
38.54290000000001
 21
170.447
 31
0.0
  0
LINE
  5
6E
  8
0
 62
     7
 10
38.54290000000001
 20
175.74600000000001
 30
0.0
 11
39.1355
 21
173.53399999999999
 31
0.0
  0
LINE
  5
6F
  8
0
 62
     7
 10
39.1355
 20
173.53399999999999
 30
0.0
 11
39.728099999999998
 21
175.74600000000001
 31
0.0
  0
LINE
  5
70
  8
0
 62
     7
 10
39.728099999999998
 20
175.74600000000001
 30
0.0
 11
38.54290000000001
 21
175.74600000000001
 31
0.0
  0
LINE
  5
71
  8
0
 62
     7
 10
39.121000000000002
 20
228.90899999999999
 30
0.0
 11
39.121000000000002
 21
167.797
 31
0.0
  0
LINE
  5
72
  8
0
 62
     7
 10
34.2136
 20
226.697
 30
0.0
 11
33.621099999999998
 21
228.90899999999999
 31
0.0
  0
LINE
  5
73
  8
0
 62
     7
 10
33.621099999999998
 20
228.90899999999999
 30
0.0
 11
33.028500000000001
 21
226.697
 31
0.0
  0
LINE
  5
74
  8
0
 62
     7
 10
33.028500000000001
 20
226.697
 30
0.0
 11
34.2136
 21
226.697
 31
0.0
  0
LINE
  5
75
  8
0
 62
     7
 10
33.042999999999999
 20
174.8709999999999
 30
0.0
 11
33.6355
 21
172.65899999999999
 31
0.0
  0
LINE
  5
76
  8
0
 62
     7
 10
33.6355
 20
172.65899999999999
 30
0.0
 11
34.228099999999998
 21
174.8709999999999
 31
0.0
  0
LINE
  5
77
  8
0
 62
     7
 10
34.228099999999998
 20
174.8709999999999
 30
0.0
 11
33.042999999999999
 21
174.8709999999999
 31
0.0
  0
LINE
  5
78
  8
0
 62
     7
 10
33.621099999999998
 20
228.90899999999999
 30
0.0
 11
33.621099999999998
 21
172.65899999999999
 31
0.0
  0
LINE
  5
79
  8
0
 62
     7
 10
38.420999999999999
 20
173.53399999999999
 30
0.0
 11
66.845299999999995
 21
173.53399999999999
 31
0.0
  0
LINE
  5
7A
  8
0
 62
     7
 10
103.997
 20
212.28399999999999
 30
0.0
 11
115.45399999999999
 21
212.28399999999999
 31
0.0
  0
LINE
  5
7B
  8
0
 62
     7
 10
38.420999999999999
 20
212.28399999999999
 30
0.0
 11
51.161000000000001
 21
212.28399999999999
 31
0.0
  0
LINE
  5
7C
  8
0
 62
     7
 10
115.45399999999999
 20
221.40899999999999
 30
0.0
 11
81.315799999999996
 21
221.40899999999999
 31
0.0
  0
LINE
  5
7D
  8
0
 62
     7
 10
115.45399999999999
 20
228.90899999999999
 30
0.0
 11
83.923599999999993
 21
228.90899999999999
 31
0.0
  0
LINE
  5
7E
  8
0
 62
     7
 10
32.920999999999999
 20
228.90899999999999
 30
0.0
 11
71.322400000000002
 21
228.90899999999999
 31
0.0
  0
LINE
  5
7F
  8
0
 62
     7
 10
32.920999999999999
 20
172.65899999999999
 30
0.0
 11
71.322400000000002
 21
172.65899999999999
 31
0.0
  0
LINE
  5
80
  8
0
 62
     7
 10
147.85900000000001
 20
203.934
 30
0.0
 11
149.84200000000001
 21
202.78999999999999
 31
0.0
  0
LINE
  5
81
  8
0
 62
     7
 10
149.84200000000001
 20
202.78999999999999
 30
0.0
 11
148.697
 21
204.773
 31
0.0
  0
LINE
  5
82
  8
0
 62
     7
 10
148.697
 20
204.773
 30
0.0
 11
147.85900000000001
 21
203.934
 31
0.0
  0
LINE
  5
83
  8
0
 62
     7
 10
149.84200000000001
 20
202.78999999999999
 30
0.0
 11
145.613
 21
207.02600000000001
 31
0.0
  0
LINE
  5
84
  8
0
 62
     7
 10
147.66499999999999
 20
220.86500000000001
 30
0.0
 11
146.52000000000001
 21
222.84700000000001
 31
0.0
  0
LINE
  5
85
  8
0
 62
     7
 10
146.52000000000001
 20
222.84700000000001
 30
0.0
 11
148.50299999999999
 21
221.702
 31
0.0
  0
LINE
  5
86
  8
0
 62
     7
 10
148.50299999999999
 20
221.702
 30
0.0
 11
147.66499999999999
 21
220.86500000000001
 31
0.0
  0
LINE
  5
87
  8
0
 62
     7
 10
142.613
 20
226.76499999999999
 30
0.0
 11
151.81299999999999
 21
217.53399999999999
 31
0.0
  0
LINE
  5
88
  8
0
 62
     7
 10
145.745
 20
195.59299999999999
 30
0.0
 11
144.601
 21
193.61000000000001
 31
0.0
  0
LINE
  5
89
  8
0
 62
     7
 10
144.601
 20
193.61000000000001
 30
0.0
 11
146.584
 21
194.755
 31
0.0
  0
LINE
  5
8A
  8
0
 62
     7
 10
146.584
 20
194.755
 30
0.0
 11
145.745
 21
195.59299999999999
 31
0.0
  0
LINE
  5
8B
  8
0
 62
     7
 10
144.59100000000001
 20
193.6209999999999
 30
0.0
 11
148.25899999999999
 21
197.28899999999999
 31
0.0
  0
LINE
  5
8C
  8
0
 62
     7
 10
148.25899999999999
 20
197.28899999999999
 30
0.0
 11
137.02500000000001
 21
197.28899999999999
 31
0.0
  0
LINE
  5
8D
  8
0
 62
     7
 10
145.613
 20
207.02600000000001
 30
0.0
 11
131.62700000000001
 21
207.02600000000001
 31
0.0
  0
ARC
  5
8E
  8
0
  6
AIGENLINE001
 62
     7
 10
180.114034
 20
127.082635
 30
0.0
 40
0.129446
 50
271.89297699999997
 51
355.18606799999998
  0
ARC
  5
8F
  8
0
  6
AIGENLINE001
 62
     7
 10
164.597129
 20
126.82383299999999
 30
0.0
 40
0.129486
 50
91.723811999999995
 51
173.325715
  0
LINE
  5
90
  8
0
  6
AIGENLINE001
 62
     7
 10
164.40700000000001
 20
126.161
 30
0.0
 11
164.15799999999999
 21
126.18300000000001
 31
0.0
  0
LINE
  5
91
  8
0
  6
AIGENLINE001
 62
     7
 10
164.005
 20
121.741
 30
0.0
 11
163.756
 21
121.764
 31
0.0
  0
ARC
  5
92
  8
0
  6
AIGENLINE001
 62
     7
 10
164.16576499999999
 20
126.153766
 30
0.0
 40
0.030574
 50
105.158535
 51
136.57726299999999
  0
ARC
  5
93
  8
0
  6
AIGENLINE001
 62
     7
 10
164.249742
 20
126.06018400000001
 30
0.0
 40
0.156229
 50
132.81706600000001
 51
148.31774999999999
  0
ARC
  5
94
  8
0
  6
AIGENLINE001
 62
     7
 10
164.53037499999999
 20
125.880371
 30
0.0
 40
0.489511
 50
147.659323
 51
156.475356
  0
ARC
  5
95
  8
0
  6
AIGENLINE001
 62
     7
 10
165.19145399999999
 20
125.58945900000001
 30
0.0
 40
1.211765999999999
 50
156.339686
 51
162.15973600000001
  0
ARC
  5
96
  8
0
  6
AIGENLINE001
 62
     7
 10
166.415806
 20
125.190202
 30
0.0
 40
2.499566999999999
 50
162.04602199999999
 51
165.88291100000001
  0
ARC
  5
97
  8
0
  6
AIGENLINE001
 62
     7
 10
168.45754199999999
 20
124.672246
 30
0.0
 40
4.6059760000000001
 50
165.82909799999999
 51
168.686834
  0
ARC
  5
98
  8
0
  6
AIGENLINE001
 62
     7
 10
171.656419
 20
124.027143
 30
0.0
 40
7.8692500000000001
 50
168.65012899999999
 51
170.85319899999999
  0
ARC
  5
99
  8
0
  6
AIGENLINE001
 62
     7
 10
178.498886
 20
122.93456500000001
 30
0.0
 40
14.798394
 50
170.88813300000001
 51
174.24028899999999
  0
ARC
  5
9A
  8
0
  6
AIGENLINE001
 62
     7
 10
191.42880600000001
 20
121.485382
 30
0.0
 40
27.808847
 50
173.943048
 51
174.82452799999999
  0
ARC
  5
9B
  8
0
  6
AIGENLINE001
 62
     7
 10
163.76918599999999
 20
121.791763
 30
0.0
 40
0.030502
 50
213.06785999999991
 51
244.532253
  0
ARC
  5
9C
  8
0
  6
AIGENLINE001
 62
     7
 10
163.86905999999999
 20
121.869017
 30
0.0
 40
0.156686
 50
201.371532
 51
216.81738200000001
  0
ARC
  5
9D
  8
0
  6
AIGENLINE001
 62
     7
 10
164.17294000000001
 20
121.993656
 30
0.0
 40
0.485121
 50
193.11014
 51
202.001135
  0
ARC
  5
9E
  8
0
  6
AIGENLINE001
 62
     7
 10
164.87102200000001
 20
122.16041300000001
 30
0.0
 40
1.2028389999999991
 50
187.44303999999991
 51
193.30396200000001
  0
ARC
  5
9F
  8
0
  6
AIGENLINE001
 62
     7
 10
166.24727999999999
 20
122.343526
 30
0.0
 40
2.5912229999999989
 50
183.44824299999991
 51
187.515771
  0
ARC
  5
A0
  8
0
  6
AIGENLINE001
 62
     7
 10
168.47721799999999
 20
122.484021
 30
0.0
 40
4.8255790000000003
 50
180.72639899999999
 51
183.52087800000001
  0
ARC
  5
A1
  8
0
  6
AIGENLINE001
 62
     7
 10
171.840565
 20
122.53174
 30
0.0
 40
8.1892619999999994
 50
178.599402
 51
180.76192199999991
  0
ARC
  5
A2
  8
0
  6
AIGENLINE001
 62
     7
 10
178.978509
 20
122.348545
 30
0.0
 40
15.329554
 50
175.27239700000001
 51
178.56698700000001
  0
ARC
  5
A3
  8
0
  6
AIGENLINE001
 62
     7
 10
192.1033149999999
 20
121.408029
 30
0.0
 40
28.487587999999999
 50
174.79195799999999
 51
175.562838
  0
LINE
  5
A4
  8
0
  6
AIGENLINE001
 62
     7
 10
164.005
 20
121.741
 30
0.0
 11
164.40700000000001
 21
126.161
 31
0.0
  0
LINE
  5
A5
  8
0
  6
AIGENLINE002
 62
     7
 10
152.97900000000001
 20
110.479
 30
0.0
 11
152.97900000000001
 21
118.21299999999999
 31
0.0
  0
LINE
  5
A6
  8
0
  6
AIGENLINE002
 62
     7
 10
173.60400000000001
 20
124.55200000000001
 30
0.0
 11
173.60400000000001
 21
130.80199999999999
 31
0.0
  0
LINE
  5
A7
  8
0
 62
     7
 10
75.4041
 20
212.28399999999999
 30
0.0
 11
75.4041
 21
212.03399999999999
 31
0.0
  0
LINE
  5
A8
  8
0
 62
     7
 10
79.8416
 20
212.28399999999999
 30
0.0
 11
79.8416
 21
212.03399999999999
 31
0.0
  0
ARC
  5
A9
  8
0
 62
     7
 10
75.432727
 20
212.04443800000001
 30
0.0
 40
0.030473
 50
200.278987
 51
231.82233299999999
  0
ARC
  5
AA
  8
0
 62
     7
 10
75.518416999999999
 20
212.13633799999999
 30
0.0
 40
0.156038
 50
227.94280599999999
 51
243.46752900000001
  0
ARC
  5
AB
  8
0
 62
     7
 10
75.671742000000009
 20
212.43081699999999
 30
0.0
 40
0.4880270000000001
 50
242.8063470000001
 51
251.65198699999999
  0
ARC
  5
AC
  8
0
 62
     7
 10
75.902061000000003
 20
213.11546999999999
 30
0.0
 40
1.2103790000000001
 50
251.50575799999999
 51
257.33334600000001
  0
ARC
  5
AD
  8
0
 62
     7
 10
76.193038999999999
 20
214.38966600000001
 30
0.0
 40
2.5173730000000001
 50
257.23109599999998
 51
261.04102599999999
  0
ARC
  5
AE
  8
0
 62
     7
 10
76.520325
 20
216.44859
 30
0.0
 40
4.6021460000000003
 50
261.00788399999999
 51
263.86815000000001
  0
ARC
  5
AF
  8
0
 62
     7
 10
76.878990999999999
 20
219.74975599999999
 30
0.0
 40
7.9227379999999998
 50
263.83926500000001
 51
266.02753300000001
  0
ARC
  5
B0
  8
0
 62
     7
 10
77.343749000000003
 20
226.63282000000001
 30
0.0
 40
14.821467999999999
 50
266.07855499999999
 51
269.42554100000001
  0
ARC
  5
B1
  8
0
 62
     7
 10
77.616493999999989
 20
239.659144
 30
0.0
 40
27.850234
 50
269.13314500000001
 51
270.01333299999999
  0
ARC
  5
B2
  8
0
 62
     7
 10
79.81304200000001
 20
212.04443800000001
 30
0.0
 40
0.030473
 50
308.17768699999999
 51
339.72103199999998
  0
ARC
  5
B3
  8
0
 62
     7
 10
79.727552000000003
 20
212.136045
 30
0.0
 40
0.155686
 50
296.51483999999999
 51
312.07486499999999
  0
ARC
  5
B4
  8
0
 62
     7
 10
79.574073999999996
 20
212.43064899999999
 30
0.0
 40
0.4878560000000001
 50
288.35023899999999
 51
297.197811
  0
ARC
  5
B5
  8
0
 62
     7
 10
79.343588999999994
 20
213.115893
 30
0.0
 40
1.210820999999999
 50
282.66853400000002
 51
288.49374799999998
  0
ARC
  5
B6
  8
0
 62
     7
 10
79.053165000000007
 20
214.387351
 30
0.0
 40
2.5150220000000001
 50
278.95802800000001
 51
282.77127899999999
  0
ARC
  5
B7
  8
0
 62
     7
 10
78.725583
 20
216.447397
 30
0.0
 40
4.6009500000000001
 50
276.132338
 51
278.99308100000002
  0
ARC
  5
B8
  8
0
 62
     7
 10
78.366821999999999
 20
219.74924799999999
 30
0.0
 40
7.9222330000000003
 50
273.97296399999999
 51
276.16117800000001
  0
ARC
  5
B9
  8
0
 62
     7
 10
77.902107000000001
 20
226.63223300000001
 30
0.0
 40
14.820881999999999
 50
270.57470499999999
 51
273.92157400000002
  0
ARC
  5
BA
  8
0
 62
     7
 10
77.629446999999999
 20
239.654841
 30
0.0
 40
27.845932000000001
 50
269.98668400000003
 51
270.86694199999999
  0
LINE
  5
BB
  8
0
 62
     7
 10
79.8416
 20
212.28399999999999
 30
0.0
 11
75.4041
 21
212.28399999999999
 31
0.0
  0
ARC
  5
BC
  8
0
  6
AIGENLINE001
 62
     7
 10
162.11895200000001
 20
119.571944
 30
0.0
 40
1.684858
 50
275.67959000000002
 51
358.14207399999998
  0
LINE
  5
BD
  8
0
  6
AIGENLINE001
 62
     7
 10
157.47900000000001
 20
117.578
 30
0.0
 11
162.286
 21
117.895
 31
0.0
  0
LINE
  5
BE
  8
0
  6
AIGENLINE001
 62
     7
 10
164.46899999999999
 20
126.839
 30
0.0
 11
163.803
 21
119.517
 31
0.0
  0
LINE
  5
BF
  8
0
 62
     7
 10
181.10400000000001
 20
128.828
 30
0.0
 11
181.10400000000001
 21
115.078
 31
0.0
  0
LINE
  5
C0
  8
0
 62
     7
 10
181.10400000000001
 20
115.078
 30
0.0
 11
152.97900000000001
 21
115.078
 31
0.0
  0
LINE
  5
C1
  8
0
  6
AIGENLINE001
 62
     7
 10
155.72900000000001
 20
116.078
 30
0.0
 11
152.97900000000001
 21
116.078
 31
0.0
  0
LINE
  5
C2
  8
0
  6
AIGENLINE001
 62
     7
 10
157.47900000000001
 20
117.578
 30
0.0
 11
152.97900000000001
 21
117.578
 31
0.0
  0
LINE
  5
C3
  8
0
  6
AIGENLINE001
 62
     7
 10
180.11799999999999
 20
126.953
 30
0.0
 11
164.59299999999999
 21
126.953
 31
0.0
  0
LINE
  5
C4
  8
0
 62
     7
 10
181.10400000000001
 20
128.828
 30
0.0
 11
152.97900000000001
 21
128.828
 31
0.0
  0
LINE
  5
C5
  8
0
 62
     7
 10
157.47900000000001
 20
111.328
 30
0.0
 11
152.97900000000001
 21
111.328
 31
0.0
  0
LINE
  5
C6
  8
0
 62
     7
 10
157.47900000000001
 20
111.328
 30
0.0
 11
157.47900000000001
 21
115.078
 31
0.0
  0
LINE
  5
C7
  8
0
  6
AIGENLINE001
 62
     7
 10
155.72900000000001
 20
111.328
 30
0.0
 11
155.72900000000001
 21
116.078
 31
0.0
  0
LINE
  5
C8
  8
0
  6
AIGENLINE001
 62
     7
 10
155.72900000000001
 20
116.078
 30
0.0
 11
157.47900000000001
 21
117.578
 31
0.0
  0
ARC
  5
C9
  8
0
  6
AIGENLINE001
 62
     7
 10
127.412093
 20
120.66544
 30
0.0
 40
1.684113999999999
 50
181.8592919999999
 51
264.34337399999998
  0
ARC
  5
CA
  8
0
  6
AIGENLINE001
 62
     7
 10
150.05160000000001
 20
187.46180100000001
 30
0.0
 40
69.901772999999991
 50
268.09401400000002
 51
268.710937
  0
ARC
  5
CB
  8
0
  6
AIGENLINE001
 62
     7
 10
151.36525399999999
 20
227.45938000000001
 30
0.0
 40
109.920917
 50
267.48941400000001
 51
268.10307499999999
  0
ARC
  5
CC
  8
0
  6
AIGENLINE001
 62
     7
 10
155.38862399999999
 20
318.49508200000002
 30
0.0
 40
201.04548
 50
266.53338600000001
 51
267.48036000000002
  0
ARC
  5
CD
  8
0
  6
AIGENLINE001
 62
     7
 10
168.658176
 20
545.84898699999997
 30
0.0
 40
428.78603700000002
 50
265.956636
 51
266.60048699999999
  0
ARC
  5
CE
  8
0
  6
AIGENLINE001
 62
     7
 10
196.28658899999999
 20
943.92271099999994
 30
0.0
 40
827.81721800000003
 50
265.21594800000003
 51
265.99187799999999
  0
ARC
  5
CF
  8
0
  6
AIGENLINE001
 62
     7
 10
181.239544
 20
128.505291
 30
0.0
 40
0.350254
 50
112.83584
 51
121.102822
  0
ARC
  5
D0
  8
0
  6
AIGENLINE001
 62
     7
 10
181.551343
 20
127.952285
 30
0.0
 40
0.9850059999999999
 50
120.015315
 51
133.15751299999999
  0
ARC
  5
D1
  8
0
  6
AIGENLINE001
 62
     7
 10
181.87966299999999
 20
127.579988
 30
0.0
 40
1.4812389999999991
 50
132.57141999999999
 51
148.94029599999999
  0
ARC
  5
D2
  8
0
  6
AIGENLINE001
 62
     7
 10
182.39106899999999
 20
127.244694
 30
0.0
 40
2.0924429999999989
 50
148.300264
 51
162.03543199999999
  0
ARC
  5
D3
  8
0
  6
AIGENLINE001
 62
     7
 10
183.29387
 20
126.923546
 30
0.0
 40
3.0504020000000001
 50
161.5275
 51
173.564007
  0
ARC
  5
D4
  8
0
  6
AIGENLINE001
 62
     7
 10
184.403526
 20
126.752786
 30
0.0
 40
4.1724519999999989
 50
172.94194899999999
 51
175.66284999999999
  0
LINE
  5
D5
  8
0
  6
AIGENLINE001
 62
     7
 10
124.854
 20
128.828
 30
0.0
 11
125.729
 21
126.694
 31
0.0
  0
LINE
  5
D6
  8
0
  6
AIGENLINE001
 62
     7
 10
125.729
 20
126.694
 30
0.0
 11
125.729
 21
120.611
 31
0.0
  0
LINE
  5
D7
  8
0
 62
     7
 10
124.854
 20
128.828
 30
0.0
 11
124.854
 21
115.078
 31
0.0
  0
LINE
  5
D8
  8
0
 62
     7
 10
124.854
 20
115.078
 30
0.0
 11
152.97900000000001
 21
115.078
 31
0.0
  0
LINE
  5
D9
  8
0
  6
AIGENLINE001
 62
     7
 10
150.22800000000001
 20
116.078
 30
0.0
 11
152.97900000000001
 21
116.078
 31
0.0
  0
LINE
  5
DA
  8
0
  6
AIGENLINE001
 62
     7
 10
148.47900000000001
 20
117.578
 30
0.0
 11
152.97900000000001
 21
117.578
 31
0.0
  0
LINE
  5
DB
  8
0
 62
     7
 10
124.854
 20
128.828
 30
0.0
 11
152.97900000000001
 21
128.828
 31
0.0
  0
LINE
  5
DC
  8
0
 62
     7
 10
148.47900000000001
 20
111.328
 30
0.0
 11
152.97900000000001
 21
111.328
 31
0.0
  0
LINE
  5
DD
  8
0
 62
     7
 10
148.47900000000001
 20
111.328
 30
0.0
 11
148.47900000000001
 21
115.078
 31
0.0
  0
LINE
  5
DE
  8
0
  6
AIGENLINE001
 62
     7
 10
150.22800000000001
 20
111.328
 30
0.0
 11
150.22800000000001
 21
116.078
 31
0.0
  0
LINE
  5
DF
  8
0
  6
AIGENLINE001
 62
     7
 10
150.22800000000001
 20
116.078
 30
0.0
 11
148.47900000000001
 21
117.578
 31
0.0
  0
ARC
  5
E0
  8
0
  6
AIGENLINE001
 62
     7
 10
76.699984000000001
 20
124.045277
 30
0.0
 40
2.3053629999999998
 50
272.11636299999998
 51
357.883647
  0
ARC
  5
E1
  8
0
  6
AIGENLINE001
 62
     7
 10
76.870237000000003
 20
124.04544
 30
0.0
 40
2.3055249999999989
 50
182.1202909999999
 51
267.884187
  0
ARC
  5
E2
  8
0
  6
AIGENLINE001
 62
     7
 10
76.870064999999997
 20
123.875016
 30
0.0
 40
2.3053469999999998
 50
92.111693000000017
 51
177.88382899999999
  0
ARC
  5
E3
  8
0
  6
AIGENLINE001
 62
     7
 10
76.69999399999999
 20
123.875018
 30
0.0
 40
2.3053520000000001
 50
2.1161119999999989
 51
87.883877999999996
  0
ARC
  5
E4
  8
0
  6
AIGENLINE001
 62
     7
 10
51.218595999999998
 20
120.79814399999999
 30
0.0
 40
1.684566
 50
181.87278599999999
 51
264.32988
  0
ARC
  5
E5
  8
0
  6
AIGENLINE001
 62
     7
 10
73.857664
 20
187.59409299999999
 30
0.0
 40
69.901772999999991
 50
268.09401400000002
 51
268.710937
  0
ARC
  5
E6
  8
0
  6
AIGENLINE001
 62
     7
 10
75.17107
 20
227.584656
 30
0.0
 40
109.91389599999999
 50
267.48938500000003
 51
268.10308300000003
  0
ARC
  5
E7
  8
0
  6
AIGENLINE001
 62
     7
 10
79.194401999999997
 20
318.62254300000001
 30
0.0
 40
201.04064
 50
266.53338300000001
 51
267.48038300000002
  0
ARC
  5
E8
  8
0
  6
AIGENLINE001
 62
     7
 10
92.468205000000012
 20
546.04232399999989
 30
0.0
 40
428.84720899999991
 50
265.956681
 51
266.60044099999999
  0
ARC
  5
E9
  8
0
  6
AIGENLINE001
 62
     7
 10
120.09224500000001
 20
944.04933699999981
 30
0.0
 40
827.81153800000004
 50
265.21594399999998
 51
265.99187799999999
  0
LINE
  5
EA
  8
0
  6
AIGENLINE001
 62
     7
 10
48.6599
 20
128.96000000000001
 30
0.0
 11
49.5349
 21
126.82599999999999
 31
0.0
  0
LINE
  5
EB
  8
0
  6
AIGENLINE001
 62
     7
 10
49.5349
 20
126.82599999999999
 30
0.0
 11
49.5349
 21
120.74299999999999
 31
0.0
  0
LINE
  5
EC
  8
0
 62
     7
 10
48.6599
 20
128.96000000000001
 30
0.0
 11
48.6599
 21
115.20999999999999
 31
0.0
  0
LINE
  5
ED
  8
0
 62
     7
 10
48.6599
 20
115.20999999999999
 30
0.0
 11
76.7851
 21
115.20999999999999
 31
0.0
  0
LINE
  5
EE
  8
0
  6
AIGENLINE001
 62
     7
 10
74.0351
 20
116.20999999999999
 30
0.0
 11
76.7851
 21
116.20999999999999
 31
0.0
  0
LINE
  5
EF
  8
0
  6
AIGENLINE001
 62
     7
 10
72.285099999999986
 20
117.70999999999999
 30
0.0
 11
76.7851
 21
117.70999999999999
 31
0.0
  0
LINE
  5
F0
  8
0
 62
     7
 10
48.6599
 20
128.96000000000001
 30
0.0
 11
76.7851
 21
128.96000000000001
 31
0.0
  0
LINE
  5
F1
  8
0
 62
     7
 10
72.285099999999986
 20
111.45999999999999
 30
0.0
 11
76.7851
 21
111.45999999999999
 31
0.0
  0
LINE
  5
F2
  8
0
 62
     7
 10
72.285099999999986
 20
111.45999999999999
 30
0.0
 11
72.285099999999986
 21
115.20999999999999
 31
0.0
  0
LINE
  5
F3
  8
0
  6
AIGENLINE001
 62
     7
 10
74.0351
 20
111.45999999999999
 30
0.0
 11
74.0351
 21
116.20999999999999
 31
0.0
  0
LINE
  5
F4
  8
0
  6
AIGENLINE001
 62
     7
 10
74.0351
 20
116.20999999999999
 30
0.0
 11
72.285099999999986
 21
117.70999999999999
 31
0.0
  0
ARC
  5
F5
  8
0
  6
AIGENLINE001
 62
     7
 10
102.352079
 20
120.79773299999999
 30
0.0
 40
1.684113999999999
 50
275.65666299999998
 51
358.14071000000001
  0
ARC
  5
F6
  8
0
  6
AIGENLINE001
 62
     7
 10
79.71238000000001
 20
187.59680599999999
 30
0.0
 40
69.904489999999996
 50
271.28919100000002
 51
271.90605900000003
  0
ARC
  5
F7
  8
0
  6
AIGENLINE001
 62
     7
 10
78.398880000000005
 20
227.58654000000001
 30
0.0
 40
109.91578699999999
 50
271.89703400000002
 51
272.51069899999999
  0
ARC
  5
F8
  8
0
  6
AIGENLINE001
 62
     7
 10
74.375005000000002
 20
318.63272000000001
 30
0.0
 40
201.05084099999999
 50
272.519723
 51
273.466658
  0
ARC
  5
F9
  8
0
  6
AIGENLINE001
 62
     7
 10
61.100372999999998
 20
546.06514600000003
 30
0.0
 40
428.87008099999991
 50
273.39960100000002
 51
274.04332499999998
  0
ARC
  5
FA
  8
0
  6
AIGENLINE001
 62
     7
 10
33.466982000000002
 20
944.20232999999996
 30
0.0
 40
827.9649159999999
 50
274.008151
 51
274.783952
  0
LINE
  5
FB
  8
0
  6
AIGENLINE001
 62
     7
 10
104.91
 20
128.96000000000001
 30
0.0
 11
104.035
 21
126.82599999999999
 31
0.0
  0
ARC
  5
FC
  8
0
 62
     7
 10
77.622883999999999
 20
221.40898799999999
 30
0.0
 40
2.1875640000000001
 50
270.00227599999999
 51
0.002246
  0
ARC
  5
FD
  8
0
 62
     7
 10
77.622969999999995
 20
221.40907300000001
 30
0.0
 40
2.1876489999999991
 50
179.99996999999999
 51
270.00002000000001
  0
ARC
  5
FE
  8
0
 62
     7
 10
77.622884999999997
 20
221.408987
 30
0.0
 40
2.1875640000000001
 50
89.997743999999983
 51
179.997714
  0
ARC
  5
FF
  8
0
 62
     7
 10
77.622969999999995
 20
221.40907300000001
 30
0.0
 40
2.187478
 50
0.00001
 51
89.999980000000008
  0
ARC
  5
100
  8
0
 62
     7
 10
77.622969999999995
 20
200.78384700000001
 30
0.0
 40
4.500013
 50
270.00002000000001
 51
359.99999000000003
  0
ARC
  5
101
  8
0
 62
     7
 10
77.622969999999995
 20
200.78384500000001
 30
0.0
 40
4.5000109999999989
 50
179.99996999999999
 51
270.00002000000001
  0
ARC
  5
102
  8
0
 62
     7
 10
77.622970999999993
 20
200.78384500000001
 30
0.0
 40
4.500013
 50
90.0
 51
179.99996999999999
  0
ARC
  5
103
  8
0
 62
     7
 10
77.622969999999995
 20
200.78384500000001
 30
0.0
 40
4.500013
 50
0.00001
 51
89.999980000000008
  0
ARC
  5
104
  8
0
 62
     7
 10
77.622969999999995
 20
200.78384600000001
 30
0.0
 40
2.8124220000000002
 50
270.00002000000001
 51
359.99999000000003
  0
ARC
  5
105
  8
0
 62
     7
 10
77.622883999999999
 20
200.783931
 30
0.0
 40
2.8125070000000001
 50
180.00176500000001
 51
270.00177400000013
  0
ARC
  5
106
  8
0
 62
     7
 10
77.622970999999993
 20
200.78384500000001
 30
0.0
 40
2.8125939999999989
 50
90.0
 51
179.99996999999999
  0
ARC
  5
107
  8
0
 62
     7
 10
77.622883999999999
 20
200.783931
 30
0.0
 40
2.8125079999999998
 50
359.99825499999997
 51
89.998225999999988
  0
ARC
  5
108
  8
0
 62
     7
 10
77.622966000000005
 20
200.78385
 30
0.0
 40
27.250192999999999
 50
270.00002000000001
 51
359.99999000000003
  0
ARC
  5
109
  8
0
 62
     7
 10
77.622966000000005
 20
200.783841
 30
0.0
 40
27.250184000000001
 50
179.99996999999999
 51
270.00002000000001
  0
ARC
  5
10A
  8
0
 62
     7
 10
77.622974999999997
 20
200.783841
 30
0.0
 40
27.250192999999999
 50
90.0
 51
179.99996999999999
  0
ARC
  5
10B
  8
0
 62
     7
 10
77.622966000000005
 20
200.783841
 30
0.0
 40
27.250192999999999
 50
0.00001
 51
89.999980000000008
  0
ARC
  5
10C
  8
0
 62
     7
 10
77.622966000000005
 20
200.783851
 30
0.0
 40
28.125253000000011
 50
270.00002000000001
 51
359.99999000000003
  0
ARC
  5
10D
  8
0
 62
     7
 10
77.622966000000005
 20
200.783841
 30
0.0
 40
28.125243000000001
 50
179.99996999999999
 51
270.00002000000001
  0
ARC
  5
10E
  8
0
 62
     7
 10
77.622974999999997
 20
200.783841
 30
0.0
 40
28.125253000000011
 50
90.0
 51
179.99996999999999
  0
ARC
  5
10F
  8
0
 62
     7
 10
77.622966000000005
 20
200.783841
 30
0.0
 40
28.125253000000011
 50
0.00001
 51
89.999980000000008
  0
ARC
  5
110
  8
0
 62
     7
 10
145.56274999999999
 20
194.40865600000001
 30
0.0
 40
1.249887999999999
 50
179.99996999999999
 51
270.00002000000001
  0
ARC
  5
111
  8
0
 62
     7
 10
158.06284099999999
 20
194.408829
 30
0.0
 40
1.2500610000000001
 50
269.99212499999999
 51
359.99209500000001
  0
ARC
  5
112
  8
0
 62
     7
 10
151.812883
 20
217.53400500000001
 30
0.0
 40
7.5000220000000004
 50
90.0
 51
179.99996999999999
  0
ARC
  5
113
  8
0
 62
     7
 10
151.812881
 20
217.53400500000001
 30
0.0
 40
7.5000220000000004
 50
0.00001
 51
89.999980000000008
  0
LINE
  5
114
  8
0
 62
     7
 10
144.31299999999999
 20
217.53399999999999
 30
0.0
 11
144.31299999999999
 21
194.40899999999999
 31
0.0
  0
LINE
  5
115
  8
0
 62
     7
 10
159.31299999999999
 20
217.53399999999999
 30
0.0
 11
159.31299999999999
 21
194.40899999999999
 31
0.0
  0
LINE
  5
116
  8
0
 62
     7
 10
158.06299999999999
 20
193.15899999999999
 30
0.0
 11
145.56299999999999
 21
193.15899999999999
 31
0.0
  0
ARC
  5
117
  8
0
  6
AIGENLINE001
 62
     7
 10
151.81270900000001
 20
200.784018
 30
0.0
 40
2.8124210000000001
 50
180.00351900000001
 51
270.00352900000001
  0
ARC
  5
118
  8
0
  6
AIGENLINE001
 62
     7
 10
151.812882
 20
200.78384500000001
 30
0.0
 40
2.8125939999999989
 50
90.0
 51
179.99996999999999
  0
ARC
  5
119
  8
0
  6
AIGENLINE001
 62
     7
 10
151.81270900000001
 20
200.784018
 30
0.0
 40
2.8124220000000002
 50
359.99650100000002
 51
89.996471
  0
ARC
  5
11A
  8
0
  6
AIGENLINE001
 62
     7
 10
151.812881
 20
200.78384600000001
 30
0.0
 40
2.8122500000000001
 50
270.00002000000001
 51
359.99999000000003
  0
LINE
  5
11B
  8
0
  6
AIGENLINE002
 62
     7
 10
80.748000000000005
 20
221.40899999999999
 30
0.0
 11
74.497900000000001
 21
221.40899999999999
 31
0.0
  0
LINE
  5
11C
  8
0
 62
     7
 10
102.33499999999999
 20
212.28399999999999
 30
0.0
 11
52.91109999999999
 21
212.28399999999999
 31
0.0
  0
LINE
  5
11D
  8
0
  6
AIGENLINE002
 62
     7
 10
108.873
 20
200.78399999999999
 30
0.0
 11
46.372700000000002
 21
200.78399999999999
 31
0.0
  0
LINE
  5
11E
  8
0
  6
AIGENLINE001
 62
     7
 10
104.035
 20
126.82599999999999
 30
0.0
 11
104.035
 21
120.74299999999999
 31
0.0
  0
LINE
  5
11F
  8
0
 62
     7
 10
104.91
 20
128.96000000000001
 30
0.0
 11
104.91
 21
115.20999999999999
 31
0.0
  0
LINE
  5
120
  8
0
 62
     7
 10
104.91
 20
115.20999999999999
 30
0.0
 11
76.7851
 21
115.20999999999999
 31
0.0
  0
LINE
  5
121
  8
0
  6
AIGENLINE001
 62
     7
 10
79.534999999999997
 20
116.20999999999999
 30
0.0
 11
76.7851
 21
116.20999999999999
 31
0.0
  0
LINE
  5
122
  8
0
  6
AIGENLINE001
 62
     7
 10
81.2851
 20
117.70999999999999
 30
0.0
 11
76.7851
 21
117.70999999999999
 31
0.0
  0
LINE
  5
123
  8
0
 62
     7
 10
104.91
 20
128.96000000000001
 30
0.0
 11
76.7851
 21
128.96000000000001
 31
0.0
  0
LINE
  5
124
  8
0
 62
     7
 10
81.2851
 20
111.45999999999999
 30
0.0
 11
76.7851
 21
111.45999999999999
 31
0.0
  0
LINE
  5
125
  8
0
 62
     7
 10
81.2851
 20
111.45999999999999
 30
0.0
 11
81.2851
 21
115.20999999999999
 31
0.0
  0
LINE
  5
126
  8
0
  6
AIGENLINE001
 62
     7
 10
79.534999999999997
 20
111.45999999999999
 30
0.0
 11
79.534999999999997
 21
116.20999999999999
 31
0.0
  0
LINE
  5
127
  8
0
  6
AIGENLINE001
 62
     7
 10
79.534999999999997
 20
116.20999999999999
 30
0.0
 11
81.2851
 21
117.70999999999999
 31
0.0
  0
LINE
  5
128
  8
0
  6
AIGENLINE002
 62
     7
 10
166.63900000000001
 20
123.95999999999999
 30
0.0
 11
161.63300000000001
 21
123.95999999999999
 31
0.0
  0
LINE
  5
129
  8
0
  6
AIGENLINE002
 62
     7
 10
79.909999999999997
 20
123.95999999999999
 30
0.0
 11
73.6601
 21
123.95999999999999
 31
0.0
  0
LINE
  5
12A
  8
0
  6
AIGENLINE002
 62
     7
 10
76.7851
 20
110.20999999999999
 30
0.0
 11
76.7851
 21
130.21000000000001
 31
0.0
  0
LINE
  5
12B
  8
0
  6
AIGENLINE002
 62
     7
 10
77.623000000000005
 20
169.53399999999999
 30
0.0
 11
77.623000000000005
 21
232.03399999999999
 31
0.0
  0
LINE
  5
12C
  8
0
  6
AIGENLINE002
 62
     7
 10
147.43799999999999
 20
200.78399999999999
 30
0.0
 11
156.18799999999999
 21
200.78399999999999
 31
0.0
  0
LINE
  5
12D
  8
0
  6
AIGENLINE002
 62
     7
 10
151.81299999999999
 20
228.03399999999999
 30
0.0
 11
151.81299999999999
 21
190.15899999999999
 31
0.0
  0
LINE
  5
12E
  8
0
 62
     7
 10
47.286000000000001
 20
162.875
 30
0.0
 11
49.497700000000002
 21
162.28200000000001
 31
0.0
  0
LINE
  5
12F
  8
0
 62
     7
 10
49.497700000000002
 20
162.28200000000001
 30
0.0
 11
47.286000000000001
 21
161.69
 31
0.0
  0
LINE
  5
130
  8
0
 62
     7
 10
47.286000000000001
 20
161.69
 30
0.0
 11
47.286000000000001
 21
162.875
 31
0.0
  0
LINE
  5
131
  8
0
 62
     7
 10
52.584499999999991
 20
162.875
 30
0.0
 11
50.372799999999991
 21
162.28200000000001
 31
0.0
  0
LINE
  5
132
  8
0
 62
     7
 10
50.372799999999991
 20
162.28200000000001
 30
0.0
 11
52.584499999999991
 21
161.69
 31
0.0
  0
LINE
  5
133
  8
0
 62
     7
 10
52.584499999999991
 20
161.69
 30
0.0
 11
52.584499999999991
 21
162.875
 31
0.0
  0
LINE
  5
134
  8
0
 62
     7
 10
107.95999999999999
 20
161.70400000000001
 30
0.0
 11
105.748
 21
162.297
 31
0.0
  0
LINE
  5
135
  8
0
 62
     7
 10
105.748
 20
162.297
 30
0.0
 11
107.95999999999999
 21
162.88900000000001
 31
0.0
  0
LINE
  5
136
  8
0
 62
     7
 10
107.95999999999999
 20
162.88900000000001
 30
0.0
 11
107.95999999999999
 21
161.70400000000001
 31
0.0
  0
LINE
  5
137
  8
0
 62
     7
 10
102.661
 20
161.70400000000001
 30
0.0
 11
104.873
 21
162.297
 31
0.0
  0
LINE
  5
138
  8
0
 62
     7
 10
104.873
 20
162.297
 30
0.0
 11
102.661
 21
162.88900000000001
 31
0.0
  0
LINE
  5
139
  8
0
 62
     7
 10
102.661
 20
162.88900000000001
 30
0.0
 11
102.661
 21
161.70400000000001
 31
0.0
  0
LINE
  5
13A
  8
0
 62
     7
 10
44.985999999999997
 20
162.28200000000001
 30
0.0
 11
110.26000000000001
 21
162.28200000000001
 31
0.0
  0
LINE
  5
13B
  8
0
 62
     7
 10
104.873
 20
161.58199999999999
 30
0.0
 11
104.873
 21
190.006
 31
0.0
  0
LINE
  5
13C
  8
0
 62
     7
 10
50.372799999999991
 20
161.58199999999999
 30
0.0
 11
50.372799999999991
 21
190.006
 31
0.0
  0
LINE
  5
13D
  8
0
 62
     7
 10
49.497700000000002
 20
161.58199999999999
 30
0.0
 11
49.497700000000002
 21
194.483
 31
0.0
  0
LINE
  5
13E
  8
0
 62
     7
 10
105.748
 20
161.58199999999999
 30
0.0
 11
105.748
 21
194.483
 31
0.0
  0
LINE
  5
13F
  8
0
 62
     7
 10
146.52500000000001
 20
182.001
 30
0.0
 11
144.31299999999999
 21
181.40799999999999
 31
0.0
  0
LINE
  5
140
  8
0
 62
     7
 10
144.31299999999999
 20
181.40799999999999
 30
0.0
 11
146.52500000000001
 21
180.81599999999989
 31
0.0
  0
LINE
  5
141
  8
0
 62
     7
 10
146.52500000000001
 20
180.81599999999989
 30
0.0
 11
146.52500000000001
 21
182.001
 31
0.0
  0
LINE
  5
142
  8
0
 62
     7
 10
157.101
 20
180.83000000000001
 30
0.0
 11
159.31299999999999
 21
181.423
 31
0.0
  0
LINE
  5
143
  8
0
 62
     7
 10
159.31299999999999
 20
181.423
 30
0.0
 11
157.101
 21
182.01499999999999
 31
0.0
  0
LINE
  5
144
  8
0
 62
     7
 10
157.101
 20
182.01499999999999
 30
0.0
 11
157.101
 21
180.83000000000001
 31
0.0
  0
LINE
  5
145
  8
0
 62
     7
 10
144.31299999999999
 20
181.40799999999999
 30
0.0
 11
159.31299999999999
 21
181.40799999999999
 31
0.0
  0
LINE
  5
146
  8
0
 62
     7
 10
144.31299999999999
 20
180.708
 30
0.0
 11
144.31299999999999
 21
192.459
 31
0.0
  0
LINE
  5
147
  8
0
 62
     7
 10
159.31299999999999
 20
180.708
 30
0.0
 11
159.31299999999999
 21
192.459
 31
0.0
  0
LINE
  5
148
  8
0
 62
     7
 10
155.191
 20
103.92
 30
0.0
 11
152.97900000000001
 21
103.327
 31
0.0
  0
LINE
  5
149
  8
0
 62
     7
 10
152.97900000000001
 20
103.327
 30
0.0
 11
155.191
 21
102.735
 31
0.0
  0
LINE
  5
14A
  8
0
 62
     7
 10
155.191
 20
102.735
 30
0.0
 11
155.191
 21
103.92
 31
0.0
  0
LINE
  5
14B
  8
0
 62
     7
 10
178.892
 20
102.749
 30
0.0
 11
181.10400000000001
 21
103.342
 31
0.0
  0
LINE
  5
14C
  8
0
 62
     7
 10
181.10400000000001
 20
103.342
 30
0.0
 11
178.892
 21
103.934
 31
0.0
  0
LINE
  5
14D
  8
0
 62
     7
 10
178.892
 20
103.934
 30
0.0
 11
178.892
 21
102.749
 31
0.0
  0
LINE
  5
14E
  8
0
 62
     7
 10
152.97900000000001
 20
103.327
 30
0.0
 11
181.10400000000001
 21
103.327
 31
0.0
  0
LINE
  5
14F
  8
0
 62
     7
 10
181.10400000000001
 20
102.627
 30
0.0
 11
181.10400000000001
 21
114.378
 31
0.0
  0
LINE
  5
150
  8
0
 62
     7
 10
152.97900000000001
 20
102.627
 30
0.0
 11
152.97900000000001
 21
109.779
 31
0.0
  0
LINE
  5
151
  8
0
 62
     7
 10
114.176
 20
113.67100000000001
 30
0.0
 11
114.768
 21
111.45999999999999
 31
0.0
  0
LINE
  5
152
  8
0
 62
     7
 10
114.768
 20
111.45999999999999
 30
0.0
 11
115.361
 21
113.67100000000001
 31
0.0
  0
LINE
  5
153
  8
0
 62
     7
 10
115.361
 20
113.67100000000001
 30
0.0
 11
114.176
 21
113.67100000000001
 31
0.0
  0
LINE
  5
154
  8
0
 62
     7
 10
115.346
 20
126.749
 30
0.0
 11
114.754
 21
128.96000000000001
 31
0.0
  0
LINE
  5
155
  8
0
 62
     7
 10
114.754
 20
128.96000000000001
 30
0.0
 11
114.161
 21
126.749
 31
0.0
  0
LINE
  5
156
  8
0
 62
     7
 10
114.161
 20
126.749
 30
0.0
 11
115.346
 21
126.749
 31
0.0
  0
LINE
  5
157
  8
0
 62
     7
 10
114.754
 20
111.45999999999999
 30
0.0
 11
114.754
 21
128.96000000000001
 31
0.0
  0
LINE
  5
158
  8
0
 62
     7
 10
115.45399999999999
 20
128.96000000000001
 30
0.0
 11
105.61
 21
128.96000000000001
 31
0.0
  0
LINE
  5
159
  8
0
 62
     7
 10
115.45399999999999
 20
111.45999999999999
 30
0.0
 11
81.985200000000006
 21
111.45999999999999
 31
0.0
  0
LINE
  5
15A
  8
0
 62
     7
 10
168.977
 20
131.03999999999999
 30
0.0
 11
169.56899999999999
 21
128.828
 31
0.0
  0
LINE
  5
15B
  8
0
 62
     7
 10
169.56899999999999
 20
128.828
 30
0.0
 11
170.16200000000001
 21
131.03999999999999
 31
0.0
  0
LINE
  5
15C
  8
0
 62
     7
 10
170.16200000000001
 20
131.03999999999999
 30
0.0
 11
168.977
 21
131.03999999999999
 31
0.0
  0
LINE
  5
15D
  8
0
 62
     7
 10
170.14699999999999
 20
124.741
 30
0.0
 11
169.55500000000001
 21
126.953
 31
0.0
  0
LINE
  5
15E
  8
0
 62
     7
 10
169.55500000000001
 20
126.953
 30
0.0
 11
168.96199999999999
 21
124.741
 31
0.0
  0
LINE
  5
15F
  8
0
 62
     7
 10
168.96199999999999
 20
124.741
 30
0.0
 11
170.14699999999999
 21
124.741
 31
0.0
  0
LINE
  5
160
  8
0
 62
     7
 10
169.55500000000001
 20
122.687
 30
0.0
 11
169.55500000000001
 21
135.13999999999999
 31
0.0
  0
LINE
  5
161
  8
0
 62
     7
 10
150.53299999999999
 20
119.789
 30
0.0
 11
151.126
 21
117.578
 31
0.0
  0
LINE
  5
162
  8
0
 62
     7
 10
151.126
 20
117.578
 30
0.0
 11
151.71799999999999
 21
119.789
 31
0.0
  0
LINE
  5
163
  8
0
 62
     7
 10
151.71799999999999
 20
119.789
 30
0.0
 11
150.53299999999999
 21
119.789
 31
0.0
  0
LINE
  5
164
  8
0
 62
     7
 10
151.70400000000001
 20
126.616
 30
0.0
 11
151.11099999999999
 21
128.828
 31
0.0
  0
LINE
  5
165
  8
0
 62
     7
 10
151.11099999999999
 20
128.828
 30
0.0
 11
150.51900000000001
 21
126.616
 31
0.0
  0
LINE
  5
166
  8
0
 62
     7
 10
150.51900000000001
 20
126.616
 30
0.0
 11
151.70400000000001
 21
126.616
 31
0.0
  0
LINE
  5
167
  8
0
 62
     7
 10
151.11099999999999
 20
117.578
 30
0.0
 11
151.11099999999999
 21
128.828
 31
0.0
  0
LINE
  5
168
  8
0
 62
     7
 10
41.081799999999987
 20
117.422
 30
0.0
 11
41.674399999999999
 21
115.20999999999999
 31
0.0
  0
LINE
  5
169
  8
0
 62
     7
 10
41.674399999999999
 20
115.20999999999999
 30
0.0
 11
42.2669
 21
117.422
 31
0.0
  0
LINE
  5
16A
  8
0
 62
     7
 10
42.2669
 20
117.422
 30
0.0
 11
41.081799999999987
 21
117.422
 31
0.0
  0
LINE
  5
16B
  8
0
 62
     7
 10
42.252499999999991
 20
126.749
 30
0.0
 11
41.659899999999993
 21
128.96000000000001
 31
0.0
  0
LINE
  5
16C
  8
0
 62
     7
 10
41.659899999999993
 20
128.96000000000001
 30
0.0
 11
41.067300000000003
 21
126.749
 31
0.0
  0
LINE
  5
16D
  8
0
 62
     7
 10
41.067300000000003
 20
126.749
 30
0.0
 11
42.252499999999991
 21
126.749
 31
0.0
  0
LINE
  5
16E
  8
0
 62
     7
 10
41.659899999999993
 20
115.20999999999999
 30
0.0
 11
41.659899999999993
 21
128.96000000000001
 31
0.0
  0
LINE
  5
16F
  8
0
 62
     7
 10
47.959800000000001
 20
128.96000000000001
 30
0.0
 11
40.95989999999999
 21
128.96000000000001
 31
0.0
  0
LINE
  5
170
  8
0
 62
     7
 10
47.959800000000001
 20
115.20999999999999
 30
0.0
 11
40.95989999999999
 21
115.20999999999999
 31
0.0
  0
LINE
  5
171
  8
0
 62
     7
 10
172.89099999999999
 20
225.03399999999999
 30
0.0
 11
155.31299999999999
 21
225.03399999999999
 31
0.0
  0
LINE
  5
172
  8
0
 62
     7
 10
171.59899999999999
 20
195.37
 30
0.0
 11
172.191
 21
193.15899999999999
 31
0.0
  0
LINE
  5
173
  8
0
 62
     7
 10
172.191
 20
193.15899999999999
 30
0.0
 11
172.78399999999999
 21
195.37
 31
0.0
  0
LINE
  5
174
  8
0
 62
     7
 10
172.78399999999999
 20
195.37
 30
0.0
 11
171.59899999999999
 21
195.37
 31
0.0
  0
LINE
  5
175
  8
0
 62
     7
 10
172.77000000000001
 20
222.82599999999999
 30
0.0
 11
172.17699999999999
 21
225.03700000000001
 31
0.0
  0
LINE
  5
176
  8
0
 62
     7
 10
172.17699999999999
 20
225.03700000000001
 30
0.0
 11
171.584
 21
222.82599999999999
 31
0.0
  0
LINE
  5
177
  8
0
 62
     7
 10
171.584
 20
222.82599999999999
 30
0.0
 11
172.77000000000001
 21
222.82599999999999
 31
0.0
  0
LINE
  5
178
  8
0
 62
     7
 10
166.09899999999999
 20
195.37
 30
0.0
 11
166.69099999999989
 21
193.15899999999999
 31
0.0
  0
LINE
  5
179
  8
0
 62
     7
 10
166.69099999999989
 20
193.15899999999999
 30
0.0
 11
167.28399999999999
 21
195.37
 31
0.0
  0
LINE
  5
17A
  8
0
 62
     7
 10
167.28399999999999
 20
195.37
 30
0.0
 11
166.09899999999999
 21
195.37
 31
0.0
  0
LINE
  5
17B
  8
0
 62
     7
 10
166.09899999999999
 20
198.572
 30
0.0
 11
166.69099999999989
 21
200.78399999999999
 31
0.0
  0
LINE
  5
17C
  8
0
 62
     7
 10
166.69099999999989
 20
200.78399999999999
 30
0.0
 11
167.28399999999999
 21
198.572
 31
0.0
  0
LINE
  5
17D
  8
0
 62
     7
 10
167.28399999999999
 20
198.572
 30
0.0
 11
166.09899999999999
 21
198.572
 31
0.0
  0
LINE
  5
17E
  8
0
 62
     7
 10
166.09899999999999
 20
202.99600000000001
 30
0.0
 11
166.69099999999989
 21
200.78399999999999
 31
0.0
  0
LINE
  5
17F
  8
0
 62
     7
 10
166.69099999999989
 20
200.78399999999999
 30
0.0
 11
167.28399999999999
 21
202.99600000000001
 31
0.0
  0
LINE
  5
180
  8
0
 62
     7
 10
167.28399999999999
 20
202.99600000000001
 30
0.0
 11
166.09899999999999
 21
202.99600000000001
 31
0.0
  0
LINE
  5
181
  8
0
 62
     7
 10
167.26900000000001
 20
222.82599999999999
 30
0.0
 11
166.67699999999999
 21
225.03700000000001
 31
0.0
  0
LINE
  5
182
  8
0
 62
     7
 10
166.67699999999999
 20
225.03700000000001
 30
0.0
 11
166.084
 21
222.82599999999999
 31
0.0
  0
LINE
  5
183
  8
0
 62
     7
 10
166.084
 20
222.82599999999999
 30
0.0
 11
167.26900000000001
 21
222.82599999999999
 31
0.0
  0
LINE
  5
184
  8
0
 62
     7
 10
172.17699999999999
 20
193.15899999999999
 30
0.0
 11
172.17699999999999
 21
225.03700000000001
 31
0.0
  0
LINE
  5
185
  8
0
 62
     7
 10
166.67699999999999
 20
193.15899999999999
 30
0.0
 11
166.67699999999999
 21
225.03700000000001
 31
0.0
  0
LINE
  5
186
  8
0
 62
     7
 10
172.89099999999999
 20
193.15899999999999
 30
0.0
 11
159.33799999999999
 21
193.15899999999999
 31
0.0
  0
LINE
  5
187
  8
0
 62
     7
 10
167.39099999999999
 20
200.78399999999999
 30
0.0
 11
156.88800000000001
 21
200.78399999999999
 31
0.0
  0
TEXT
  5
188
  8
_________2
 62
     7
 10
37.328899999999997
 20
66.018100000000004
 30
0.0
 40
3.9357000000000002
  1
※排水栓を閉めた状態で毎分6L以上吐水させないでください。
 41
0.5
  0
LINE
  5
189
  8
_________2
 62
     7
 10
210.24000000000001
 20
148.93000000000001
 30
0.0
 11
188.489
 21
148.93000000000001
 31
0.0
  0
LINE
  5
18A
  8
_________2
 62
     7
 10
105.239
 20
17.4282
 30
0.0
 11
105.239
 21
0.447865
 31
0.0
  0
LINE
  5
18B
  8
_________2
 62
     7
 10
105.239
 20
297.44999999999999
 30
0.0
 11
105.239
 21
280.43000000000001
 31
0.0
  0
LINE
  5
18C
  8
_________2
 62
     7
 10
21.988499999999998
 20
148.93000000000001
 30
0.0
 11
0.238402
 21
148.93000000000001
 31
0.0
  0
LINE
  5
18D
  8
_________2
 62
     7
 10
81.679900000000004
 20
51.323999999999998
 30
0.0
 11
79.493700000000004
 21
51.323999999999998
 31
0.0
  0
LINE
  5
18E
  8
_________2
 62
     7
 10
82.172600000000017
 20
51.323999999999998
 30
0.0
 11
81.920400000000001
 21
51.323999999999998
 31
0.0
  0
LINE
  5
18F
  8
_________2
 62
     7
 10
82.665199999999984
 20
51.323999999999998
 30
0.0
 11
85.590100000000007
 21
51.323999999999998
 31
0.0
  0
LINE
  5
190
  8
_________2
 62
     7
 10
82.172600000000017
 20
51.323999999999998
 30
0.0
 11
82.424400000000006
 21
51.323999999999998
 31
0.0
  0
LINE
  5
191
  8
_________2
 62
     7
 10
75.77600000000001
 20
51.323999999999998
 30
0.0
 11
73.589399999999998
 21
51.323999999999998
 31
0.0
  0
LINE
  5
192
  8
_________2
 62
     7
 10
76.2684
 20
51.323999999999998
 30
0.0
 11
76.016499999999994
 21
51.323999999999998
 31
0.0
  0
LINE
  5
193
  8
_________2
 62
     7
 10
76.2684
 20
51.816600000000001
 30
0.0
 11
76.2684
 21
54.003599999999999
 31
0.0
  0
LINE
  5
194
  8
_________2
 62
     7
 10
76.2684
 20
51.323999999999998
 30
0.0
 11
76.2684
 21
51.5762
 31
0.0
  0
LINE
  5
195
  8
_________2
 62
     7
 10
76.76100000000001
 20
51.323999999999998
 30
0.0
 11
78.947999999999993
 21
51.323999999999998
 31
0.0
  0
LINE
  5
196
  8
_________2
 62
     7
 10
76.2684
 20
51.323999999999998
 30
0.0
 11
76.520499999999998
 21
51.323999999999998
 31
0.0
  0
LINE
  5
197
  8
_________2
 62
     7
 10
76.2684
 20
50.832000000000001
 30
0.0
 11
76.2684
 21
48.645099999999999
 31
0.0
  0
LINE
  5
198
  8
_________2
 62
     7
 10
76.2684
 20
51.323999999999998
 30
0.0
 11
76.2684
 21
51.072499999999998
 31
0.0
  0
LINE
  5
199
  8
_________2
 62
     7
 10
79.979399999999984
 20
50.104399999999998
 30
0.0
 11
85.157399999999996
 21
49.239699999999999
 31
0.0
  0
LINE
  5
19A
  8
_________2
 62
     7
 10
79.979399999999984
 20
52.543599999999998
 30
0.0
 11
85.157399999999996
 21
53.408999999999999
 31
0.0
  0
LINE
  5
19B
  8
_________2
 62
     7
 10
85.157399999999996
 20
49.239699999999999
 30
0.0
 11
85.157399999999996
 21
53.408999999999999
 31
0.0
  0
LINE
  5
19C
  8
_________2
 62
     7
 10
79.979399999999984
 20
50.104399999999998
 30
0.0
 11
79.979399999999984
 21
52.543599999999998
 31
0.0
  0
ARC
  5
19D
  8
_________2
 62
     7
 10
76.221776000000006
 20
51.277046999999989
 30
0.0
 40
1.2673589999999999
 50
2.122214
 51
87.893958999999995
  0
ARC
  5
19E
  8
_________2
 62
     7
 10
76.315273000000005
 20
51.277056000000002
 30
0.0
 40
1.267363
 50
92.121785999999986
 51
177.878185
  0
ARC
  5
19F
  8
_________2
 62
     7
 10
76.315273000000005
 20
51.370902000000001
 30
0.0
 40
1.267363
 50
182.121815
 51
267.87821400000001
  0
ARC
  5
1A0
  8
_________2
 62
     7
 10
76.221451999999999
 20
51.371234999999999
 30
0.0
 40
1.267695999999999
 50
272.12015300000002
 51
357.863674
  0
ARC
  5
1A1
  8
_________2
 62
     7
 10
76.268349999999984
 20
51.323979000000001
 30
0.0
 40
2.0849849999999992
 50
0.00001
 51
89.999980000000008
  0
ARC
  5
1A2
  8
_________2
 62
     7
 10
76.268523000000002
 20
51.324151000000001
 30
0.0
 40
2.084813
 50
90.004733999999999
 51
180.00474399999999
  0
ARC
  5
1A3
  8
_________2
 62
     7
 10
76.348021000000003
 20
51.404007
 30
0.0
 40
2.1657899999999999
 50
182.117637
 51
267.891862
  0
ARC
  5
1A4
  8
_________2
 62
     7
 10
76.188378999999983
 20
51.404665999999992
 30
0.0
 40
2.1664590000000001
 50
272.11546800000002
 51
357.86560400000002
  0
TEXT
  5
1A5
  8
_________2
 62
     7
 10
109.544
 20
23.198699999999999
 30
0.0
 40
3.0923400000000001
  1
図番
 41
0.5
  0
LINE
  5
1A6
  8
_________2
 62
     7
 10
108.489
 20
27.428000000000001
 30
0.0
 11
188.49000000000001
 21
27.428000000000001
 31
0.0
  0
TEXT
  5
1A7
  8
_________2
 62
     7
 10
109.544
 20
33.19850000000001
 30
0.0
 40
3.0923400000000001
  1
品番
 41
0.5
  0
TEXT
  5
1A8
  8
_________2
 62
     7
 10
109.544
 20
53.337299999999999
 30
0.0
 40
3.0923400000000001
  1
名称
 41
0.5
  0
TEXT
  5
1A9
  8
_________2
 62
     7
 10
96.784058333333334
 20
48.341200000000001
 30
0.0
 40
3.6545800000000002
  1
mm
 41
0.5
 72
     1
 11
98.306799999999996
 21
48.341200000000001
 31
0.0
  0
TEXT
  5
1AA
  8
_________2
 62
     7
 10
90.582099999999997
 20
53.337299999999999
 30
0.0
 40
3.0923400000000001
  1
単位
 41
0.5
  0
TEXT
  5
1AB
  8
_________2
 62
     7
 10
90.582099999999997
 20
40.930100000000003
 30
0.0
 40
3.0923400000000001
  1
尺度
 41
0.5
  0
TEXT
  5
1AC
  8
_________2
 62
     7
 10
95.487658666666675
 20
34.737099999999998
 30
0.0
 40
3.6545800000000002
  1
1 ： 8
 41
0.5
 72
     1
 11
98.898600000000002
 21
34.737099999999998
 31
0.0
  0
TEXT
  5
1AD
  8
_________2
 62
     7
 10
143.07741250000001
 20
30.627099999999999
 30
0.0
 40
3.9357000000000002
  1
GA7404
 41
0.5
 72
     1
 11
148.489
 21
30.627099999999999
 31
0.0
  0
TEXT
  5
1AE
  8
_________2
 62
     7
 10
143.07741250000001
 20
20.6266
 30
0.0
 40
3.9357000000000002
  1
GA7404
 41
0.5
 72
     1
 11
148.489
 21
20.6266
 31
0.0
  0
TEXT
  5
1AF
  8
_________2
 62
     7
 10
29.525700000000001
 20
22.226500000000001
 30
0.0
 40
3.9357000000000002
  1
実容量：3.4L、重量：9.3kg、オーバーフロー付
 41
0.5
  0
TEXT
  5
1B0
  8
_________2
 62
     7
 10
114.117
 20
45.74499999999999
 30
0.0
 40
3.9357000000000002
  1
スマートB 洗面器
 41
0.5
  0
TEXT
  5
1B1
  8
_________2
 62
     7
 10
44.303290666666669
 20
35.12230000000001
 30
0.0
 40
3.6545800000000002
  1
篠崎
 41
0.5
 72
     1
 11
46.252400000000002
 21
35.12230000000001
 31
0.0
  0
TEXT
  5
1B2
  8
_________2
 62
     7
 10
25.728990666666672
 20
35.12230000000001
 30
0.0
 40
3.6545800000000002
  1
菅原
 41
0.5
 72
     1
 11
27.678100000000001
 21
35.12230000000001
 31
0.0
  0
TEXT
  5
1B3
  8
_________2
 62
     7
 10
72.724400000000003
 20
34.737099999999998
 30
0.0
 40
3.6545800000000002
  1
16.12.09
 41
0.5
  0
TEXT
  5
1B4
  8
_________2
 62
     7
 10
71.531999999999996
 20
40.930100000000003
 30
0.0
 40
3.0923400000000001
  1
日付
 41
0.5
  0
TEXT
  5
1B5
  8
_________2
 62
     7
 10
34.578299999999999
 20
40.930100000000003
 30
0.0
 40
3.0923400000000001
  1
検図
 41
0.5
  0
TEXT
  5
1B6
  8
_________2
 62
     7
 10
22.960000000000001
 20
26.730699999999999
 30
0.0
 40
3.0923400000000001
  1
備考
 41
0.5
  0
TEXT
  5
1B7
  8
_________2
 62
     7
 10
22.960000000000001
 20
40.930100000000003
 30
0.0
 40
3.0923400000000001
  1
製図
 41
0.5
  0
TEXT
  5
1B8
  8
_________2
 62
     7
 10
28.727365333333339
 20
49.456000000000003
 30
0.0
 40
4.4979399999999989
  1
セラトレーディング株式会社
 41
0.5
 72
     1
 11
46.119399999999992
 21
49.456000000000003
 31
0.0
  0
LINE
  5
1B9
  8
_________2
 62
     7
 10
188.49000000000001
 20
17.4282
 30
0.0
 11
21.988499999999998
 21
17.4282
 31
0.0
  0
LINE
  5
1BA
  8
_________2
 62
     7
 10
21.988499999999998
 20
17.4282
 30
0.0
 11
21.988499999999998
 21
280.43000000000001
 31
0.0
  0
LINE
  5
1BB
  8
_________2
 62
     7
 10
21.988499999999998
 20
280.43000000000001
 30
0.0
 11
188.49000000000001
 21
280.43000000000001
 31
0.0
  0
LINE
  5
1BC
  8
_________2
 62
     7
 10
188.49000000000001
 20
280.43000000000001
 30
0.0
 11
188.49000000000001
 21
17.4282
 31
0.0
  0
LINE
  5
1BD
  8
_________2
 62
     7
 10
70.488500000000002
 20
30.9282
 30
0.0
 11
70.488500000000002
 21
57.427999999999997
 31
0.0
  0
LINE
  5
1BE
  8
_________2
 62
     7
 10
89.488600000000005
 20
30.9282
 30
0.0
 11
89.488600000000005
 21
57.427999999999997
 31
0.0
  0
LINE
  5
1BF
  8
_________2
 62
     7
 10
108.489
 20
17.4282
 30
0.0
 11
108.489
 21
57.427999999999997
 31
0.0
  0
LINE
  5
1C0
  8
_________2
 62
     7
 10
33.488300000000002
 20
30.9282
 30
0.0
 11
33.488300000000002
 21
44.928499999999993
 31
0.0
  0
LINE
  5
1C1
  8
_________2
 62
     7
 10
21.988499999999998
 20
30.9282
 30
0.0
 11
108.489
 21
30.9282
 31
0.0
  0
LINE
  5
1C2
  8
_________2
 62
     7
 10
21.988499999999998
 20
44.928499999999993
 30
0.0
 11
108.489
 21
44.928499999999993
 31
0.0
  0
LINE
  5
1C3
  8
_________2
 62
     7
 10
108.489
 20
37.427799999999998
 30
0.0
 11
188.49000000000001
 21
37.427799999999998
 31
0.0
  0
LINE
  5
1C4
  8
_________2
 62
     7
 10
21.988499999999998
 20
57.427999999999997
 30
0.0
 11
188.49000000000001
 21
57.427999999999997
 31
0.0
  0
ENDSEC
  0
EOF
