  0
SECTION
  2
HEADER
  9
$ACADVER
  1
AC1009
  9
$INSBASE
 10
0.0
 20
0.0
 30
0.0
  9
$EXTMIN
 10
-4.70052
 20
-21.070699999999999
 30
0.0
  9
$EXTMAX
 10
205.30099999999999
 20
275.93099999999998
 30
0.0
  9
$LIMMIN
 10
0.0
 20
0.0
  9
$LIMMAX
 10
12.0
 20
9.0
  9
$ORTHOMODE
 70
     0
  9
$REGENMODE
 70
     1
  9
$FILLMODE
 70
     1
  9
$QTEXTMODE
 70
     0
  9
$MIRRTEXT
 70
     1
  9
$DRAGMODE
 70
     2
  9
$LTSCALE
 40
1.0
  9
$OSMODE
 70
    37
  9
$ATTMODE
 70
     1
  9
$TEXTSIZE
 40
0.0
  9
$TRACEWID
 40
0.05
  9
$TEXTSTYLE
  7
STANDARD
  9
$CLAYER
  8
0
  9
$CELTYPE
  6
CONTINUOUS
  9
$CECOLOR
 62
   256
  9
$DIMSCALE
 40
1.0
  9
$DIMASZ
 40
0.18
  9
$DIMEXO
 40
0.0625
  9
$DIMDLI
 40
0.38
  9
$DIMRND
 40
0.0
  9
$DIMDLE
 40
0.0
  9
$DIMEXE
 40
0.18
  9
$DIMTP
 40
0.0
  9
$DIMTM
 40
0.0
  9
$DIMTXT
 40
0.18
  9
$DIMCEN
 40
0.09
  9
$DIMTSZ
 40
0.0
  9
$DIMTOL
 70
     0
  9
$DIMLIM
 70
     0
  9
$DIMTIH
 70
     1
  9
$DIMTOH
 70
     1
  9
$DIMSE1
 70
     0
  9
$DIMSE2
 70
     0
  9
$DIMTAD
 70
     0
  9
$DIMZIN
 70
     0
  9
$DIMBLK
  1

  9
$DIMASO
 70
     1
  9
$DIMSHO
 70
     1
  9
$DIMPOST
  1

  9
$DIMAPOST
  1

  9
$DIMALT
 70
     0
  9
$DIMALTD
 70
     2
  9
$DIMALTF
 40
25.399999999999999
  9
$DIMLFAC
 40
1.0
  9
$DIMTOFL
 70
     0
  9
$DIMTVP
 40
0.0
  9
$DIMTIX
 70
     0
  9
$DIMSOXD
 70
     0
  9
$DIMSAH
 70
     0
  9
$DIMBLK1
  1

  9
$DIMBLK2
  1

  9
$DIMSTYLE
  2
STANDARD
  9
$DIMCLRD
 70
     0
  9
$DIMCLRE
 70
     0
  9
$DIMCLRT
 70
     0
  9
$DIMTFAC
 40
1.0
  9
$DIMGAP
 40
0.09
  9
$LUNITS
 70
     2
  9
$LUPREC
 70
     4
  9
$SKETCHINC
 40
0.1
  9
$FILLETRAD
 40
0.0
  9
$AUNITS
 70
     0
  9
$AUPREC
 70
     0
  9
$MENU
  1
.
  9
$ELEVATION
 40
0.0
  9
$PELEVATION
 40
0.0
  9
$THICKNESS
 40
0.0
  9
$LIMCHECK
 70
     0
  9
$BLIPMODE
 70
     0
  9
$CHAMFERA
 40
0.0
  9
$CHAMFERB
 40
0.0
  9
$SKPOLY
 70
     0
  9
$TDCREATE
 40
2444972.375
  9
$TDUPDATE
 40
2458783.2507927432
  9
$TDINDWG
 40
0.0000346644
  9
$TDUSRTIMER
 40
0.0000346644
  9
$USRTIMER
 70
     1
  9
$ANGBASE
 50
0.0
  9
$ANGDIR
 70
     0
  9
$PDMODE
 70
     0
  9
$PDSIZE
 40
0.0
  9
$PLINEWID
 40
0.0
  9
$COORDS
 70
     1
  9
$SPLFRAME
 70
     0
  9
$SPLINETYPE
 70
     6
  9
$SPLINESEGS
 70
     8
  9
$ATTDIA
 70
     1
  9
$ATTREQ
 70
     1
  9
$HANDLING
 70
     1
  9
$HANDSEED
  5
380
  9
$SURFTAB1
 70
     6
  9
$SURFTAB2
 70
     6
  9
$SURFTYPE
 70
     6
  9
$SURFU
 70
     6
  9
$SURFV
 70
     6
  9
$UCSNAME
  2

  9
$UCSORG
 10
0.0
 20
0.0
 30
0.0
  9
$UCSXDIR
 10
1.0
 20
0.0
 30
0.0
  9
$UCSYDIR
 10
0.0
 20
1.0
 30
0.0
  9
$PUCSNAME
  2

  9
$PUCSORG
 10
0.0
 20
0.0
 30
0.0
  9
$PUCSXDIR
 10
1.0
 20
0.0
 30
0.0
  9
$PUCSYDIR
 10
0.0
 20
1.0
 30
0.0
  9
$USERI1
 70
     0
  9
$USERI2
 70
     0
  9
$USERI3
 70
     0
  9
$USERI4
 70
     0
  9
$USERI5
 70
     0
  9
$USERR1
 40
0.0
  9
$USERR2
 40
0.0
  9
$USERR3
 40
0.0
  9
$USERR4
 40
0.0
  9
$USERR5
 40
0.0
  9
$WORLDVIEW
 70
     1
  9
$SHADEDGE
 70
     3
  9
$SHADEDIF
 70
    70
  9
$TILEMODE
 70
     1
  9
$MAXACTVP
 70
    48
  9
$PLIMCHECK
 70
     0
  9
$PEXTMIN
 10
1.0000000000000000E+020
 20
1.0000000000000000E+020
 30
1.0000000000000000E+020
  9
$PEXTMAX
 10
-1.0000000000000000E+020
 20
-1.0000000000000000E+020
 30
-1.0000000000000000E+020
  9
$PLIMMIN
 10
0.0
 20
0.0
  9
$PLIMMAX
 10
12.0
 20
9.0
  9
$UNITMODE
 70
     0
  9
$VISRETAIN
 70
     1
  9
$PLINEGEN
 70
     0
  9
$PSLTSCALE
 70
     1
  0
ENDSEC
  0
SECTION
  2
TABLES
  0
TABLE
  2
VPORT
 70
     1
  0
VPORT
  2
*ACTIVE
 70
     0
 10
0.0
 20
0.0
 11
1.0
 21
1.0
 12
190.88168206760091
 22
127.4301499999999
 13
0.0
 23
0.0
 14
1.0
 24
1.0
 15
0.0
 25
0.0
 16
0.0
 26
0.0
 36
1.0
 17
0.0
 27
0.0
 37
0.0
 40
280.94862533030818
 41
2.298642533936651
 42
50.0
 43
0.0
 44
0.0
 50
0.0
 51
0.0
 71
     0
 72
   100
 73
     1
 74
     1
 75
     0
 76
     0
 77
     0
 78
     0
  0
ENDTAB
  0
TABLE
  2
LTYPE
 70
     4
  0
LTYPE
  2
CONTINUOUS
 70
     0
  3
Solid line
 72
    65
 73
     0
 40
0.0
  0
LTYPE
  2
AIGENLINE001
 70
     0
  3
generate AI->DXF Converter
 72
    65
 73
     4
 40
5.8561449999999988
 49
3.5278
 49
-0.776115
 49
0.776115
 49
-0.776115
  0
LTYPE
  2
AIGENLINE002
 70
     0
  3
generate AI->DXF Converter
 72
    65
 73
     2
 40
1.5522299999999991
 49
0.776115
 49
-0.776115
  0
LTYPE
  2
AIGENLINE003
 70
     0
  3
generate AI->DXF Converter
 72
    65
 73
     6
 40
7.4083750000000004
 49
3.5278
 49
-0.776115
 49
0.776115
 49
-0.776115
 49
0.776115
 49
-0.776115
  0
ENDTAB
  0
TABLE
  2
LAYER
 70
     2
  0
LAYER
  2
0
 70
     0
 62
     7
  6
CONTINUOUS
  0
LAYER
  2
_________2
 70
     0
 62
     7
  6
CONTINUOUS
  0
ENDTAB
  0
TABLE
  2
STYLE
 70
     1
  0
STYLE
  2
STANDARD
 70
     0
 40
0.0
 41
0.0
 50
0.0
 71
     0
 42
0.0
  3
TXT
  4
EXTFONT.SHX
  0
ENDTAB
  0
TABLE
  2
VIEW
 70
     0
  0
ENDTAB
  0
TABLE
  2
UCS
 70
     0
  0
ENDTAB
  0
TABLE
  2
APPID
 70
     3
  0
APPID
  2
ACAD
 70
     0
  0
APPID
  2
ACAD_NAV_VCDISPLAY
 70
     0
  0
APPID
  2
ACAD_MLEADERVER
 70
     0
  0
ENDTAB
  0
TABLE
  2
DIMSTYLE
 70
     1
  0
DIMSTYLE
  2
STANDARD
 70
     0
  3

  4

  5

  6

  7

 40
1.0
 41
0.18
 42
0.0625
 43
0.38
 44
0.18
 45
0.0
 46
0.0
 47
0.0
 48
0.0
140
0.18
141
0.09
142
0.0
143
25.399999999999999
144
1.0
145
0.0
146
1.0
147
0.09
 71
     0
 72
     0
 73
     1
 74
     1
 75
     0
 76
     0
 77
     0
 78
     0
170
     0
171
     2
172
     0
173
     0
174
     0
175
     0
176
     0
177
     0
178
     0
  0
ENDTAB
  0
ENDSEC
  0
SECTION
  2
BLOCKS
  0
BLOCK
  8
0
  2
$MODEL_SPACE
 70
     0
 10
0.0
 20
0.0
 30
0.0
  3
$MODEL_SPACE
  1

  0
ENDBLK
  5
1A
  8
0
  0
BLOCK
 67
     1
  8
0
  2
$PAPER_SPACE
 70
     0
 10
0.0
 20
0.0
 30
0.0
  3
$PAPER_SPACE
  1

  0
ENDBLK
  5
17
 67
     1
  8
0
  0
ENDSEC
  0
SECTION
  2
ENTITIES
  0
TEXT
  5
24
  8
0
 62
     7
 10
92.304299999999998
 20
201.86199999999999
 30
0.0
 40
3.0923400000000001
  1
※カウンターを設ける場合も
 50
90.0
 41
0.5
  0
TEXT
  5
25
  8
0
 62
     7
 10
96.169799999999995
 20
201.86199999999999
 30
0.0
 40
3.0923400000000001
  1
　洗面器の壁固定が必要です。
 50
90.0
 41
0.5
  0
TEXT
  5
26
  8
0
 62
     7
 10
102.995
 20
201.86199999999999
 30
0.0
 40
3.0923400000000001
  1
※カウンターの制作可否はカウンター
 50
90.0
 41
0.5
  0
TEXT
  5
27
  8
0
 62
     7
 10
106.86
 20
201.86199999999999
 30
0.0
 40
3.0923400000000001
  1
　制作業者様にご確認ください。
 50
90.0
 41
0.5
  0
TEXT
  5
28
  8
0
 62
     7
 10
86.307100000000005
 20
201.86199999999999
 30
0.0
 40
3.0923400000000001
  1
カウンター切込寸法 尺度1：20
 50
90.0
 41
0.5
  0
TEXT
  5
29
  8
0
 62
     7
 10
171.16800000000001
 20
64.241100000000003
 30
0.0
 40
3.9357000000000002
  1
※壁取付部には厚さ30mm以上の補強材を入れてください。
 50
90.0
 41
0.5
  0
TEXT
  5
2A
  8
0
 62
     7
 10
176.08699999999999
 20
64.241100000000003
 30
0.0
 40
3.9357000000000002
  1
※排水栓を閉めた状態で、水栓2台あわせて毎分10L以上吐水させないでください。
 50
90.0
 41
0.5
  0
TEXT
  5
2B
  8
0
 62
     7
 10
141.807525
 20
179.893
 30
0.0
 40
3.0923400000000001
  1
55
 41
0.5
 72
     1
 11
143.096
 21
179.893
 31
0.0
  0
TEXT
  5
2C
  8
0
 62
     7
 10
63.307299999999991
 20
125.19199999999999
 30
0.0
 40
3.0923400000000001
  1
235
 41
0.5
  0
TEXT
  5
2D
  8
0
 62
     7
 10
53.092872499999999
 20
149.512
 30
0.0
 40
3.0923400000000001
  1
60
 41
0.5
 72
     1
 11
54.252499999999998
 21
149.512
 31
0.0
  0
TEXT
  5
2E
  8
0
 62
     7
 10
95.497472500000015
 20
44.088500000000003
 30
0.0
 40
3.0923400000000001
  1
60
 41
0.5
 72
     1
 11
96.6571
 21
44.088500000000003
 31
0.0
  0
TEXT
  5
2F
  8
0
 62
     7
 10
55.36063
 20
43.912799999999997
 30
0.0
 40
3.0923400000000001
  1
115
 41
0.5
 72
     1
 11
56.906799999999997
 21
43.912799999999997
 31
0.0
  0
TEXT
  5
30
  8
0
 62
     7
 10
143.6863725
 20
43.912799999999997
 30
0.0
 40
3.0923400000000001
  1
90
 41
0.5
 72
     1
 11
144.846
 21
43.912799999999997
 31
0.0
  0
TEXT
  5
31
  8
0
 62
     7
 10
76.481982500000001
 20
43.912799999999997
 30
0.0
 40
3.0923400000000001
  1
310
 41
0.5
 72
     1
 11
78.156999999999996
 21
43.912799999999997
 31
0.0
  0
TEXT
  5
32
  8
0
 62
     7
 10
146.67098250000001
 20
251.49799999999999
 30
0.0
 40
3.0923400000000001
  1
160
 41
0.5
 72
     1
 11
148.346
 21
251.49799999999999
 31
0.0
  0
TEXT
  5
33
  8
0
 62
     7
 10
144.21167750000001
 20
189.16200000000001
 30
0.0
 40
3.0923400000000001
  1
110
 41
0.5
 72
     1
 11
145.62899999999999
 21
189.16200000000001
 31
0.0
  0
TEXT
  5
34
  8
0
 62
     7
 10
73.345339999999993
 20
179.54900000000001
 30
0.0
 40
3.0923400000000001
  1
485
 41
0.5
 72
     1
 11
75.406899999999993
 21
179.54900000000001
 31
0.0
  0
TEXT
  5
35
  8
0
 62
     7
 10
68.277100000000004
 20
235.39529200000001
 30
0.0
 40
3.0923400000000001
  1
排水口位置
 50
90.0
 41
0.5
 72
     2
 11
68.277100000000004
 21
244.25999999999999
 31
0.0
  0
TEXT
  5
36
  8
0
 62
     7
 10
59.9739875
 20
211.18100000000001
 30
0.0
 40
3.0923400000000001
  1
430
 41
0.5
 72
     1
 11
61.906700000000001
 21
211.18100000000001
 31
0.0
  0
TEXT
  5
37
  8
0
 62
     7
 10
54.97023999999999
 20
229.416
 30
0.0
 40
3.0923400000000001
  1
235
 41
0.5
 72
     1
 11
57.03179999999999
 21
229.416
 31
0.0
  0
TEXT
  5
38
  8
0
 62
     7
 10
48.811100000000003
 20
230.753454
 30
0.0
 40
3.0923400000000001
  1
壁
 50
90.0
 41
0.5
 72
     1
 11
48.811100000000003
 21
231.47499999999999
 31
0.0
  0
TEXT
  5
39
  8
0
 62
     7
 10
78.752499999999998
 20
218.82944000000001
 30
0.0
 40
3.0923400000000001
  1
1100
 50
90.0
 41
0.5
 72
     1
 11
78.752499999999998
 21
220.89099999999999
 31
0.0
  0
TEXT
  5
3A
  8
0
 62
     7
 10
62.609999999999999
 20
198.977
 30
0.0
 40
3.0923400000000001
  1
R10
 41
0.5
  0
TEXT
  5
3B
  8
0
 62
     7
 10
32.990400000000001
 20
109.37274499999999
 30
0.0
 40
3.0923400000000001
  1
1200
 50
90.0
 41
0.5
 72
     1
 11
32.990400000000001
 21
111.69199999999999
 31
0.0
  0
TEXT
  5
3C
  8
0
 62
     7
 10
110.274
 20
43.451500000000003
 30
0.0
 40
3.0923400000000001
  1
27.5
 50
90.0
 41
0.5
  0
TEXT
  5
3D
  8
0
 62
     7
 10
110.274
 20
175.73149000000001
 30
0.0
 40
3.0923400000000001
  1
27.5
 50
90.0
 41
0.5
 72
     2
 11
110.274
 21
180.37
 31
0.0
  0
TEXT
  5
3E
  8
0
 62
     7
 10
130.03
 20
137.7592875
 30
0.0
 40
3.0923400000000001
  1
280
 50
90.0
 41
0.5
 72
     1
 11
130.03
 21
139.69200000000001
 31
0.0
  0
TEXT
  5
3F
  8
0
 62
     7
 10
130.03
 20
109.7592875
 30
0.0
 40
3.0923400000000001
  1
280
 50
90.0
 41
0.5
 72
     1
 11
130.03
 21
111.69199999999999
 31
0.0
  0
TEXT
  5
40
  8
0
 62
     7
 10
130.03
 20
81.758787499999997
 30
0.0
 40
3.0923400000000001
  1
280
 50
90.0
 41
0.5
 72
     1
 11
130.03
 21
83.691500000000005
 31
0.0
  0
TEXT
  5
41
  8
0
 62
     7
 10
110.274
 20
109.37274499999999
 30
0.0
 40
3.0923400000000001
  1
1145
 50
90.0
 41
0.5
 72
     1
 11
110.274
 21
111.69199999999999
 31
0.0
  0
TEXT
  5
42
  8
0
 62
     7
 10
41.12919999999999
 20
109.7592875
 30
0.0
 40
3.0923400000000001
  1
560
 50
90.0
 41
0.5
 72
     1
 11
41.12919999999999
 21
111.69199999999999
 31
0.0
  0
TEXT
  5
43
  8
0
 62
     7
 10
163.74199999999999
 20
230.96644000000001
 30
0.0
 40
3.0923400000000001
  1
235
 50
90.0
 41
0.5
 72
     1
 11
163.74199999999999
 21
233.02799999999999
 31
0.0
  0
TEXT
  5
44
  8
0
 62
     7
 10
42.535499999999992
 20
75.075999999999993
 30
0.0
 40
3.0923400000000001
  1
%%c35
 41
0.5
  0
TEXT
  5
45
  8
0
 62
     7
 10
42.535499999999992
 20
149.708
 30
0.0
 40
3.0923400000000001
  1
%%c35
 41
0.5
  0
TEXT
  5
46
  8
0
 62
     7
 10
83.270579999999995
 20
105.285
 30
0.0
 40
3.0923400000000001
  1
%%c46
 41
0.5
 72
     2
 11
87.393699999999995
 21
105.285
 31
0.0
  0
LINE
  5
47
  8
0
 62
     7
 10
142.55799999999999
 20
179.541
 30
0.0
 11
140.346
 21
178.94800000000001
 31
0.0
  0
LINE
  5
48
  8
0
 62
     7
 10
140.346
 20
178.94800000000001
 30
0.0
 11
142.55799999999999
 21
178.35599999999999
 31
0.0
  0
LINE
  5
49
  8
0
 62
     7
 10
142.55799999999999
 20
178.35599999999999
 30
0.0
 11
142.55799999999999
 21
179.541
 31
0.0
  0
LINE
  5
4A
  8
0
 62
     7
 10
143.63499999999999
 20
178.37
 30
0.0
 11
145.846
 21
178.96299999999999
 31
0.0
  0
LINE
  5
4B
  8
0
 62
     7
 10
145.846
 20
178.96299999999999
 30
0.0
 11
143.63499999999999
 21
179.55500000000001
 31
0.0
  0
LINE
  5
4C
  8
0
 62
     7
 10
143.63499999999999
 20
179.55500000000001
 30
0.0
 11
143.63499999999999
 21
178.37
 31
0.0
  0
LINE
  5
4D
  8
0
 62
     7
 10
140.346
 20
178.94800000000001
 30
0.0
 11
145.846
 21
178.94800000000001
 31
0.0
  0
LINE
  5
4E
  8
0
 62
     7
 10
145.846
 20
156.887
 30
0.0
 11
145.846
 21
179.648
 31
0.0
  0
LINE
  5
4F
  8
0
 62
     7
 10
140.346
 20
172.49199999999999
 30
0.0
 11
140.346
 21
179.648
 31
0.0
  0
LINE
  5
50
  8
0
 62
     7
 10
49.656700000000001
 20
232.34100000000001
 30
0.0
 11
51.156700000000001
 21
231.47499999999999
 31
0.0
  0
LINE
  5
51
  8
0
 62
     7
 10
51.156700000000001
 20
231.47499999999999
 30
0.0
 11
49.656700000000001
 21
230.60900000000001
 31
0.0
  0
LINE
  5
52
  8
0
 62
     7
 10
49.656700000000001
 20
230.60900000000001
 30
0.0
 11
49.656700000000001
 21
232.34100000000001
 31
0.0
  0
LINE
  5
53
  8
0
 62
     7
 10
62.906799999999997
 20
228.678
 30
0.0
 11
62.906799999999997
 21
225.08199999999999
 31
0.0
  0
LINE
  5
54
  8
0
 62
     7
 10
60.695
 20
227.74299999999999
 30
0.0
 11
62.906799999999997
 21
228.33500000000001
 31
0.0
  0
LINE
  5
55
  8
0
 62
     7
 10
62.906799999999997
 20
228.33500000000001
 30
0.0
 11
60.695
 21
228.928
 31
0.0
  0
LINE
  5
56
  8
0
 62
     7
 10
60.695
 20
228.928
 30
0.0
 11
60.695
 21
227.74299999999999
 31
0.0
  0
LINE
  5
57
  8
0
 62
     7
 10
53.368099999999991
 20
228.92099999999999
 30
0.0
 11
51.156700000000001
 21
228.328
 31
0.0
  0
LINE
  5
58
  8
0
 62
     7
 10
51.156700000000001
 20
228.328
 30
0.0
 11
53.368099999999991
 21
227.73599999999999
 31
0.0
  0
LINE
  5
59
  8
0
 62
     7
 10
53.368099999999991
 20
227.73599999999999
 30
0.0
 11
53.368099999999991
 21
228.92099999999999
 31
0.0
  0
LINE
  5
5A
  8
0
 62
     7
 10
62.906799999999997
 20
228.328
 30
0.0
 11
51.156700000000001
 21
228.328
 31
0.0
  0
LINE
  5
5B
  8
0
 62
     7
 10
79.802199999999999
 20
248.39099999999999
 30
0.0
 11
73.031999999999996
 21
248.39099999999999
 31
0.0
  0
LINE
  5
5C
  8
0
 62
     7
 10
79.802199999999999
 20
193.39099999999999
 30
0.0
 11
73.031999999999996
 21
193.39099999999999
 31
0.0
  0
LINE
  5
5D
  8
0
 62
     7
 10
64.768500000000003
 20
223.69200000000001
 30
0.0
 11
63.7943
 21
221.62
 31
0.0
  0
LINE
  5
5E
  8
0
 62
     7
 10
63.7943
 20
221.62
 30
0.0
 11
65.673900000000003
 21
222.92699999999999
 31
0.0
  0
LINE
  5
5F
  8
0
 62
     7
 10
65.673900000000003
 20
222.92699999999999
 30
0.0
 11
64.768500000000003
 21
223.69200000000001
 31
0.0
  0
LINE
  5
60
  8
0
 62
     7
 10
63.7943
 20
221.62
 30
0.0
 11
69.221500000000006
 21
228.04499999999999
 31
0.0
  0
LINE
  5
61
  8
0
 62
     7
 10
70.445099999999996
 20
210.001
 30
0.0
 11
72.656800000000004
 21
210.59399999999999
 31
0.0
  0
LINE
  5
62
  8
0
 62
     7
 10
72.656800000000004
 20
210.59399999999999
 30
0.0
 11
70.445099999999996
 21
211.18600000000001
 31
0.0
  0
LINE
  5
63
  8
0
 62
     7
 10
70.445099999999996
 20
211.18600000000001
 30
0.0
 11
70.445099999999996
 21
210.001
 31
0.0
  0
LINE
  5
64
  8
0
 62
     7
 10
53.368099999999991
 20
211.179
 30
0.0
 11
51.156700000000001
 21
210.58699999999999
 31
0.0
  0
LINE
  5
65
  8
0
 62
     7
 10
51.156700000000001
 20
210.58699999999999
 30
0.0
 11
53.368099999999991
 21
209.994
 31
0.0
  0
LINE
  5
66
  8
0
 62
     7
 10
53.368099999999991
 20
209.994
 30
0.0
 11
53.368099999999991
 21
211.179
 31
0.0
  0
LINE
  5
67
  8
0
 62
     7
 10
69.221500000000006
 20
244.25999999999999
 30
0.0
 11
69.221500000000006
 21
228.04499999999999
 31
0.0
  0
LINE
  5
68
  8
0
 62
     7
 10
72.656800000000004
 20
210.58699999999999
 30
0.0
 11
51.156700000000001
 21
210.58699999999999
 31
0.0
  0
LINE
  5
69
  8
0
 62
     7
 10
51.156700000000001
 20
193.39099999999999
 30
0.0
 11
51.156700000000001
 21
191.38300000000001
 31
0.0
  0
LINE
  5
6A
  8
0
 62
     7
 10
51.156700000000001
 20
250.399
 30
0.0
 11
51.156700000000001
 21
248.39099999999999
 31
0.0
  0
ARC
  5
6B
  8
0
 62
     7
 10
72.137457999999995
 20
247.87186299999999
 30
0.0
 40
0.5197350000000001
 50
2.1292810000000002
 51
87.850968999999992
  0
ARC
  5
6C
  8
0
 62
     7
 10
72.137283999999994
 20
193.91016099999999
 30
0.0
 40
0.5199090000000001
 50
272.16755899999998
 51
357.87192499999998
  0
LINE
  5
6D
  8
0
 62
     7
 10
67.703100000000006
 20
198.345
 30
0.0
 11
62.609999999999999
 21
198.345
 31
0.0
  0
LINE
  5
6E
  8
0
 62
     7
 10
70.424199999999985
 20
194.786
 30
0.0
 11
72.406899999999993
 21
193.64099999999999
 31
0.0
  0
LINE
  5
6F
  8
0
 62
     7
 10
72.406899999999993
 20
193.64099999999999
 30
0.0
 11
71.2624
 21
195.624
 31
0.0
  0
LINE
  5
70
  8
0
 62
     7
 10
71.2624
 20
195.624
 30
0.0
 11
70.424199999999985
 21
194.786
 31
0.0
  0
LINE
  5
71
  8
0
 62
     7
 10
67.703100000000006
 20
198.345
 30
0.0
 11
72.510400000000004
 21
193.53700000000001
 31
0.0
  0
LINE
  5
72
  8
0
  6
AIGENLINE001
 62
     7
 10
49.307899999999997
 20
220.89099999999999
 30
0.0
 11
74.129599999999996
 21
220.89099999999999
 31
0.0
  0
ARC
  5
73
  8
0
  6
AIGENLINE002
 62
     7
 10
62.950693000000008
 20
220.93481399999999
 30
0.0
 40
1.1946719999999991
 50
182.1052169999999
 51
267.894813
  0
ARC
  5
74
  8
0
  6
AIGENLINE002
 62
     7
 10
62.906807999999998
 20
220.890928
 30
0.0
 40
1.14998
 50
270.00002000000001
 51
359.99999000000003
  0
ARC
  5
75
  8
0
  6
AIGENLINE002
 62
     7
 10
62.906807999999998
 20
220.890928
 30
0.0
 40
1.14998
 50
0.00001
 51
89.999980000000008
  0
ARC
  5
76
  8
0
  6
AIGENLINE002
 62
     7
 10
62.950291999999997
 20
220.847444
 30
0.0
 40
1.1942559999999991
 50
92.08664499999999
 51
177.91332499999999
  0
LINE
  5
77
  8
0
  6
AIGENLINE001
 62
     7
 10
62.906799999999997
 20
217.423
 30
0.0
 11
62.906799999999997
 21
224.38200000000001
 31
0.0
  0
LINE
  5
78
  8
0
 62
     7
 10
72.656800000000004
 20
193.89099999999999
 30
0.0
 11
72.656800000000004
 21
247.89099999999999
 31
0.0
  0
LINE
  5
79
  8
0
 62
     7
 10
78.8596
 20
195.602
 30
0.0
 11
79.452200000000005
 21
193.39099999999999
 31
0.0
  0
LINE
  5
7A
  8
0
 62
     7
 10
79.452200000000005
 20
193.39099999999999
 30
0.0
 11
80.044700000000006
 21
195.602
 31
0.0
  0
LINE
  5
7B
  8
0
 62
     7
 10
80.044700000000006
 20
195.602
 30
0.0
 11
78.8596
 21
195.602
 31
0.0
  0
LINE
  5
7C
  8
0
 62
     7
 10
80.037499999999994
 20
246.179
 30
0.0
 11
79.444900000000004
 21
248.39099999999999
 31
0.0
  0
LINE
  5
7D
  8
0
 62
     7
 10
79.444900000000004
 20
248.39099999999999
 30
0.0
 11
78.852400000000003
 21
246.179
 31
0.0
  0
LINE
  5
7E
  8
0
 62
     7
 10
78.852400000000003
 20
246.179
 30
0.0
 11
80.037499999999994
 21
246.179
 31
0.0
  0
LINE
  5
7F
  8
0
 62
     7
 10
79.452200000000005
 20
193.39099999999999
 30
0.0
 11
79.452200000000005
 21
248.39099999999999
 31
0.0
  0
LINE
  5
80
  8
0
  6
AIGENLINE003
 62
     7
 10
51.156700000000001
 20
193.39099999999999
 30
0.0
 11
51.156700000000001
 21
248.39099999999999
 31
0.0
  0
LINE
  5
81
  8
0
 62
     7
 10
72.156899999999993
 20
248.39099999999999
 30
0.0
 11
51.156700000000001
 21
248.39099999999999
 31
0.0
  0
LINE
  5
82
  8
0
 62
     7
 10
72.156899999999993
 20
193.39099999999999
 30
0.0
 11
51.156700000000001
 21
193.39099999999999
 31
0.0
  0
ARC
  5
83
  8
0
  6
AIGENLINE002
 62
     7
 10
141.01534000000001
 20
201.68280200000001
 30
0.0
 40
0.6648640000000001
 50
115.58518599999999
 51
121.47723000000001
  0
ARC
  5
84
  8
0
  6
AIGENLINE002
 62
     7
 10
141.14531099999999
 20
201.45024799999999
 30
0.0
 40
0.9311219999999998
 50
120.825866
 51
140.30874600000001
  0
ARC
  5
85
  8
0
  6
AIGENLINE002
 62
     7
 10
140.751474
 20
201.79429400000001
 30
0.0
 40
0.408554
 50
142.16284300000001
 51
162.988463
  0
ARC
  5
86
  8
0
  6
AIGENLINE002
 62
     7
 10
140.613901
 20
201.843918
 30
0.0
 40
0.262582
 50
164.56044399999999
 51
179.77653100000001
  0
LINE
  5
87
  8
0
 62
     7
 10
155.66
 20
224.721
 30
0.0
 11
156.16
 21
224.721
 31
0.0
  0
LINE
  5
88
  8
0
 62
     7
 10
140.36199999999999
 20
196.101
 30
0.0
 11
140.36199999999999
 21
187.62899999999999
 31
0.0
  0
LINE
  5
89
  8
0
 62
     7
 10
148.684
 20
187.751
 30
0.0
 11
150.89500000000001
 21
188.34299999999999
 31
0.0
  0
LINE
  5
8A
  8
0
 62
     7
 10
150.89500000000001
 20
188.34299999999999
 30
0.0
 11
148.684
 21
188.93600000000001
 31
0.0
  0
LINE
  5
8B
  8
0
 62
     7
 10
148.684
 20
188.93600000000001
 30
0.0
 11
148.684
 21
187.751
 31
0.0
  0
LINE
  5
8C
  8
0
 62
     7
 10
142.57299999999989
 20
188.92099999999999
 30
0.0
 11
140.36199999999999
 21
188.32900000000001
 31
0.0
  0
LINE
  5
8D
  8
0
 62
     7
 10
140.36199999999999
 20
188.32900000000001
 30
0.0
 11
142.57299999999989
 21
187.73599999999999
 31
0.0
  0
LINE
  5
8E
  8
0
 62
     7
 10
142.57299999999989
 20
187.73599999999999
 30
0.0
 11
142.57299999999989
 21
188.92099999999999
 31
0.0
  0
LINE
  5
8F
  8
0
 62
     7
 10
150.89500000000001
 20
188.32900000000001
 30
0.0
 11
140.36199999999999
 21
188.32900000000001
 31
0.0
  0
LINE
  5
90
  8
0
 62
     7
 10
154.13499999999999
 20
250.22
 30
0.0
 11
156.346
 21
250.81200000000001
 31
0.0
  0
LINE
  5
91
  8
0
 62
     7
 10
156.346
 20
250.81200000000001
 30
0.0
 11
154.13499999999999
 21
251.405
 31
0.0
  0
LINE
  5
92
  8
0
 62
     7
 10
154.13499999999999
 20
251.405
 30
0.0
 11
154.13499999999999
 21
250.22
 31
0.0
  0
LINE
  5
93
  8
0
 62
     7
 10
142.55799999999999
 20
251.38999999999999
 30
0.0
 11
140.346
 21
250.798
 31
0.0
  0
LINE
  5
94
  8
0
 62
     7
 10
140.346
 20
250.798
 30
0.0
 11
142.55799999999999
 21
250.20500000000001
 31
0.0
  0
LINE
  5
95
  8
0
 62
     7
 10
142.55799999999999
 20
250.20500000000001
 30
0.0
 11
142.55799999999999
 21
251.38999999999999
 31
0.0
  0
LINE
  5
96
  8
0
 62
     7
 10
156.346
 20
250.798
 30
0.0
 11
140.346
 21
250.798
 31
0.0
  0
LINE
  5
97
  8
0
 62
     7
 10
140.346
 20
245.47999999999999
 30
0.0
 11
140.346
 21
251.49799999999999
 31
0.0
  0
LINE
  5
98
  8
0
 62
     7
 10
163.864
 20
223.489
 30
0.0
 11
164.45599999999999
 21
221.27699999999999
 31
0.0
  0
LINE
  5
99
  8
0
 62
     7
 10
164.45599999999999
 20
221.27699999999999
 30
0.0
 11
165.04900000000001
 21
223.489
 31
0.0
  0
LINE
  5
9A
  8
0
 62
     7
 10
165.04900000000001
 20
223.489
 30
0.0
 11
163.864
 21
223.489
 31
0.0
  0
LINE
  5
9B
  8
0
 62
     7
 10
165.03399999999999
 20
242.56700000000001
 30
0.0
 11
164.44200000000001
 21
244.779
 31
0.0
  0
LINE
  5
9C
  8
0
 62
     7
 10
164.44200000000001
 20
244.779
 30
0.0
 11
163.84899999999999
 21
242.56700000000001
 31
0.0
  0
LINE
  5
9D
  8
0
 62
     7
 10
163.84899999999999
 20
242.56700000000001
 30
0.0
 11
165.03399999999999
 21
242.56700000000001
 31
0.0
  0
LINE
  5
9E
  8
0
 62
     7
 10
164.44200000000001
 20
221.27699999999999
 30
0.0
 11
164.44200000000001
 21
244.779
 31
0.0
  0
LINE
  5
9F
  8
0
 62
     7
 10
165.142
 20
221.27699999999999
 30
0.0
 11
159.505
 21
221.27699999999999
 31
0.0
  0
LINE
  5
A0
  8
0
 62
     7
 10
155.29599999999999
 20
244.779
 30
0.0
 11
165.142
 21
244.779
 31
0.0
  0
LINE
  5
A1
  8
0
 62
     7
 10
156.346
 20
225.21700000000001
 30
0.0
 11
156.346
 21
251.49799999999999
 31
0.0
  0
LINE
  5
A2
  8
0
 62
     7
 10
110.38200000000001
 20
173.904
 30
0.0
 11
110.974
 21
171.69200000000001
 31
0.0
  0
LINE
  5
A3
  8
0
 62
     7
 10
110.974
 20
171.69200000000001
 30
0.0
 11
111.56699999999999
 21
173.904
 31
0.0
  0
LINE
  5
A4
  8
0
 62
     7
 10
111.56699999999999
 20
173.904
 30
0.0
 11
110.38200000000001
 21
173.904
 31
0.0
  0
LINE
  5
A5
  8
0
 62
     7
 10
110.38200000000001
 20
56.652500000000003
 30
0.0
 11
110.974
 21
54.441099999999999
 31
0.0
  0
LINE
  5
A6
  8
0
 62
     7
 10
110.974
 20
54.441099999999999
 30
0.0
 11
111.56699999999999
 21
56.652500000000003
 31
0.0
  0
LINE
  5
A7
  8
0
 62
     7
 10
111.56699999999999
 20
56.652500000000003
 30
0.0
 11
110.38200000000001
 21
56.652500000000003
 31
0.0
  0
LINE
  5
A8
  8
0
 62
     7
 10
111.56699999999999
 20
49.479500000000002
 30
0.0
 11
110.974
 21
51.691200000000002
 31
0.0
  0
LINE
  5
A9
  8
0
 62
     7
 10
110.974
 20
51.691200000000002
 30
0.0
 11
110.38200000000001
 21
49.479500000000002
 31
0.0
  0
LINE
  5
AA
  8
0
 62
     7
 10
110.38200000000001
 20
49.479500000000002
 30
0.0
 11
111.56699999999999
 21
49.479500000000002
 31
0.0
  0
LINE
  5
AB
  8
0
 62
     7
 10
111.56699999999999
 20
166.72999999999999
 30
0.0
 11
110.974
 21
168.94200000000001
 31
0.0
  0
LINE
  5
AC
  8
0
 62
     7
 10
110.974
 20
168.94200000000001
 30
0.0
 11
110.38200000000001
 21
166.72999999999999
 31
0.0
  0
LINE
  5
AD
  8
0
 62
     7
 10
110.38200000000001
 20
166.72999999999999
 30
0.0
 11
111.56699999999999
 21
166.72999999999999
 31
0.0
  0
LINE
  5
AE
  8
0
 62
     7
 10
110.974
 20
43.451500000000003
 30
0.0
 11
110.974
 21
180.37
 31
0.0
  0
LINE
  5
AF
  8
0
 62
     7
 10
91.336100000000002
 20
168.94200000000001
 30
0.0
 11
111.67400000000001
 21
168.94200000000001
 31
0.0
  0
LINE
  5
B0
  8
0
 62
     7
 10
99.557199999999995
 20
171.69200000000001
 30
0.0
 11
111.67400000000001
 21
171.69200000000001
 31
0.0
  0
LINE
  5
B1
  8
0
 62
     7
 10
91.130099999999999
 20
54.441099999999999
 30
0.0
 11
111.67400000000001
 21
54.441099999999999
 31
0.0
  0
LINE
  5
B2
  8
0
 62
     7
 10
99.557199999999995
 20
51.691200000000002
 30
0.0
 11
111.67400000000001
 21
51.691200000000002
 31
0.0
  0
LINE
  5
B3
  8
0
 62
     7
 10
99.657100000000014
 20
51.7911
 30
0.0
 11
99.657100000000014
 21
42.512700000000002
 31
0.0
  0
LINE
  5
B4
  8
0
 62
     7
 10
91.445499999999996
 20
42.62019999999999
 30
0.0
 11
93.657099999999986
 21
43.212800000000001
 31
0.0
  0
LINE
  5
B5
  8
0
 62
     7
 10
93.657099999999986
 20
43.212800000000001
 30
0.0
 11
91.445499999999996
 21
43.805399999999992
 31
0.0
  0
LINE
  5
B6
  8
0
 62
     7
 10
91.445499999999996
 20
43.805399999999992
 30
0.0
 11
91.445499999999996
 21
42.62019999999999
 31
0.0
  0
LINE
  5
B7
  8
0
 62
     7
 10
95.868700000000004
 20
43.805399999999992
 30
0.0
 11
93.657099999999986
 21
43.212800000000001
 31
0.0
  0
LINE
  5
B8
  8
0
 62
     7
 10
93.657099999999986
 20
43.212800000000001
 30
0.0
 11
95.868700000000004
 21
42.62019999999999
 31
0.0
  0
LINE
  5
B9
  8
0
 62
     7
 10
95.868700000000004
 20
42.62019999999999
 30
0.0
 11
95.868700000000004
 21
43.805399999999992
 31
0.0
  0
LINE
  5
BA
  8
0
 62
     7
 10
60.445300000000003
 20
42.62019999999999
 30
0.0
 11
62.6569
 21
43.212800000000001
 31
0.0
  0
LINE
  5
BB
  8
0
 62
     7
 10
62.6569
 20
43.212800000000001
 30
0.0
 11
60.445300000000003
 21
43.805399999999992
 31
0.0
  0
LINE
  5
BC
  8
0
 62
     7
 10
60.445300000000003
 20
43.805399999999992
 30
0.0
 11
60.445300000000003
 21
42.62019999999999
 31
0.0
  0
LINE
  5
BD
  8
0
 62
     7
 10
97.445499999999996
 20
42.634700000000002
 30
0.0
 11
99.657100000000014
 21
43.227299999999993
 31
0.0
  0
LINE
  5
BE
  8
0
 62
     7
 10
99.657100000000014
 20
43.227299999999993
 30
0.0
 11
97.445499999999996
 21
43.819800000000001
 31
0.0
  0
LINE
  5
BF
  8
0
 62
     7
 10
97.445499999999996
 20
43.819800000000001
 30
0.0
 11
97.445499999999996
 21
42.634700000000002
 31
0.0
  0
LINE
  5
C0
  8
0
 62
     7
 10
64.868499999999997
 20
43.805399999999992
 30
0.0
 11
62.6569
 21
43.212800000000001
 31
0.0
  0
LINE
  5
C1
  8
0
 62
     7
 10
62.6569
 20
43.212800000000001
 30
0.0
 11
64.868499999999997
 21
42.62019999999999
 31
0.0
  0
LINE
  5
C2
  8
0
 62
     7
 10
64.868499999999997
 20
42.62019999999999
 30
0.0
 11
64.868499999999997
 21
43.805399999999992
 31
0.0
  0
LINE
  5
C3
  8
0
 62
     7
 10
53.368299999999991
 20
43.805399999999992
 30
0.0
 11
51.156700000000001
 21
43.212800000000001
 31
0.0
  0
LINE
  5
C4
  8
0
 62
     7
 10
51.156700000000001
 20
43.212800000000001
 30
0.0
 11
53.368299999999991
 21
42.62019999999999
 31
0.0
  0
LINE
  5
C5
  8
0
 62
     7
 10
53.368299999999991
 20
42.62019999999999
 30
0.0
 11
53.368299999999991
 21
43.805399999999992
 31
0.0
  0
LINE
  5
C6
  8
0
 62
     7
 10
99.657100000000014
 20
43.212800000000001
 30
0.0
 11
51.156700000000001
 21
43.212800000000001
 31
0.0
  0
LINE
  5
C7
  8
0
 62
     7
 10
59.516800000000003
 20
86.932000000000002
 30
0.0
 11
58.372
 21
84.949399999999983
 31
0.0
  0
LINE
  5
C8
  8
0
 62
     7
 10
58.372
 20
84.949399999999983
 30
0.0
 11
60.35479999999999
 21
86.093799999999987
 31
0.0
  0
LINE
  5
C9
  8
0
 62
     7
 10
60.35479999999999
 20
86.093799999999987
 30
0.0
 11
59.516800000000003
 21
86.932000000000002
 31
0.0
  0
LINE
  5
CA
  8
0
 62
     7
 10
54.7744
 20
80.471400000000003
 30
0.0
 11
55.919199999999996
 21
82.454099999999997
 31
0.0
  0
LINE
  5
CB
  8
0
 62
     7
 10
55.919199999999996
 20
82.454099999999997
 30
0.0
 11
53.936399999999999
 21
81.309599999999989
 31
0.0
  0
LINE
  5
CC
  8
0
 62
     7
 10
53.936399999999999
 20
81.309599999999989
 30
0.0
 11
54.7744
 21
80.471400000000003
 31
0.0
  0
LINE
  5
CD
  8
0
 62
     7
 10
47.841299999999997
 20
74.375900000000001
 30
0.0
 11
61.327199999999991
 21
87.862200000000001
 31
0.0
  0
LINE
  5
CE
  8
0
  6
AIGENLINE001
 62
     7
 10
57.1569
 20
80.191299999999998
 30
0.0
 11
57.1569
 21
87.189700000000002
 31
0.0
  0
LINE
  5
CF
  8
0
  6
AIGENLINE001
 62
     7
 10
60.656999999999989
 20
83.691500000000005
 30
0.0
 11
53.656799999999997
 21
83.691500000000005
 31
0.0
  0
ARC
  5
D0
  8
0
 62
     7
 10
57.15690699999999
 20
83.691543999999993
 30
0.0
 40
1.7501199999999999
 50
90.0
 51
179.99996999999999
  0
ARC
  5
D1
  8
0
 62
     7
 10
57.224133999999999
 20
83.758771999999993
 30
0.0
 40
1.8185899999999999
 50
182.118537
 51
267.88149300000009
  0
ARC
  5
D2
  8
0
 62
     7
 10
57.089680000000001
 20
83.758593000000005
 30
0.0
 40
1.818411
 50
272.11873600000001
 51
357.88691399999999
  0
ARC
  5
D3
  8
0
 62
     7
 10
57.156820999999987
 20
83.691630999999987
 30
0.0
 40
1.7500340000000001
 50
359.99718999999999
 51
89.997159999999994
  0
LINE
  5
D4
  8
0
 62
     7
 10
47.841299999999997
 20
74.375900000000001
 30
0.0
 11
42.535499999999992
 21
74.375900000000001
 31
0.0
  0
LINE
  5
D5
  8
0
 62
     7
 10
47.841299999999997
 20
149.00800000000001
 30
0.0
 11
42.535499999999992
 21
149.00800000000001
 31
0.0
  0
LINE
  5
D6
  8
0
 62
     7
 10
60.377099999999999
 20
137.31
 30
0.0
 11
58.39439999999999
 21
138.45400000000001
 31
0.0
  0
LINE
  5
D7
  8
0
 62
     7
 10
58.39439999999999
 20
138.45400000000001
 30
0.0
 11
59.538999999999987
 21
136.471
 31
0.0
  0
LINE
  5
D8
  8
0
 62
     7
 10
59.538999999999987
 20
136.471
 30
0.0
 11
60.377099999999999
 21
137.31
 31
0.0
  0
LINE
  5
D9
  8
0
 62
     7
 10
53.8932
 20
142.11799999999999
 30
0.0
 11
55.875799999999991
 21
140.97300000000001
 31
0.0
  0
LINE
  5
DA
  8
0
 62
     7
 10
55.875799999999991
 20
140.97300000000001
 30
0.0
 11
54.731200000000001
 21
142.95599999999999
 31
0.0
  0
LINE
  5
DB
  8
0
 62
     7
 10
54.731200000000001
 20
142.95599999999999
 30
0.0
 11
53.8932
 21
142.11799999999999
 31
0.0
  0
LINE
  5
DC
  8
0
 62
     7
 10
47.841299999999997
 20
149.00800000000001
 30
0.0
 11
61.327199999999991
 21
135.52199999999999
 31
0.0
  0
LINE
  5
DD
  8
0
  6
AIGENLINE001
 62
     7
 10
57.1569
 20
143.19200000000001
 30
0.0
 11
57.1569
 21
136.19399999999999
 31
0.0
  0
ARC
  5
DE
  8
0
 62
     7
 10
74.656897999999984
 20
111.69207900000001
 30
0.0
 40
3.6600929999999989
 50
90.0
 51
179.99996999999999
  0
ARC
  5
DF
  8
0
 62
     7
 10
74.656896000000003
 20
111.69207900000001
 30
0.0
 40
3.6600919999999988
 50
179.99996999999999
 51
270.00002000000001
  0
ARC
  5
E0
  8
0
 62
     7
 10
74.656896000000003
 20
111.69208
 30
0.0
 40
3.6600929999999989
 50
270.00002000000001
 51
359.99999000000003
  0
ARC
  5
E1
  8
0
 62
     7
 10
74.656896000000003
 20
111.69207900000001
 30
0.0
 40
3.6600929999999989
 50
0.00001
 51
89.999980000000008
  0
LINE
  5
E2
  8
0
 62
     7
 10
87.393699999999995
 20
104.41
 30
0.0
 11
81.938999999999993
 21
104.41
 31
0.0
  0
LINE
  5
E3
  8
0
 62
     7
 10
78.266199999999998
 20
108.92100000000001
 30
0.0
 11
76.283299999999997
 21
110.066
 31
0.0
  0
LINE
  5
E4
  8
0
 62
     7
 10
76.283299999999997
 20
110.066
 30
0.0
 11
77.428100000000001
 21
108.083
 31
0.0
  0
LINE
  5
E5
  8
0
 62
     7
 10
77.428100000000001
 20
108.083
 30
0.0
 11
78.266199999999998
 21
108.92100000000001
 31
0.0
  0
LINE
  5
E6
  8
0
 62
     7
 10
70.844200000000001
 20
114.667
 30
0.0
 11
72.826899999999995
 21
113.52200000000001
 31
0.0
  0
LINE
  5
E7
  8
0
 62
     7
 10
72.826899999999995
 20
113.52200000000001
 30
0.0
 11
71.682199999999995
 21
115.505
 31
0.0
  0
LINE
  5
E8
  8
0
 62
     7
 10
71.682199999999995
 20
115.505
 30
0.0
 11
70.844200000000001
 21
114.667
 31
0.0
  0
LINE
  5
E9
  8
0
 62
     7
 10
67.354299999999995
 20
118.995
 30
0.0
 11
81.938999999999993
 21
104.41
 31
0.0
  0
LINE
  5
EA
  8
0
  6
AIGENLINE001
 62
     7
 10
74.656899999999993
 20
118.566
 30
0.0
 11
74.656899999999993
 21
104.86499999999999
 31
0.0
  0
ARC
  5
EB
  8
0
 62
     7
 10
74.744658000000001
 20
111.604319
 30
0.0
 40
2.389333999999999
 50
92.104958000000025
 51
177.89501200000001
  0
ARC
  5
EC
  8
0
 62
     7
 10
74.656897000000001
 20
111.69207900000001
 30
0.0
 40
2.29996
 50
179.99996999999999
 51
270.00002000000001
  0
ARC
  5
ED
  8
0
 62
     7
 10
74.656897000000001
 20
111.69208
 30
0.0
 40
2.2999610000000001
 50
270.00002000000001
 51
359.99999000000003
  0
ARC
  5
EE
  8
0
 62
     7
 10
74.568753000000001
 20
111.603936
 30
0.0
 40
2.3897300000000001
 50
2.113801
 51
87.886189000000016
  0
LINE
  5
EF
  8
0
  6
AIGENLINE001
 62
     7
 10
47.4985
 20
111.69199999999999
 30
0.0
 11
102.68000000000001
 21
111.69199999999999
 31
0.0
  0
LINE
  5
F0
  8
0
 62
     7
 10
53.368299999999991
 20
149.06999999999999
 30
0.0
 11
51.156700000000001
 21
148.47799999999989
 31
0.0
  0
LINE
  5
F1
  8
0
 62
     7
 10
51.156700000000001
 20
148.47799999999989
 30
0.0
 11
53.368299999999991
 21
147.88499999999999
 31
0.0
  0
LINE
  5
F2
  8
0
 62
     7
 10
53.368299999999991
 20
147.88499999999999
 30
0.0
 11
53.368299999999991
 21
149.06999999999999
 31
0.0
  0
LINE
  5
F3
  8
0
 62
     7
 10
54.94530000000001
 20
147.88499999999999
 30
0.0
 11
57.1569
 21
148.47799999999989
 31
0.0
  0
LINE
  5
F4
  8
0
 62
     7
 10
57.1569
 20
148.47799999999989
 30
0.0
 11
54.94530000000001
 21
149.06999999999999
 31
0.0
  0
LINE
  5
F5
  8
0
 62
     7
 10
54.94530000000001
 20
149.06999999999999
 30
0.0
 11
54.94530000000001
 21
147.88499999999999
 31
0.0
  0
LINE
  5
F6
  8
0
 62
     7
 10
51.156700000000001
 20
148.47799999999989
 30
0.0
 11
57.1569
 21
148.47799999999989
 31
0.0
  0
LINE
  5
F7
  8
0
 62
     7
 10
57.1569
 20
143.892
 30
0.0
 11
57.1569
 21
149.178
 31
0.0
  0
LINE
  5
F8
  8
0
 62
     7
 10
72.445300000000003
 20
123.846
 30
0.0
 11
74.656899999999993
 21
124.43899999999999
 31
0.0
  0
LINE
  5
F9
  8
0
 62
     7
 10
74.656899999999993
 20
124.43899999999999
 30
0.0
 11
72.445300000000003
 21
125.032
 31
0.0
  0
LINE
  5
FA
  8
0
 62
     7
 10
72.445300000000003
 20
125.032
 30
0.0
 11
72.445300000000003
 21
123.846
 31
0.0
  0
LINE
  5
FB
  8
0
 62
     7
 10
53.368499999999997
 20
125.017
 30
0.0
 11
51.1569
 21
124.425
 31
0.0
  0
LINE
  5
FC
  8
0
 62
     7
 10
51.1569
 20
124.425
 30
0.0
 11
53.368499999999997
 21
123.83199999999999
 31
0.0
  0
LINE
  5
FD
  8
0
 62
     7
 10
53.368499999999997
 20
123.83199999999999
 30
0.0
 11
53.368499999999997
 21
125.017
 31
0.0
  0
LINE
  5
FE
  8
0
 62
     7
 10
74.656899999999993
 20
124.425
 30
0.0
 11
51.1569
 21
124.425
 31
0.0
  0
LINE
  5
FF
  8
0
 62
     7
 10
74.656899999999993
 20
119.26600000000001
 30
0.0
 11
74.656899999999993
 21
125.124
 31
0.0
  0
LINE
  5
100
  8
0
 62
     7
 10
53.368499999999997
 20
179.44200000000001
 30
0.0
 11
51.1569
 21
178.84899999999999
 31
0.0
  0
LINE
  5
101
  8
0
 62
     7
 10
51.1569
 20
178.84899999999999
 30
0.0
 11
53.368499999999997
 21
178.25700000000001
 31
0.0
  0
LINE
  5
102
  8
0
 62
     7
 10
53.368499999999997
 20
178.25700000000001
 30
0.0
 11
53.368499999999997
 21
179.44200000000001
 31
0.0
  0
LINE
  5
103
  8
0
 62
     7
 10
97.445499999999996
 20
178.2709999999999
 30
0.0
 11
99.657100000000014
 21
178.864
 31
0.0
  0
LINE
  5
104
  8
0
 62
     7
 10
99.657100000000014
 20
178.864
 30
0.0
 11
97.445499999999996
 21
179.45599999999999
 31
0.0
  0
LINE
  5
105
  8
0
 62
     7
 10
97.445499999999996
 20
179.45599999999999
 30
0.0
 11
97.445499999999996
 21
178.2709999999999
 31
0.0
  0
LINE
  5
106
  8
0
 62
     7
 10
51.1569
 20
178.84899999999999
 30
0.0
 11
99.657100000000014
 21
178.84899999999999
 31
0.0
  0
LINE
  5
107
  8
0
 62
     7
 10
99.657100000000014
 20
172.15799999999999
 30
0.0
 11
99.657100000000014
 21
179.54900000000001
 31
0.0
  0
LINE
  5
108
  8
0
 62
     7
 10
51.156700000000001
 20
172.392
 30
0.0
 11
51.156700000000001
 21
179.54900000000001
 31
0.0
  0
LINE
  5
109
  8
0
 62
     7
 10
51.156700000000001
 20
50.991199999999999
 30
0.0
 11
51.156700000000001
 21
42.512700000000002
 31
0.0
  0
LINE
  5
10A
  8
0
 62
     7
 10
93.657099999999986
 20
57.203400000000002
 30
0.0
 11
93.657099999999986
 21
42.5124
 31
0.0
  0
LINE
  5
10B
  8
0
 62
     7
 10
62.6569
 20
57.291600000000003
 30
0.0
 11
62.6569
 21
42.512700000000002
 31
0.0
  0
LINE
  5
10C
  8
0
 62
     7
 10
33.112400000000001
 20
53.9026
 30
0.0
 11
33.704999999999998
 21
51.691200000000002
 31
0.0
  0
LINE
  5
10D
  8
0
 62
     7
 10
33.704999999999998
 20
51.691200000000002
 30
0.0
 11
34.297499999999999
 21
53.9026
 31
0.0
  0
LINE
  5
10E
  8
0
 62
     7
 10
34.297499999999999
 20
53.9026
 30
0.0
 11
33.112400000000001
 21
53.9026
 31
0.0
  0
LINE
  5
10F
  8
0
 62
     7
 10
34.283099999999997
 20
169.48099999999999
 30
0.0
 11
33.6905
 21
171.69200000000001
 31
0.0
  0
LINE
  5
110
  8
0
 62
     7
 10
33.6905
 20
171.69200000000001
 30
0.0
 11
33.097900000000003
 21
169.48099999999999
 31
0.0
  0
LINE
  5
111
  8
0
 62
     7
 10
33.097900000000003
 20
169.48099999999999
 30
0.0
 11
34.283099999999997
 21
169.48099999999999
 31
0.0
  0
LINE
  5
112
  8
0
 62
     7
 10
33.6905
 20
51.691200000000002
 30
0.0
 11
33.6905
 21
171.69200000000001
 31
0.0
  0
LINE
  5
113
  8
0
 62
     7
 10
50.456699999999998
 20
171.69200000000001
 30
0.0
 11
32.990400000000001
 21
171.69200000000001
 31
0.0
  0
LINE
  5
114
  8
0
 62
     7
 10
50.456699999999998
 20
51.691200000000002
 30
0.0
 11
32.990400000000001
 21
51.691200000000002
 31
0.0
  0
LINE
  5
115
  8
0
 62
     7
 10
150.89500000000001
 20
213.798
 30
0.0
 11
150.89500000000001
 21
187.62899999999999
 31
0.0
  0
LINE
  5
116
  8
0
 62
     7
 10
42.421799999999998
 20
137.47999999999999
 30
0.0
 11
41.8292
 21
139.69200000000001
 31
0.0
  0
LINE
  5
117
  8
0
 62
     7
 10
41.8292
 20
139.69200000000001
 30
0.0
 11
41.236699999999992
 21
137.47999999999999
 31
0.0
  0
LINE
  5
118
  8
0
 62
     7
 10
41.236699999999992
 20
137.47999999999999
 30
0.0
 11
42.421799999999998
 21
137.47999999999999
 31
0.0
  0
LINE
  5
119
  8
0
 62
     7
 10
41.251100000000001
 20
85.902999999999992
 30
0.0
 11
41.843699999999998
 21
83.691500000000005
 31
0.0
  0
LINE
  5
11A
  8
0
 62
     7
 10
41.843699999999998
 20
83.691500000000005
 30
0.0
 11
42.436300000000003
 21
85.902999999999992
 31
0.0
  0
LINE
  5
11B
  8
0
 62
     7
 10
42.436300000000003
 20
85.902999999999992
 30
0.0
 11
41.251100000000001
 21
85.902999999999992
 31
0.0
  0
LINE
  5
11C
  8
0
 62
     7
 10
41.8292
 20
139.69200000000001
 30
0.0
 11
41.8292
 21
83.691500000000005
 31
0.0
  0
LINE
  5
11D
  8
0
 62
     7
 10
53.226700000000001
 20
139.69200000000001
 30
0.0
 11
41.12919999999999
 21
139.69200000000001
 31
0.0
  0
LINE
  5
11E
  8
0
 62
     7
 10
52.956800000000001
 20
83.691500000000005
 30
0.0
 11
41.12919999999999
 21
83.691500000000005
 31
0.0
  0
LINE
  5
11F
  8
0
  6
AIGENLINE002
 62
     7
 10
150.84
 20
116.196
 30
0.0
 11
150.84
 21
111.691
 31
0.0
  0
LINE
  5
120
  8
0
  6
AIGENLINE002
 62
     7
 10
150.58799999999999
 20
144.78200000000001
 30
0.0
 11
150.84
 21
116.196
 31
0.0
  0
ARC
  5
121
  8
0
  6
AIGENLINE002
 62
     7
 10
14.93149
 20
143.27817999999999
 30
0.0
 40
135.66499300000001
 50
0.635307
 51
5.1313649999999988
  0
ARC
  5
122
  8
0
  6
AIGENLINE002
 62
     7
 10
128.075491
 20
153.11326299999999
 30
0.0
 40
22.094360000000002
 50
5.9701550000000001
 51
19.832632
  0
ARC
  5
123
  8
0
  6
AIGENLINE002
 62
     7
 10
137.984027
 20
156.35467
 30
0.0
 40
11.67773
 50
21.363159
 51
45.880071999999991
  0
ARC
  5
124
  8
0
  6
AIGENLINE002
 62
     7
 10
131.056107
 20
148.87730099999999
 30
0.0
 40
21.870279
 50
46.486629999999991
 51
63.203788000000003
  0
LINE
  5
125
  8
0
  6
AIGENLINE002
 62
     7
 10
150.84
 20
107.185
 30
0.0
 11
150.84
 21
111.691
 31
0.0
  0
LINE
  5
126
  8
0
  6
AIGENLINE002
 62
     7
 10
150.58699999999999
 20
78.598600000000005
 30
0.0
 11
150.84
 21
107.185
 31
0.0
  0
ARC
  5
127
  8
0
  6
AIGENLINE002
 62
     7
 10
15.077933
 20
80.095517000000015
 30
0.0
 40
135.51779199999999
 50
354.86617100000001
 51
359.36696899999998
  0
ARC
  5
128
  8
0
  6
AIGENLINE002
 62
     7
 10
128.04092499999999
 20
70.276397000000003
 30
0.0
 40
22.128912
 50
340.17785499999991
 51
354.01770499999998
  0
ARC
  5
129
  8
0
  6
AIGENLINE002
 62
     7
 10
137.990262
 20
67.022483999999992
 30
0.0
 40
11.66986
 50
314.110049
 51
338.642312
  0
ARC
  5
12A
  8
0
  6
AIGENLINE002
 62
     7
 10
131.04373000000001
 20
74.517863000000006
 30
0.0
 40
21.887830999999998
 50
296.80728399999998
 51
313.50944900000002
  0
LINE
  5
12B
  8
0
 62
     7
 10
142.55799999999999
 20
43.835700000000003
 30
0.0
 11
140.346
 21
43.243099999999991
 31
0.0
  0
LINE
  5
12C
  8
0
 62
     7
 10
140.346
 20
43.243099999999991
 30
0.0
 11
142.55799999999999
 21
42.650599999999997
 31
0.0
  0
LINE
  5
12D
  8
0
 62
     7
 10
142.55799999999999
 20
42.650599999999997
 30
0.0
 11
142.55799999999999
 21
43.835700000000003
 31
0.0
  0
LINE
  5
12E
  8
0
 62
     7
 10
147.13499999999999
 20
42.664999999999992
 30
0.0
 11
149.346
 21
43.257599999999989
 31
0.0
  0
LINE
  5
12F
  8
0
 62
     7
 10
149.346
 20
43.257599999999989
 30
0.0
 11
147.13499999999999
 21
43.850099999999998
 31
0.0
  0
LINE
  5
130
  8
0
 62
     7
 10
147.13499999999999
 20
43.850099999999998
 30
0.0
 11
147.13499999999999
 21
42.664999999999992
 31
0.0
  0
LINE
  5
131
  8
0
 62
     7
 10
140.346
 20
43.243099999999991
 30
0.0
 11
149.346
 21
43.243099999999991
 31
0.0
  0
LINE
  5
132
  8
0
 62
     7
 10
149.346
 20
50.990499999999997
 30
0.0
 11
149.346
 21
42.543100000000003
 31
0.0
  0
LINE
  5
133
  8
0
 62
     7
 10
140.346
 20
50.990499999999997
 30
0.0
 11
140.346
 21
42.543100000000003
 31
0.0
  0
LINE
  5
134
  8
0
 62
     7
 10
130.137
 20
127.90300000000001
 30
0.0
 11
130.72999999999999
 21
125.69199999999999
 31
0.0
  0
LINE
  5
135
  8
0
 62
     7
 10
130.72999999999999
 20
125.69199999999999
 30
0.0
 11
131.322
 21
127.90300000000001
 31
0.0
  0
LINE
  5
136
  8
0
 62
     7
 10
131.322
 20
127.90300000000001
 30
0.0
 11
130.137
 21
127.90300000000001
 31
0.0
  0
LINE
  5
137
  8
0
 62
     7
 10
130.137
 20
99.903199999999998
 30
0.0
 11
130.72999999999999
 21
97.691800000000001
 31
0.0
  0
LINE
  5
138
  8
0
 62
     7
 10
130.72999999999999
 20
97.691800000000001
 30
0.0
 11
131.322
 21
99.903199999999998
 31
0.0
  0
LINE
  5
139
  8
0
 62
     7
 10
131.322
 20
99.903199999999998
 30
0.0
 11
130.137
 21
99.903199999999998
 31
0.0
  0
LINE
  5
13A
  8
0
 62
     7
 10
130.15199999999999
 20
71.902699999999996
 30
0.0
 11
130.744
 21
69.691299999999984
 31
0.0
  0
LINE
  5
13B
  8
0
 62
     7
 10
130.744
 20
69.691299999999984
 30
0.0
 11
131.33699999999999
 21
71.902699999999996
 31
0.0
  0
LINE
  5
13C
  8
0
 62
     7
 10
131.33699999999999
 20
71.902699999999996
 30
0.0
 11
130.15199999999999
 21
71.902699999999996
 31
0.0
  0
LINE
  5
13D
  8
0
 62
     7
 10
131.322
 20
95.480400000000003
 30
0.0
 11
130.72999999999999
 21
97.691800000000001
 31
0.0
  0
LINE
  5
13E
  8
0
 62
     7
 10
130.72999999999999
 20
97.691800000000001
 30
0.0
 11
130.137
 21
95.480400000000003
 31
0.0
  0
LINE
  5
13F
  8
0
 62
     7
 10
130.137
 20
95.480400000000003
 30
0.0
 11
131.322
 21
95.480400000000003
 31
0.0
  0
LINE
  5
140
  8
0
 62
     7
 10
131.322
 20
123.48
 30
0.0
 11
130.72999999999999
 21
125.69199999999999
 31
0.0
  0
LINE
  5
141
  8
0
 62
     7
 10
130.72999999999999
 20
125.69199999999999
 30
0.0
 11
130.137
 21
123.48
 31
0.0
  0
LINE
  5
142
  8
0
 62
     7
 10
130.137
 20
123.48
 30
0.0
 11
131.322
 21
123.48
 31
0.0
  0
LINE
  5
143
  8
0
 62
     7
 10
131.322
 20
151.47999999999999
 30
0.0
 11
130.72999999999999
 21
153.69200000000001
 31
0.0
  0
LINE
  5
144
  8
0
 62
     7
 10
130.72999999999999
 20
153.69200000000001
 30
0.0
 11
130.137
 21
151.47999999999999
 31
0.0
  0
LINE
  5
145
  8
0
 62
     7
 10
130.137
 20
151.47999999999999
 30
0.0
 11
131.322
 21
151.47999999999999
 31
0.0
  0
LINE
  5
146
  8
0
 62
     7
 10
130.72999999999999
 20
69.691299999999984
 30
0.0
 11
130.72999999999999
 21
153.69200000000001
 31
0.0
  0
LINE
  5
147
  8
0
 62
     7
 10
142.45599999999999
 20
153.69200000000001
 30
0.0
 11
130.03
 21
153.69200000000001
 31
0.0
  0
LINE
  5
148
  8
0
 62
     7
 10
142.45599999999999
 20
125.69199999999999
 30
0.0
 11
130.03
 21
125.69199999999999
 31
0.0
  0
LINE
  5
149
  8
0
 62
     7
 10
142.45599999999999
 20
97.691800000000001
 30
0.0
 11
130.03
 21
97.691800000000001
 31
0.0
  0
LINE
  5
14A
  8
0
 62
     7
 10
142.45599999999999
 20
69.691299999999984
 30
0.0
 11
130.03
 21
69.691299999999984
 31
0.0
  0
ARC
  5
14B
  8
0
  6
AIGENLINE002
 62
     7
 10
145.88848400000001
 20
153.23380499999999
 30
0.0
 40
1.142647999999999
 50
182.09862000000001
 51
267.88346300000001
  0
ARC
  5
14C
  8
0
  6
AIGENLINE002
 62
     7
 10
145.80442500000001
 20
153.23417900000001
 30
0.0
 40
1.1430089999999991
 50
272.09872899999999
 51
357.88333999999998
  0
ARC
  5
14D
  8
0
  6
AIGENLINE002
 62
     7
 10
145.846283
 20
154.19173499999999
 30
0.0
 40
1.1003709999999991
 50
0.00001
 51
89.999980000000008
  0
ARC
  5
14E
  8
0
  6
AIGENLINE002
 62
     7
 10
145.888184
 20
154.15055000000001
 30
0.0
 40
1.142325
 50
92.102089999999976
 51
177.93376900000001
  0
LINE
  5
14F
  8
0
  6
AIGENLINE001
 62
     7
 10
53.949300000000001
 20
153.69200000000001
 30
0.0
 11
48.4268
 21
153.69200000000001
 31
0.0
  0
LINE
  5
150
  8
0
  6
AIGENLINE001
 62
     7
 10
53.949300000000001
 20
125.69199999999999
 30
0.0
 11
48.4268
 21
125.69199999999999
 31
0.0
  0
LINE
  5
151
  8
0
  6
AIGENLINE001
 62
     7
 10
53.949300000000001
 20
97.691800000000001
 30
0.0
 11
48.4268
 21
97.691800000000001
 31
0.0
  0
LINE
  5
152
  8
0
  6
AIGENLINE001
 62
     7
 10
53.949300000000001
 20
69.691299999999984
 30
0.0
 11
48.4268
 21
69.691299999999984
 31
0.0
  0
LINE
  5
153
  8
0
  6
AIGENLINE001
 62
     7
 10
148.678
 20
153.69200000000001
 30
0.0
 11
143.15600000000001
 21
153.69200000000001
 31
0.0
  0
LINE
  5
154
  8
0
  6
AIGENLINE001
 62
     7
 10
145.846
 20
241.32499999999999
 30
0.0
 11
145.846
 21
247.34999999999999
 31
0.0
  0
LINE
  5
155
  8
0
  6
AIGENLINE001
 62
     7
 10
145.846
 20
150.86099999999999
 30
0.0
 11
145.846
 21
156.887
 31
0.0
  0
LINE
  5
156
  8
0
  6
AIGENLINE002
 62
     7
 10
146.947
 20
154.19200000000001
 30
0.0
 11
146.947
 21
153.19200000000001
 31
0.0
  0
LINE
  5
157
  8
0
  6
AIGENLINE002
 62
     7
 10
144.74700000000001
 20
154.19200000000001
 30
0.0
 11
144.74700000000001
 21
153.19200000000001
 31
0.0
  0
ARC
  5
158
  8
0
  6
AIGENLINE002
 62
     7
 10
145.88849400000001
 20
125.233625
 30
0.0
 40
1.1426590000000001
 50
182.09909399999989
 51
267.88298900000001
  0
ARC
  5
159
  8
0
  6
AIGENLINE002
 62
     7
 10
145.80442500000001
 20
125.233988
 30
0.0
 40
1.1430089999999991
 50
272.09872899999999
 51
357.88333999999998
  0
ARC
  5
15A
  8
0
  6
AIGENLINE002
 62
     7
 10
145.84662800000001
 20
126.191545
 30
0.0
 40
1.1000259999999991
 50
0.017954
 51
90.017924000000008
  0
ARC
  5
15B
  8
0
  6
AIGENLINE002
 62
     7
 10
145.88813500000001
 20
126.150037
 30
0.0
 40
1.142301
 50
92.099688999999984
 51
177.90028100000001
  0
LINE
  5
15C
  8
0
  6
AIGENLINE001
 62
     7
 10
148.678
 20
125.69199999999999
 30
0.0
 11
143.15600000000001
 21
125.69199999999999
 31
0.0
  0
LINE
  5
15D
  8
0
  6
AIGENLINE001
 62
     7
 10
145.846
 20
122.861
 30
0.0
 11
145.846
 21
128.886
 31
0.0
  0
LINE
  5
15E
  8
0
  6
AIGENLINE002
 62
     7
 10
146.947
 20
126.19199999999999
 30
0.0
 11
146.947
 21
125.19199999999999
 31
0.0
  0
LINE
  5
15F
  8
0
  6
AIGENLINE002
 62
     7
 10
144.74700000000001
 20
126.19199999999999
 30
0.0
 11
144.74700000000001
 21
125.19199999999999
 31
0.0
  0
ARC
  5
160
  8
0
  6
AIGENLINE002
 62
     7
 10
145.88848400000001
 20
97.233423999999985
 30
0.0
 40
1.142647999999999
 50
182.09862000000001
 51
267.88346300000001
  0
ARC
  5
161
  8
0
  6
AIGENLINE002
 62
     7
 10
145.80442500000001
 20
97.233796999999996
 30
0.0
 40
1.1430089999999991
 50
272.09872899999999
 51
357.88333999999998
  0
ARC
  5
162
  8
0
  6
AIGENLINE002
 62
     7
 10
145.846283
 20
98.191354000000004
 30
0.0
 40
1.1003709999999991
 50
0.00001
 51
89.999980000000008
  0
ARC
  5
163
  8
0
  6
AIGENLINE002
 62
     7
 10
145.888184
 20
98.150168000000022
 30
0.0
 40
1.142325
 50
92.102089999999976
 51
177.93376900000001
  0
LINE
  5
164
  8
0
  6
AIGENLINE001
 62
     7
 10
148.678
 20
97.691800000000001
 30
0.0
 11
143.15600000000001
 21
97.691800000000001
 31
0.0
  0
LINE
  5
165
  8
0
  6
AIGENLINE001
 62
     7
 10
145.846
 20
94.861000000000004
 30
0.0
 11
145.846
 21
100.886
 31
0.0
  0
LINE
  5
166
  8
0
  6
AIGENLINE002
 62
     7
 10
146.947
 20
98.191400000000002
 30
0.0
 11
146.947
 21
97.191599999999994
 31
0.0
  0
LINE
  5
167
  8
0
  6
AIGENLINE002
 62
     7
 10
144.74700000000001
 20
98.191400000000002
 30
0.0
 11
144.74700000000001
 21
97.191599999999994
 31
0.0
  0
ARC
  5
168
  8
0
  6
AIGENLINE002
 62
     7
 10
145.88848899999999
 20
69.233238999999983
 30
0.0
 40
1.1426540000000001
 50
182.09885700000001
 51
267.88322599999998
  0
ARC
  5
169
  8
0
  6
AIGENLINE002
 62
     7
 10
145.804033
 20
69.233998999999983
 30
0.0
 40
1.1434150000000001
 50
272.117638
 51
357.86443000000003
  0
ARC
  5
16A
  8
0
  6
AIGENLINE002
 62
     7
 10
145.84662800000001
 20
70.191163000000003
 30
0.0
 40
1.1000259999999991
 50
0.017954
 51
90.017924000000008
  0
ARC
  5
16B
  8
0
  6
AIGENLINE002
 62
     7
 10
145.88852700000001
 20
70.149264000000002
 30
0.0
 40
1.1427059999999989
 50
92.118597000000008
 51
177.881373
  0
LINE
  5
16C
  8
0
  6
AIGENLINE001
 62
     7
 10
142.89699999999999
 20
114.801
 30
0.0
 11
142.89699999999999
 21
108.505
 31
0.0
  0
ARC
  5
16D
  8
0
  6
AIGENLINE002
 62
     7
 10
142.940842
 20
111.646434
 30
0.0
 40
1.195068
 50
92.122834999999995
 51
177.87713600000001
  0
ARC
  5
16E
  8
0
  6
AIGENLINE002
 62
     7
 10
142.940842
 20
111.73497
 30
0.0
 40
1.195068
 50
182.12286399999991
 51
267.87716499999999
  0
ARC
  5
16F
  8
0
  6
AIGENLINE002
 62
     7
 10
142.85228599999999
 20
111.73499
 30
0.0
 40
1.195088999999999
 50
272.12379399999998
 51
357.876215
  0
ARC
  5
170
  8
0
  6
AIGENLINE002
 62
     7
 10
142.852306
 20
111.646434
 30
0.0
 40
1.195068
 50
2.122844999999999
 51
87.877145999999996
  0
ARC
  5
171
  8
0
 62
     7
 10
143.001698
 20
76.585977999999983
 30
0.0
 40
88.859705000000005
 50
82.958545999999998
 51
85.825253999999987
  0
LINE
  5
172
  8
0
 62
     7
 10
151.68700000000001
 20
144.791
 30
0.0
 11
151.744
 21
137.78299999999999
 31
0.0
  0
ARC
  5
173
  8
0
 62
     7
 10
-62.816977999999999
 20
140.59339399999999
 30
0.0
 40
214.54535000000001
 50
1.123383
 51
3.4881319999999989
  0
LINE
  5
174
  8
0
 62
     7
 10
152.31200000000001
 20
154.83099999999999
 30
0.0
 11
152.49799999999999
 21
154.851
 31
0.0
  0
ARC
  5
175
  8
0
 62
     7
 10
149.6728479999999
 20
160.135898
 30
0.0
 40
4.2484640000000002
 50
333.73631799999998
 51
353.84652699999998
  0
ARC
  5
176
  8
0
 62
     7
 10
153.15347600000001
 20
160.32447300000001
 30
0.0
 40
0.892876
 50
336.55300799999998
 51
0.060927
  0
ARC
  5
177
  8
0
 62
     7
 10
153.15347600000001
 20
160.32447300000001
 30
0.0
 40
0.892876
 50
336.55300799999998
 51
0.060927
  0
ARC
  5
178
  8
0
 62
     7
 10
154.916282
 20
159.56716
 30
0.0
 40
1.0257289999999999
 50
156.92393799999999
 51
173.65621899999999
  0
LINE
  5
179
  8
0
 62
     7
 10
153.483
 20
158.256
 30
0.0
 11
153.483
 21
155.94499999999999
 31
0.0
  0
LINE
  5
17A
  8
0
 62
     7
 10
154.596
 20
163.98099999999999
 30
0.0
 11
154.596
 21
161.58500000000001
 31
0.0
  0
LINE
  5
17B
  8
0
 62
     7
 10
154.596
 20
161.58500000000001
 30
0.0
 11
154.596
 21
163.98099999999999
 31
0.0
  0
ARC
  5
17C
  8
0
 62
     7
 10
153.98818199999999
 20
161.58828399999999
 30
0.0
 40
0.608019
 50
323.181422
 51
359.68646100000001
  0
LINE
  5
17D
  8
0
 62
     7
 10
154.304
 20
161.041
 30
0.0
 11
154.47499999999999
 21
161.22399999999999
 31
0.0
  0
ARC
  5
17E
  8
0
 62
     7
 10
153.78313700000001
 20
163.964752
 30
0.0
 40
0.8182829999999999
 50
21.493607999999998
 51
82.208011999999997
  0
ARC
  5
17F
  8
0
 62
     7
 10
153.65110899999999
 20
163.95523
 30
0.0
 40
0.9454450000000001
 50
1.5850040000000001
 51
19.098284
  0
ARC
  5
180
  8
0
 62
     7
 10
155.17913999999999
 20
160.31996100000001
 30
0.0
 40
1.132871999999999
 50
134.18984399999999
 51
179.30559
  0
ARC
  5
181
  8
0
 62
     7
 10
152.47173900000001
 20
153.70034000000001
 30
0.0
 40
1.142023999999999
 50
98.036480000000026
 51
182.62206
  0
ARC
  5
182
  8
0
 62
     7
 10
152.34488300000001
 20
155.97878700000001
 30
0.0
 40
1.1383609999999991
 50
277.73599300000001
 51
358.27962200000002
  0
ARC
  5
183
  8
0
 62
     7
 10
-62.713428999999998
 20
82.784002999999984
 30
0.0
 40
214.44174899999999
 50
356.5112529999999
 51
358.87705299999999
  0
ARC
  5
184
  8
0
 62
     7
 10
154.87826699999999
 20
63.803795999999998
 30
0.0
 40
0.9868120000000001
 50
185.9847739999999
 51
203.401521
  0
ARC
  5
185
  8
0
 62
     7
 10
155.18056100000001
 20
63.062053000000013
 30
0.0
 40
1.1343000000000001
 50
180.72438199999999
 51
225.78018499999999
  0
LINE
  5
186
  8
0
 62
     7
 10
154.47499999999999
 20
62.157499999999992
 30
0.0
 11
154.304
 21
62.340800000000002
 31
0.0
  0
ARC
  5
187
  8
0
 62
     7
 10
153.98927599999999
 20
61.793492000000001
 30
0.0
 40
0.6069200000000001
 50
0.213905
 51
36.852317999999997
  0
ARC
  5
188
  8
0
 62
     7
 10
153.65922399999999
 20
59.424003999999996
 30
0.0
 40
0.937293
 50
340.82495399999999
 51
358.491758
  0
ARC
  5
189
  8
0
 62
     7
 10
153.783455
 20
59.416103999999997
 30
0.0
 40
0.818039
 50
277.77184799999998
 51
338.48898600000001
  0
ARC
  5
18A
  8
0
 62
     7
 10
142.97032400000001
 20
147.04038700000001
 30
0.0
 40
89.106837999999996
 50
274.18204200000002
 51
277.04126000000002
  0
ARC
  5
18B
  8
0
 62
     7
 10
140.968266
 20
171.07007200000001
 30
0.0
 40
0.6228229999999999
 50
95.356938999999997
 51
178.036338
  0
LINE
  5
18C
  8
0
 62
     7
 10
149.346
 20
171.017
 30
0.0
 11
149.346
 21
170.66300000000001
 31
0.0
  0
LINE
  5
18D
  8
0
 62
     7
 10
149.346
 20
170.66300000000001
 30
0.0
 11
149.346
 21
171.017
 31
0.0
  0
ARC
  5
18E
  8
0
 62
     7
 10
148.82693599999999
 20
170.99915999999999
 30
0.0
 40
0.5192040000000001
 50
1.9690049999999999
 51
85.197143000000025
  0
ARC
  5
18F
  8
0
 62
     7
 10
139.892267
 20
-56.444359999999989
 30
0.0
 40
228.13757799999999
 50
87.744932999999989
 51
89.739687999999987
  0
ARC
  5
190
  8
0
 62
     7
 10
148.82713000000001
 20
52.382058999999998
 30
0.0
 40
0.519004
 50
274.78320300000001
 51
358.05064900000002
  0
ARC
  5
191
  8
0
 62
     7
 10
139.91542200000001
 20
278.77107899999999
 30
0.0
 40
227.08279999999999
 50
270.25567899999999
 51
272.25970000000001
  0
ARC
  5
192
  8
0
 62
     7
 10
140.969042
 20
52.31206199999999
 30
0.0
 40
0.623624
 50
182.02837500000001
 51
264.57834800000001
  0
ARC
  5
193
  8
0
 62
     7
 10
150.01627099999999
 20
164.32999599999999
 30
0.0
 40
0.830025
 50
1.9049780000000001
 51
84.475389000000007
  0
ARC
  5
194
  8
0
 62
     7
 10
152.85745600000001
 20
137.79767899999999
 30
0.0
 40
1.1132239999999991
 50
180.73852400000001
 51
226.72559899999999
  0
ARC
  5
195
  8
0
 62
     7
 10
153.15274500000001
 20
133.24759900000001
 30
0.0
 40
0.8936069999999999
 50
359.94882999999999
 51
23.437235000000008
  0
ARC
  5
196
  8
0
 62
     7
 10
153.15274500000001
 20
133.24759900000001
 30
0.0
 40
0.8936069999999999
 50
359.94882999999999
 51
23.437235000000008
  0
LINE
  5
197
  8
0
 62
     7
 10
154.04599999999999
 20
133.24700000000001
 30
0.0
 11
154.04599999999999
 21
131.43700000000001
 31
0.0
  0
LINE
  5
198
  8
0
 62
     7
 10
154.04599999999999
 20
133.24700000000001
 30
0.0
 11
154.04599999999999
 21
131.43700000000001
 31
0.0
  0
ARC
  5
199
  8
0
 62
     7
 10
154.21729199999999
 20
133.923937
 30
0.0
 40
0.32204
 50
185.67885799999999
 51
190.13550499999999
  0
ARC
  5
19A
  8
0
 62
     7
 10
153.09633299999999
 20
133.76538300000001
 30
0.0
 40
0.8103749999999999
 50
5.4578740000000003
 51
7.2225080000000004
  0
ARC
  5
19B
  8
0
 62
     7
 10
153.61920799999999
 20
133.77378999999999
 30
0.0
 40
0.292016
 50
8.7080590000000004
 51
13.601258
  0
ARC
  5
19C
  8
0
 62
     7
 10
154.35136900000001
 20
133.891368
 30
0.0
 40
0.4495390000000001
 50
189.3929959999999
 51
192.61412300000001
  0
ARC
  5
19D
  8
0
 62
     7
 10
154.243773
 20
133.85618600000001
 30
0.0
 40
0.337031
 50
190.77181999999999
 51
194.97821999999991
  0
ARC
  5
19E
  8
0
 62
     7
 10
154.76912300000001
 20
133.95089100000001
 30
0.0
 40
0.8701360000000001
 50
192.06054
 51
193.68950000000001
  0
ARC
  5
19F
  8
0
 62
     7
 10
153.55256600000001
 20
133.62588199999999
 30
0.0
 40
0.389775
 50
14.101673999999999
 51
17.789114999999999
  0
ARC
  5
1A0
  8
0
 62
     7
 10
153.290426
 20
133.524901
 30
0.0
 40
0.6694870000000001
 50
14.872101999999989
 51
17.018685999999999
  0
ARC
  5
1A1
  8
0
 62
     7
 10
152.32976199999999
 20
133.116128
 30
0.0
 40
1.709349999999999
 50
19.023671
 51
19.856394999999999
  0
ARC
  5
1A2
  8
0
 62
     7
 10
156.168328
 20
134.444571
 30
0.0
 40
2.352590999999999
 50
199.13753299999999
 51
199.742572
  0
ARC
  5
1A3
  8
0
 62
     7
 10
153.104501
 20
133.28637699999999
 30
0.0
 40
0.924024
 50
21.594633999999999
 51
23.165631000000001
  0
ARC
  5
1A4
  8
0
 62
     7
 10
153.280033
 20
133.35163600000001
 30
0.0
 40
0.7368050000000002
 50
19.949279000000001
 51
21.899719999999999
  0
ARC
  5
1A5
  8
0
 62
     7
 10
153.41552200000001
 20
133.40344099999999
 30
0.0
 40
0.5917750000000001
 50
19.710243999999999
 51
22.138755
  0
ARC
  5
1A6
  8
0
 62
     7
 10
152.650158
 20
133.09929500000001
 30
0.0
 40
1.4153459999999991
 50
21.867321
 51
22.892944
  0
ARC
  5
1A7
  8
0
 62
     7
 10
155.561746
 20
134.23048399999999
 30
0.0
 40
1.709349999999999
 50
199.02369100000001
 51
199.85641499999991
  0
ARC
  5
1A8
  8
0
 62
     7
 10
151.72318000000001
 20
132.902041
 30
0.0
 40
2.352590999999999
 50
19.137512999999998
 51
19.742552
  0
ARC
  5
1A9
  8
0
 62
     7
 10
153.42194499999999
 20
133.562478
 30
0.0
 40
0.5327350000000001
 50
14.596546
 51
17.294242999999991
  0
ARC
  5
1AA
  8
0
 62
     7
 10
153.42498800000001
 20
133.58943199999999
 30
0.0
 40
0.522407
 50
14.569872999999999
 51
17.320916
  0
ARC
  5
1AB
  8
0
 62
     7
 10
154.432559
 20
133.87396200000001
 30
0.0
 40
0.5249500000000001
 50
191.52488999999991
 51
194.22515000000001
  0
ARC
  5
1AC
  8
0
 62
     7
 10
154.392427
 20
133.890164
 30
0.0
 40
0.489447
 50
191.42693800000001
 51
194.32310200000001
  0
ARC
  5
1AD
  8
0
 62
     7
 10
154.2409199999999
 20
133.86989199999999
 30
0.0
 40
0.33708
 50
188.85545099999999
 51
193.151668
  0
ARC
  5
1AE
  8
0
 62
     7
 10
153.505876
 20
133.75144299999999
 30
0.0
 40
0.4074550000000001
 50
9.4014790000000001
 51
12.907838
  0
ARC
  5
1AF
  8
0
 62
     7
 10
153.319997
 20
133.790235
 30
0.0
 40
0.585372
 50
5.1186879999999988
 51
7.5616940000000001
  0
ARC
  5
1B0
  8
0
 62
     7
 10
154.354026
 20
133.94292799999999
 30
0.0
 40
0.460012
 50
186.3474049999999
 51
189.46695800000001
  0
ARC
  5
1B1
  8
0
 62
     7
 10
149.628953
 20
133.41507200000001
 30
0.0
 40
4.2944539999999991
 50
6.3771930000000001
 51
46.818322999999992
  0
ARC
  5
1B2
  8
0
 62
     7
 10
153.45231100000001
 20
131.257541
 30
0.0
 40
0.557829
 50
340.71143499999999
 51
342.98315700000001
  0
ARC
  5
1B3
  8
0
 62
     7
 10
153.42636300000001
 20
131.260651
 30
0.0
 40
0.5833750000000001
 50
339.070742
 51
341.26500299999998
  0
ARC
  5
1B4
  8
0
 62
     7
 10
150.396781
 20
132.078429
 30
0.0
 40
3.7188479999999999
 50
343.63945799999999
 51
343.98213299999998
  0
ARC
  5
1B5
  8
0
 62
     7
 10
152.19655499999999
 20
131.53275400000001
 30
0.0
 40
1.83832
 50
343.46418499999999
 51
344.15740599999998
  0
ARC
  5
1B6
  8
0
 62
     7
 10
154.74413799999999
 20
130.79855000000001
 30
0.0
 40
0.813143
 50
164.96098599999999
 51
166.53891200000001
  0
ARC
  5
1B7
  8
0
 62
     7
 10
153.199996
 20
131.167609
 30
0.0
 40
0.7744900000000001
 50
344.921627
 51
346.57831099999999
  0
ARC
  5
1B8
  8
0
 62
     7
 10
153.42425399999999
 20
131.06911099999999
 30
0.0
 40
0.533598
 50
346.44907499999999
 51
348.87275299999999
  0
ARC
  5
1B9
  8
0
 62
     7
 10
164.077754
 20
129.002408
 30
0.0
 40
10.319079
 50
169.15434500000001
 51
169.27702199999999
  0
ARC
  5
1BA
  8
0
 62
     7
 10
157.36952099999999
 20
130.26772
 30
0.0
 40
3.4925619999999999
 50
169.19631799999999
 51
169.564334
  0
ARC
  5
1BB
  8
0
 62
     7
 10
153.26467600000001
 20
130.99373299999999
 30
0.0
 40
0.676532
 50
350.17431199999999
 51
352.06437099999999
  0
ARC
  5
1BC
  8
0
 62
     7
 10
153.352102
 20
130.93948399999999
 30
0.0
 40
0.582407
 50
351.78192799999999
 51
353.96804100000003
  0
ARC
  5
1BD
  8
0
 62
     7
 10
154.54683
 20
130.76876899999999
 30
0.0
 40
0.624457
 50
171.94834800000001
 51
174.01861
  0
ARC
  5
1BE
  8
0
 62
     7
 10
137.825309
 20
132.33213699999999
 30
0.0
 40
16.170027999999999
 50
354.604941
 51
354.68340999999998
  0
ARC
  5
1BF
  8
0
 62
     7
 10
107.077085
 20
135.19254100000001
 30
0.0
 40
47.051001999999997
 50
354.63069200000001
 51
354.65765900000002
  0
ARC
  5
1C0
  8
0
 62
     7
 10
153.38216299999999
 20
130.79471100000001
 30
0.0
 40
0.539498
 50
357.05625199999997
 51
359.47233899999998
  0
ARC
  5
1C1
  8
0
 62
     7
 10
153.19508200000001
 20
130.80130399999999
 30
0.0
 40
0.7266770000000001
 50
355.552706
 51
357.29462599999999
  0
ARC
  5
1C2
  8
0
 62
     7
 10
153.339698
 20
130.79226600000001
 30
0.0
 40
0.581799
 50
355.33579900000012
 51
357.51153299999999
  0
ARC
  5
1C3
  8
0
 62
     7
 10
153.22331500000001
 20
130.79952499999999
 30
0.0
 40
0.698391
 50
357.33112699999998
 51
359.19746500000002
  0
ARC
  5
1C4
  8
0
 62
     7
 10
170.02210199999999
 20
129.29144600000001
 30
0.0
 40
16.170027999999999
 50
174.60492099999999
 51
174.68339
  0
ARC
  5
1C5
  8
0
 62
     7
 10
200.77032600000001
 20
126.43104200000001
 30
0.0
 40
47.051001999999997
 50
174.630672
 51
174.65763899999999
  0
ARC
  5
1C6
  8
0
 62
     7
 10
154.40822499999999
 20
130.78582800000001
 30
0.0
 40
0.484836
 50
171.65020699999999
 51
174.31675100000001
  0
ARC
  5
1C7
  8
0
 62
     7
 10
153.235872
 20
130.95401200000001
 30
0.0
 40
0.6995239999999999
 50
351.96494799999999
 51
353.78502099999997
  0
ARC
  5
1C8
  8
0
 62
     7
 10
153.473555
 20
130.961096
 30
0.0
 40
0.4651600000000001
 50
349.74481500000002
 51
352.49386900000002
  0
ARC
  5
1C9
  8
0
 62
     7
 10
177.962119
 20
126.40660699999999
 30
0.0
 40
24.443997
 50
169.35403500000001
 51
169.40661700000001
  0
LINE
  5
1CA
  8
0
 62
     7
 10
153.93899999999999
 20
130.922
 30
0.0
 11
153.94300000000001
 21
130.94399999999999
 31
0.0
  0
ARC
  5
1CB
  8
0
 62
     7
 10
153.21798899999999
 20
131.11423199999999
 30
0.0
 40
0.7447060000000001
 50
346.79263800000001
 51
348.52919000000003
  0
ARC
  5
1CC
  8
0
 62
     7
 10
153.42693899999989
 20
131.109972
 30
0.0
 40
0.540377
 50
344.56271400000003
 51
346.93722400000001
  0
ARC
  5
1CD
  8
0
 62
     7
 10
155.295726
 20
130.65846400000001
 30
0.0
 40
1.3822099999999991
 50
165.28581800000001
 51
166.21408
  0
ARC
  5
1CE
  8
0
 62
     7
 10
151.61849900000001
 20
131.70057700000001
 30
0.0
 40
2.4402360000000001
 50
343.54968200000002
 51
344.07191
  0
ARC
  5
1CF
  8
0
 62
     7
 10
108.73012300000001
 20
144.17520099999999
 30
0.0
 40
47.10595399999999
 50
343.79726899999997
 51
343.824322
  0
ARC
  5
1D0
  8
0
 62
     7
 10
153.52231499999999
 20
131.226045
 30
0.0
 40
0.481396
 50
338.83828699999998
 51
341.49745799999999
  0
ARC
  5
1D1
  8
0
 62
     7
 10
153.091048
 20
131.37598800000001
 30
0.0
 40
0.9379700000000001
 50
341.171806
 51
342.52278699999999
  0
ARC
  5
1D2
  8
0
 62
     7
 10
152.94457299999999
 20
126.427003
 30
0.0
 40
1.107248999999999
 50
139.77510000000001
 51
180.32900900000001
  0
LINE
  5
1D3
  8
0
 62
     7
 10
152.90899999999999
 20
128.096
 30
0.0
 11
152.09899999999999
 21
127.142
 31
0.0
  0
ARC
  5
1D4
  8
0
 62
     7
 10
149.63580400000001
 20
130.86214899999999
 30
0.0
 40
4.286058999999999
 50
319.79967599999998
 51
358.43317500000001
  0
ARC
  5
1D5
  8
0
 62
     7
 10
153.046425
 20
131.437195
 30
0.0
 40
0.9999259999999999
 50
339.94458400000002
 51
359.97369900000001
  0
ARC
  5
1D6
  8
0
 62
     7
 10
153.046425
 20
131.437195
 30
0.0
 40
0.9999259999999999
 50
339.94458400000002
 51
359.97369900000001
  0
LINE
  5
1D7
  8
0
 62
     7
 10
151.934
 20
116.871
 30
0.0
 11
151.95699999999999
 21
116.282
 31
0.0
  0
LINE
  5
1D8
  8
0
 62
     7
 10
151.83699999999999
 20
126.42100000000001
 30
0.0
 11
151.91800000000001
 21
116.548
 31
0.0
  0
LINE
  5
1D9
  8
0
 62
     7
 10
152.09399999999999
 20
136.98699999999999
 30
0.0
 11
152.56800000000001
 21
136.547
 31
0.0
  0
LINE
  5
1DA
  8
0
 62
     7
 10
151.934
 20
106.51000000000001
 30
0.0
 11
151.95699999999999
 21
107.099
 31
0.0
  0
ARC
  5
1DB
  8
0
 62
     7
 10
153.09315699999999
 20
107.01840300000001
 30
0.0
 40
1.139470999999999
 50
93.834716999999983
 51
175.941442
  0
LINE
  5
1DC
  8
0
 62
     7
 10
152.90899999999999
 20
95.2851
 30
0.0
 11
152.09899999999999
 21
96.23899999999999
 31
0.0
  0
ARC
  5
1DD
  8
0
 62
     7
 10
152.943701
 20
96.953738999999985
 30
0.0
 40
1.1063780000000001
 50
179.65432699999999
 51
220.24156400000001
  0
LINE
  5
1DE
  8
0
 62
     7
 10
151.83699999999999
 20
96.960400000000007
 30
0.0
 11
151.91800000000001
 21
106.83199999999999
 31
0.0
  0
ARC
  5
1DF
  8
0
 62
     7
 10
155.63976700000001
 20
114.922293
 30
0.0
 40
0.207115
 50
1.8867009999999991
 51
86.103116999999997
  0
LINE
  5
1E0
  8
0
 62
     7
 10
155.84700000000001
 20
111.691
 30
0.0
 11
155.84700000000001
 21
114.929
 31
0.0
  0
ARC
  5
1E1
  8
0
 62
     7
 10
155.6391129999999
 20
108.45939799999999
 30
0.0
 40
0.20779
 50
274.06503199999997
 51
357.94515000000001
  0
LINE
  5
1E2
  8
0
 62
     7
 10
155.84700000000001
 20
111.691
 30
0.0
 11
155.84700000000001
 21
108.452
 31
0.0
  0
LINE
  5
1E3
  8
0
 62
     7
 10
153.017
 20
108.155
 30
0.0
 11
155.654
 21
108.252
 31
0.0
  0
LINE
  5
1E4
  8
0
 62
     7
 10
153.017
 20
115.22499999999999
 30
0.0
 11
155.654
 21
115.129
 31
0.0
  0
ARC
  5
1E5
  8
0
 62
     7
 10
153.41262499999999
 20
92.593667000000011
 30
0.0
 40
0.508719
 50
2.2579150000000001
 51
4.7849909999999998
  0
ARC
  5
1E6
  8
0
 62
     7
 10
153.24787599999999
 20
92.581641000000005
 30
0.0
 40
0.673837
 50
0.8520179999999999
 51
2.7278029999999989
  0
ARC
  5
1E7
  8
0
 62
     7
 10
159.60073399999999
 20
93.104593000000008
 30
0.0
 40
5.7022129999999986
 50
185.160933
 51
185.386897
  0
ARC
  5
1E8
  8
0
 62
     7
 10
146.17816199999999
 20
91.843001999999998
 30
0.0
 40
7.7795179999999986
 50
5.1910819999999989
 51
5.3567089999999986
  0
ARC
  5
1E9
  8
0
 62
     7
 10
154.504955
 20
92.608074999999999
 30
0.0
 40
0.582407
 50
186.03197900000001
 51
188.21809200000001
  0
ARC
  5
1EA
  8
0
 62
     7
 10
153.364912
 20
92.443177000000006
 30
0.0
 40
0.5695000000000001
 50
6.0071820000000002
 51
8.2428490000000014
  0
ARC
  5
1EB
  8
0
 62
     7
 10
153.36077599999999
 20
92.402341000000007
 30
0.0
 40
0.579282
 50
7.7769579999999996
 51
9.9843580000000003
  0
ARC
  5
1EC
  8
0
 62
     7
 10
177.962119
 20
96.974451000000016
 30
0.0
 40
24.443997
 50
190.59338299999999
 51
190.64596499999999
  0
ARC
  5
1ED
  8
0
 62
     7
 10
150.508206
 20
91.804018999999997
 30
0.0
 40
3.4925619999999999
 50
10.435646
 51
10.803661999999999
  0
ARC
  5
1EE
  8
0
 62
     7
 10
153.315449
 20
92.285786999999985
 30
0.0
 40
0.645423
 50
11.541888999999999
 51
13.515724000000001
  0
ARC
  5
1EF
  8
0
 62
     7
 10
153.42693899999989
 20
92.271086999999994
 30
0.0
 40
0.540377
 50
13.062775999999999
 51
15.437286
  0
ARC
  5
1F0
  8
0
 62
     7
 10
154.545086
 20
92.534541000000004
 30
0.0
 40
0.6083940000000001
 50
193.431522
 51
195.50910200000001
  0
ARC
  5
1F1
  8
0
 62
     7
 10
155.020386
 20
92.663421999999997
 30
0.0
 40
1.1008519999999991
 50
195.35798500000001
 51
196.5328429999999
  0
ARC
  5
1F2
  8
0
 62
     7
 10
108.73012300000001
 20
79.205857999999992
 30
0.0
 40
47.10595399999999
 50
16.175678000000001
 51
16.202731
  0
ARC
  5
1F3
  8
0
 62
     7
 10
153.06556900000001
 20
91.990285999999998
 30
0.0
 40
0.9668739999999999
 50
19.170186000000001
 51
20.494069
  0
ARC
  5
1F4
  8
0
 62
     7
 10
153.32233099999999
 20
92.08421899999999
 30
0.0
 40
0.6935190000000001
 50
16.951556
 51
18.805834000000001
  0
ARC
  5
1F5
  8
0
 62
     7
 10
153.05803900000001
 20
91.945577999999998
 30
0.0
 40
0.9883129999999999
 50
359.94719400000002
 51
20.174184
  0
ARC
  5
1F6
  8
0
 62
     7
 10
153.05803900000001
 20
91.945577999999998
 30
0.0
 40
0.9883129999999999
 50
359.94719400000002
 51
20.174184
  0
ARC
  5
1F7
  8
0
 62
     7
 10
153.52985899999999
 20
92.151162999999997
 30
0.0
 40
0.475502
 50
16.526398
 51
19.230992000000001
  0
ARC
  5
1F8
  8
0
 62
     7
 10
153.072416
 20
91.992755000000002
 30
0.0
 40
0.959595
 50
19.165164999999998
 51
20.499089999999999
  0
ARC
  5
1F9
  8
0
 62
     7
 10
150.396781
 20
91.302630000000008
 30
0.0
 40
3.7188479999999999
 50
16.017866999999999
 51
16.360541999999999
  0
ARC
  5
1FA
  8
0
 62
     7
 10
156.039221
 20
92.954516999999996
 30
0.0
 40
2.160428
 50
195.64609200000001
 51
196.24473599999999
  0
ARC
  5
1FB
  8
0
 62
     7
 10
154.367401
 20
92.488686999999999
 30
0.0
 40
0.42493
 50
192.98294100000001
 51
195.957684
  0
ARC
  5
1FC
  8
0
 62
     7
 10
153.199996
 20
92.213449999999995
 30
0.0
 40
0.7744900000000001
 50
13.421689000000001
 51
15.078372999999999
  0
ARC
  5
1FD
  8
0
 62
     7
 10
153.44540000000001
 20
92.314665000000005
 30
0.0
 40
0.5123270000000001
 50
11.285463999999999
 51
13.772149000000001
  0
ARC
  5
1FE
  8
0
 62
     7
 10
129.91560799999999
 20
87.942906999999991
 30
0.0
 40
24.443997
 50
10.593363
 51
10.645944999999999
  0
ARC
  5
1FF
  8
0
 62
     7
 10
157.36952099999999
 20
93.113338999999996
 30
0.0
 40
3.4925619999999999
 50
190.435666
 51
190.80368200000001
  0
ARC
  5
200
  8
0
 62
     7
 10
153.06224
 20
92.355694999999997
 30
0.0
 40
0.8814030000000001
 50
8.1553020000000007
 51
9.6060140000000001
  0
ARC
  5
201
  8
0
 62
     7
 10
153.485286
 20
92.458223000000004
 30
0.0
 40
0.4482190000000001
 50
5.7046570000000001
 51
8.5453740000000007
  0
ARC
  5
202
  8
0
 62
     7
 10
154.621185
 20
92.622603999999995
 30
0.0
 40
0.6995239999999999
 50
186.21499900000001
 51
188.03507200000001
  0
ARC
  5
203
  8
0
 62
     7
 10
148.24667700000001
 20
92.03394200000001
 30
0.0
 40
5.7022129999999986
 50
5.1609129999999999
 51
5.3868769999999992
  0
ARC
  5
204
  8
0
 62
     7
 10
161.66924900000001
 20
93.295532999999978
 30
0.0
 40
7.7795179999999986
 50
185.191102
 51
185.356728
  0
ARC
  5
205
  8
0
 62
     7
 10
153.42757700000001
 20
92.587256000000011
 30
0.0
 40
0.4940810000000001
 50
0.510745
 51
3.0690750000000002
  0
ARC
  5
206
  8
0
 62
     7
 10
153.250821
 20
92.583709999999996
 30
0.0
 40
0.6707989999999999
 50
2.5632479999999989
 51
4.4796579999999997
  0
ARC
  5
207
  8
0
 62
     7
 10
153.15028799999999
 20
90.133624999999995
 30
0.0
 40
0.8960630000000001
 50
336.59538900000013
 51
0.04052
  0
ARC
  5
208
  8
0
 62
     7
 10
153.15028799999999
 20
90.133624999999995
 30
0.0
 40
0.8960630000000001
 50
336.59538900000013
 51
0.04052
  0
ARC
  5
209
  8
0
 62
     7
 10
153.26582300000001
 20
90.038691000000014
 30
0.0
 40
0.753454
 50
337.84933100000001
 51
339.73222099999998
  0
ARC
  5
20A
  8
0
 62
     7
 10
153.19133199999999
 20
90.063817
 30
0.0
 40
0.831934
 50
336.4579470000001
 51
338.18093800000003
  0
ARC
  5
20B
  8
0
 62
     7
 10
160.527143
 20
87.431898000000004
 30
0.0
 40
6.9637779999999987
 50
160.71743599999999
 51
160.92451199999999
  0
ARC
  5
20C
  8
0
 62
     7
 10
155.717097
 20
89.078309999999988
 30
0.0
 40
1.8798549999999989
 50
160.437422
 51
161.20452599999999
  0
ARC
  5
20D
  8
0
 62
     7
 10
152.883477
 20
89.976607000000001
 30
0.0
 40
1.0938760000000001
 50
343.18730900000003
 51
344.48369600000001
  0
ARC
  5
20E
  8
0
 62
     7
 10
153.57455100000001
 20
89.750527000000005
 30
0.0
 40
0.367321
 50
341.90486800000002
 51
345.76613800000001
  0
ARC
  5
20F
  8
0
 62
     7
 10
154.70875799999999
 20
89.446674000000002
 30
0.0
 40
0.807662
 50
166.41099299999999
 51
168.18980099999999
  0
ARC
  5
210
  8
0
 62
     7
 10
154.34716299999999
 20
89.50245799999999
 30
0.0
 40
0.4427310000000001
 50
165.677727
 51
168.923067
  0
ARC
  5
211
  8
0
 62
     7
 10
154.24884700000001
 20
89.508526000000003
 30
0.0
 40
0.3453219999999999
 50
166.77657300000001
 51
170.91407000000001
  0
ARC
  5
212
  8
0
 62
     7
 10
153.454196
 20
89.639806999999976
 30
0.0
 40
0.4601080000000001
 50
347.29284200000001
 51
350.39784100000003
  0
ARC
  5
213
  8
0
 62
     7
 10
153.319997
 20
89.590823999999984
 30
0.0
 40
0.585372
 50
352.43830600000001
 51
354.88131200000009
  0
ARC
  5
214
  8
0
 62
     7
 10
154.349268
 20
89.438792000000007
 30
0.0
 40
0.455211
 50
170.51658599999999
 51
173.669051
  0
ARC
  5
215
  8
0
 62
     7
 10
154.21729199999999
 20
89.457120999999987
 30
0.0
 40
0.32204
 50
169.86449500000001
 51
174.3211419999999
  0
ARC
  5
216
  8
0
 62
     7
 10
153.10784799999999
 20
89.614395999999999
 30
0.0
 40
0.7987910000000001
 50
352.76469600000001
 51
354.55492199999998
  0
ARC
  5
217
  8
0
 62
     7
 10
153.566868
 20
89.617590000000007
 30
0.0
 40
0.3453219999999999
 50
346.77659299999999
 51
350.91408999999999
  0
ARC
  5
218
  8
0
 62
     7
 10
154.36151899999999
 20
89.486308999999991
 30
0.0
 40
0.4601080000000001
 50
167.292823
 51
170.39782099999999
  0
ARC
  5
219
  8
0
 62
     7
 10
154.208325
 20
89.533745999999994
 30
0.0
 40
0.300495
 50
164.909279
 51
169.69151500000001
  0
ARC
  5
21A
  8
0
 62
     7
 10
155.02874399999999
 20
89.374565000000004
 30
0.0
 40
1.1356440000000001
 50
166.66787099999999
 51
167.93292299999999
  0
ARC
  5
21B
  8
0
 62
     7
 10
153.67519999999999
 20
89.721354000000005
 30
0.0
 40
0.262613
 50
341.13460199999997
 51
346.53640300000001
  0
ARC
  5
21C
  8
0
 62
     7
 10
152.546818
 20
90.074189000000004
 30
0.0
 40
1.4443749999999991
 50
343.344607
 51
344.3263980000001
  0
ARC
  5
21D
  8
0
 62
     7
 10
155.38108700000001
 20
89.195183
 30
0.0
 40
1.524108999999999
 50
160.34789499999999
 51
161.29405399999999
  0
ARC
  5
21E
  8
0
 62
     7
 10
173.78521799999999
 20
82.820392999999996
 30
0.0
 40
21.000954
 50
160.786642
 51
160.85530700000001
  0
ARC
  5
21F
  8
0
 62
     7
 10
153.47516999999999
 20
89.945198000000005
 30
0.0
 40
0.524362
 50
335.95254799999998
 51
338.68633799999998
  0
ARC
  5
220
  8
0
 62
     7
 10
152.94652400000001
 20
90.162598999999986
 30
0.0
 40
1.09592
 50
338.14354100000003
 51
339.43801100000002
  0
LINE
  5
221
  8
0
 62
     7
 10
154.04599999999999
 20
90.134299999999996
 30
0.0
 11
154.04599999999999
 21
91.944699999999997
 31
0.0
  0
LINE
  5
222
  8
0
 62
     7
 10
154.04599999999999
 20
90.134299999999996
 30
0.0
 11
154.04599999999999
 21
91.944699999999997
 31
0.0
  0
LINE
  5
223
  8
0
 62
     7
 10
152.09399999999999
 20
86.393900000000002
 30
0.0
 11
152.56800000000001
 21
86.834199999999996
 31
0.0
  0
ARC
  5
224
  8
0
 62
     7
 10
152.85775799999999
 20
85.583241000000001
 30
0.0
 40
1.1135319999999991
 50
133.280809
 51
179.23679300000001
  0
ARC
  5
225
  8
0
 62
     7
 10
149.62867700000001
 20
89.965718999999993
 30
0.0
 40
4.2946980000000003
 50
313.18366400000002
 51
353.62677300000001
  0
LINE
  5
226
  8
0
 62
     7
 10
151.68700000000001
 20
78.589699999999993
 30
0.0
 11
151.744
 21
85.598100000000002
 31
0.0
  0
ARC
  5
227
  8
0
 62
     7
 10
149.629807
 20
92.516261000000014
 30
0.0
 40
4.2921259999999997
 50
1.599972999999999
 51
40.172139000000001
  0
ARC
  5
228
  8
0
 62
     7
 10
153.092759
 20
116.361886
 30
0.0
 40
1.1390199999999999
 50
184.02133000000001
 51
266.18382700000001
  0
LINE
  5
229
  8
0
 62
     7
 10
151.94499999999999
 20
107.39400000000001
 30
0.0
 11
151.94499999999999
 21
116.577
 31
0.0
  0
LINE
  5
22A
  8
0
 62
     7
 10
149.346
 20
170.84
 30
0.0
 11
149.346
 21
111.691
 31
0.0
  0
LINE
  5
22B
  8
0
 62
     7
 10
150.846
 20
111.691
 30
0.0
 11
150.846
 21
164.358
 31
0.0
  0
LINE
  5
22C
  8
0
 62
     7
 10
140.346
 20
111.691
 30
0.0
 11
140.346
 21
171.09100000000001
 31
0.0
  0
LINE
  5
22D
  8
0
 62
     7
 10
140.346
 20
111.691
 30
0.0
 11
140.346
 21
171.09100000000001
 31
0.0
  0
ARC
  5
22E
  8
0
 62
     7
 10
152.34433200000001
 20
67.401786999999999
 30
0.0
 40
1.138916
 50
1.726608999999999
 51
82.239831999999993
  0
LINE
  5
22F
  8
0
 62
     7
 10
152.31200000000001
 20
68.549899999999994
 30
0.0
 11
152.49799999999999
 21
68.530299999999997
 31
0.0
  0
ARC
  5
230
  8
0
 62
     7
 10
152.47219799999999
 20
69.681115000000005
 30
0.0
 40
1.142480999999999
 50
177.381586
 51
261.94348000000002
  0
ARC
  5
231
  8
0
 62
     7
 10
153.15108599999999
 20
63.056091000000002
 30
0.0
 40
0.8952659999999999
 50
359.94888500000002
 51
23.415206000000001
  0
ARC
  5
232
  8
0
 62
     7
 10
153.15108599999999
 20
63.056091000000002
 30
0.0
 40
0.8952659999999999
 50
359.94888500000002
 51
23.415206000000001
  0
ARC
  5
233
  8
0
 62
     7
 10
149.66003499999999
 20
63.241326000000001
 30
0.0
 40
4.2616509999999996
 50
6.1908829999999986
 51
26.233701000000011
  0
LINE
  5
234
  8
0
 62
     7
 10
153.483
 20
65.125100000000003
 30
0.0
 11
153.483
 21
67.436099999999996
 31
0.0
  0
ARC
  5
235
  8
0
 62
     7
 10
150.01713599999999
 20
59.050263000000001
 30
0.0
 40
0.8291459999999998
 50
275.47045400000002
 51
358.124505
  0
LINE
  5
236
  8
0
 62
     7
 10
149.346
 20
52.718600000000002
 30
0.0
 11
149.346
 21
52.364400000000003
 31
0.0
  0
LINE
  5
237
  8
0
 62
     7
 10
149.346
 20
52.364400000000003
 30
0.0
 11
149.346
 21
52.718600000000002
 31
0.0
  0
LINE
  5
238
  8
0
 62
     7
 10
154.596
 20
61.7958
 30
0.0
 11
154.596
 21
59.399299999999997
 31
0.0
  0
LINE
  5
239
  8
0
 62
     7
 10
154.596
 20
59.399299999999997
 30
0.0
 11
154.596
 21
61.7958
 31
0.0
  0
LINE
  5
23A
  8
0
 62
     7
 10
149.346
 20
52.541499999999999
 30
0.0
 11
149.346
 21
111.691
 31
0.0
  0
LINE
  5
23B
  8
0
 62
     7
 10
140.346
 20
111.691
 30
0.0
 11
140.346
 21
52.289999999999999
 31
0.0
  0
LINE
  5
23C
  8
0
 62
     7
 10
140.346
 20
111.691
 30
0.0
 11
140.346
 21
52.289999999999999
 31
0.0
  0
LINE
  5
23D
  8
0
 62
     7
 10
150.846
 20
111.691
 30
0.0
 11
150.846
 21
59.023099999999992
 31
0.0
  0
ARC
  5
23E
  8
0
 62
     7
 10
156.13257400000001
 20
218.049297
 30
0.0
 40
0.213922
 50
277.44043799999997
 51
357.626689
  0
ARC
  5
23F
  8
0
 62
     7
 10
32.783887999999997
 20
229.940776
 30
0.0
 40
121.39884000000001
 50
350.45363300000002
 51
354.24535800000001
  0
ARC
  5
240
  8
0
 62
     7
 10
141.07078300000001
 20
218.89510000000001
 30
0.0
 40
16.783204000000001
 50
299.79337299999997
 51
308.38779699999998
  0
ARC
  5
241
  8
0
 62
     7
 10
151.03801299999989
 20
206.440371
 30
0.0
 40
0.8350989999999999
 50
302.99918100000002
 51
348.362616
  0
ARC
  5
242
  8
0
 62
     7
 10
16.177482999999999
 20
232.79923500000001
 30
0.0
 40
138.24794499999999
 50
348.93764599999997
 51
350.30735700000002
  0
ARC
  5
243
  8
0
 62
     7
 10
152.07744600000001
 20
209.54561799999999
 30
0.0
 40
0.375162
 50
356.60774900000001
 51
19.726718999999999
  0
ARC
  5
244
  8
0
 62
     7
 10
151.311612
 20
209.15060600000001
 30
0.0
 40
1.233970999999999
 50
25.007351
 51
33.638672
  0
ARC
  5
245
  8
0
 62
     7
 10
153.30252200000001
 20
210.363798
 30
0.0
 40
1.099534
 50
178.83896200000001
 51
208.79550900000001
  0
ARC
  5
246
  8
0
 62
     7
 10
177.82387600000001
 20
207.06585000000001
 30
0.0
 40
25.834904000000002
 50
170.50263100000001
 51
172.616072
  0
ARC
  5
247
  8
0
 62
     7
 10
151.92128799999989
 20
211.407285
 30
0.0
 40
0.4296870000000001
 50
351.13446900000002
 51
77.105266
  0
LINE
  5
248
  8
0
 62
     7
 10
152.346
 20
211.34100000000001
 30
0.0
 11
152.34299999999999
 21
211.32900000000001
 31
0.0
  0
ARC
  5
249
  8
0
 62
     7
 10
152.349334
 20
212.61933099999999
 30
0.0
 40
0.859448
 50
173.009244
 51
248.454748
  0
ARC
  5
24A
  8
0
 62
     7
 10
108.420047
 20
219.63704100000001
 30
0.0
 40
43.627549999999992
 50
350.85880300000002
 51
356.31165900000002
  0
ARC
  5
24B
  8
0
 62
     7
 10
153.07737399999999
 20
216.613686
 30
0.0
 40
1.1382289999999999
 50
93.598884999999996
 51
169.018314
  0
LINE
  5
24C
  8
0
 62
     7
 10
153.006
 20
217.74799999999999
 30
0.0
 11
156.16
 21
217.83699999999999
 31
0.0
  0
ARC
  5
24D
  8
0
 62
     7
 10
156.13925499999999
 20
218.04715300000001
 30
0.0
 40
0.207015
 50
273.91377199999999
 51
355.4668299999999
  0
LINE
  5
24E
  8
0
 62
     7
 10
156.346
 20
224.517
 30
0.0
 11
156.346
 21
218.03999999999999
 31
0.0
  0
ARC
  5
24F
  8
0
 62
     7
 10
156.13277600000001
 20
224.50858500000001
 30
0.0
 40
0.213712
 50
2.3259620000000001
 51
82.606910999999997
  0
ARC
  5
250
  8
0
 62
     7
 10
155.986839
 20
225.844236
 30
0.0
 40
1.1702699999999999
 50
240.269858
 51
253.78472400000001
  0
ARC
  5
251
  8
0
 62
     7
 10
155.981346
 20
225.80397400000001
 30
0.0
 40
1.1331180000000001
 50
199.59222299999999
 51
241.51532599999999
  0
LINE
  5
252
  8
0
 62
     7
 10
154.762
 20
226.03800000000001
 30
0.0
 11
154.916
 21
225.42500000000001
 31
0.0
  0
ARC
  5
253
  8
0
 62
     7
 10
144.010501
 20
223.376217
 30
0.0
 40
11.076314999999999
 50
13.904662
 51
34.930700999999999
  0
ARC
  5
254
  8
0
 62
     7
 10
144.62664599999999
 20
223.48029199999999
 30
0.0
 40
10.512866000000001
 50
35.702413999999997
 51
62.986185999999996
  0
ARC
  5
255
  8
0
 62
     7
 10
-316.941712
 20
245.50692599999999
 30
0.0
 40
471.53777400000001
 50
357.82107400000001
 51
359.91176300000001
  0
LINE
  5
256
  8
0
 62
     7
 10
149.37700000000001
 20
197.31100000000001
 30
0.0
 11
149.37700000000001
 21
244.779
 31
0.0
  0
ARC
  5
257
  8
0
 62
     7
 10
148.86796699999999
 20
197.388924
 30
0.0
 40
0.514779
 50
277.42453499999999
 51
351.31231200000002
  0
ARC
  5
258
  8
0
 62
     7
 10
124.831973
 20
464.12915500000003
 30
0.0
 40
268.334858
 50
273.44190800000001
 51
275.15384900000009
  0
ARC
  5
259
  8
0
 62
     7
 10
140.97768400000001
 20
196.90054000000001
 30
0.0
 40
0.6232910000000002
 50
189.16248200000001
 51
266.63741499999998
  0
ARC
  5
25A
  8
0
 62
     7
 10
209.697385
 20
199.47504499999999
 30
0.0
 40
69.386548000000005
 50
178.042663
 51
182.20784399999999
  0
LINE
  5
25B
  8
0
 62
     7
 10
140.346
 20
244.78
 30
0.0
 11
140.351
 21
201.845
 31
0.0
  0
LINE
  5
25C
  8
0
 62
     7
 10
154.596
 20
244.779
 30
0.0
 11
140.346
 21
244.78
 31
0.0
  0
LINE
  5
25D
  8
0
 62
     7
 10
67.656899999999993
 20
168.94200000000001
 30
0.0
 11
88.657000000000025
 21
168.94200000000001
 31
0.0
  0
ARC
  5
25E
  8
0
 62
     7
 10
67.657021999999984
 20
163.94219200000001
 30
0.0
 40
5.000157999999999
 50
90.000986999999981
 51
180.0009969999999
  0
ARC
  5
25F
  8
0
 62
     7
 10
98.826527000000013
 20
170.8616899999999
 30
0.0
 40
0.8311159999999999
 50
2.109726999999999
 51
87.890263000000004
  0
ARC
  5
260
  8
0
 62
     7
 10
88.657076999999987
 20
163.94201899999999
 30
0.0
 40
4.9999859999999989
 50
0.000997
 51
90.000967000000017
  0
LINE
  5
261
  8
0
 62
     7
 10
51.156700000000001
 20
171.69200000000001
 30
0.0
 11
98.857100000000017
 21
171.69200000000001
 31
0.0
  0
LINE
  5
262
  8
0
 62
     7
 10
88.657000000000025
 20
54.441499999999998
 30
0.0
 11
67.656899999999993
 21
54.441499999999998
 31
0.0
  0
ARC
  5
263
  8
0
 62
     7
 10
67.656847999999997
 20
59.441450000000003
 30
0.0
 40
4.9999839999999987
 50
180.0009969999999
 51
270.00100700000002
  0
ARC
  5
264
  8
0
 62
     7
 10
98.826527000000013
 20
52.521780999999997
 30
0.0
 40
0.8311159999999999
 50
272.109737
 51
357.89027299999998
  0
ARC
  5
265
  8
0
 62
     7
 10
88.656905000000009
 20
59.441279000000002
 30
0.0
 40
5.000157999999999
 50
270.00100700000002
 51
0.000977
  0
LINE
  5
266
  8
0
 62
     7
 10
98.857100000000017
 20
51.691200000000002
 30
0.0
 11
51.156700000000001
 21
51.691200000000002
 31
0.0
  0
LINE
  5
267
  8
0
 62
     7
 10
99.657100000000014
 20
170.892
 30
0.0
 11
99.657100000000014
 21
52.491199999999999
 31
0.0
  0
LINE
  5
268
  8
0
 62
     7
 10
93.657099999999986
 20
163.94200000000001
 30
0.0
 11
93.657099999999986
 21
59.441400000000002
 31
0.0
  0
LINE
  5
269
  8
0
 62
     7
 10
62.6569
 20
59.441400000000002
 30
0.0
 11
62.6569
 21
163.94200000000001
 31
0.0
  0
LINE
  5
26A
  8
0
 62
     7
 10
51.156700000000001
 20
51.691200000000002
 30
0.0
 11
51.156700000000001
 21
171.69200000000001
 31
0.0
  0
LINE
  5
26B
  8
0
  6
AIGENLINE001
 62
     7
 10
148.678
 20
69.691299999999984
 30
0.0
 11
143.15600000000001
 21
69.691299999999984
 31
0.0
  0
LINE
  5
26C
  8
0
  6
AIGENLINE001
 62
     7
 10
138.434
 20
111.69199999999999
 30
0.0
 11
159.01300000000001
 21
111.69199999999999
 31
0.0
  0
LINE
  5
26D
  8
0
  6
AIGENLINE001
 62
     7
 10
145.846
 20
66.860799999999998
 30
0.0
 11
145.846
 21
72.885900000000007
 31
0.0
  0
LINE
  5
26E
  8
0
  6
AIGENLINE002
 62
     7
 10
149.40100000000001
 20
232.845
 30
0.0
 11
149.529
 21
232.77500000000001
 31
0.0
  0
LINE
  5
26F
  8
0
  6
AIGENLINE001
 62
     7
 10
146.68600000000001
 20
221.27699999999999
 30
0.0
 11
158.80500000000001
 21
221.27699999999999
 31
0.0
  0
LINE
  5
270
  8
0
  6
AIGENLINE001
 62
     7
 10
137.92699999999999
 20
238.51300000000001
 30
0.0
 11
143.202
 21
238.51300000000001
 31
0.0
  0
ARC
  5
271
  8
0
  6
AIGENLINE002
 62
     7
 10
147.1691129999999
 20
209.932714
 30
0.0
 40
2.246642
 50
332.029133
 51
335.25130300000001
  0
ARC
  5
272
  8
0
  6
AIGENLINE002
 62
     7
 10
145.41823600000001
 20
210.859025
 30
0.0
 40
4.2274539999999989
 50
328.90340200000003
 51
332.07109400000002
  0
ARC
  5
273
  8
0
  6
AIGENLINE002
 62
     7
 10
142.538445
 20
212.589349
 30
0.0
 40
7.5870959999999998
 50
326.51017899999999
 51
328.94636800000012
  0
ARC
  5
274
  8
0
  6
AIGENLINE002
 62
     7
 10
137.46581599999999
 20
215.948993
 30
0.0
 40
13.671402
 50
322.86307499999998
 51
326.49815799999999
  0
ARC
  5
275
  8
0
  6
AIGENLINE002
 62
     7
 10
133.72828000000001
 20
218.67156199999999
 30
0.0
 40
18.294823999999998
 50
318.59586800000011
 51
323.13245499999999
  0
ARC
  5
276
  8
0
  6
AIGENLINE002
 62
     7
 10
142.087682
 20
211.35162
 30
0.0
 40
7.1836839999999986
 50
315.25510400000002
 51
318.29115200000001
  0
LINE
  5
277
  8
0
  6
AIGENLINE002
 62
     7
 10
147.19
 20
206.29499999999999
 30
0.0
 11
146.928
 21
206.05600000000001
 31
0.0
  0
ARC
  5
278
  8
0
  6
AIGENLINE002
 62
     7
 10
135.87715299999999
 20
218.81633199999999
 30
0.0
 40
16.880223000000001
 50
305.33352500000001
 51
310.89428599999991
  0
ARC
  5
279
  8
0
  6
AIGENLINE002
 62
     7
 10
137.64740499999999
 20
216.56311500000001
 30
0.0
 40
14.018962
 50
303.46568600000001
 51
304.75701500000002
  0
ARC
  5
27A
  8
0
  6
AIGENLINE002
 62
     7
 10
126.853246
 20
232.79619600000001
 30
0.0
 40
33.513207000000001
 50
299.18072999999998
 51
303.55652800000001
  0
ARC
  5
27B
  8
0
  6
AIGENLINE002
 62
     7
 10
136.69844499999999
 20
215.37441000000001
 30
0.0
 40
13.502682999999999
 50
297.22581700000001
 51
298.75029899999998
  0
ARC
  5
27C
  8
0
  6
AIGENLINE002
 62
     7
 10
118.56066800000001
 20
248.820899
 30
0.0
 40
51.548283000000012
 50
295.4697680000001
 51
298.14459699999998
  0
ARC
  5
27D
  8
0
  6
AIGENLINE002
 62
     7
 10
140.55181899999999
 20
213.31694999999999
 30
0.0
 40
9.6776769999999992
 50
333.45627100000002
 51
341.465755
  0
ARC
  5
27E
  8
0
  6
AIGENLINE002
 62
     7
 10
133.52040500000001
 20
215.65839900000009
 30
0.0
 40
17.087471000000001
 50
344.45087999999998
 51
351.48068000000001
  0
ARC
  5
27F
  8
0
  6
AIGENLINE002
 62
     7
 10
102.701042
 20
220.28318200000001
 30
0.0
 40
48.251900999999997
 50
351.47108200000002
 51
356.13289200000003
  0
LINE
  5
280
  8
0
  6
AIGENLINE002
 62
     7
 10
151.221
 20
217.89400000000001
 30
0.0
 11
152.06299999999999
 21
218.82900000000001
 31
0.0
  0
LINE
  5
281
  8
0
  6
AIGENLINE002
 62
     7
 10
156.346
 20
218.929
 30
0.0
 11
152.285
 21
218.929
 31
0.0
  0
LINE
  5
282
  8
0
  6
AIGENLINE002
 62
     7
 10
150.89500000000001
 20
225.15899999999999
 30
0.0
 11
150.89500000000001
 21
217.59299999999999
 31
0.0
  0
LINE
  5
283
  8
0
  6
AIGENLINE002
 62
     7
 10
152.285
 20
218.929
 30
0.0
 11
155.846
 21
218.929
 31
0.0
  0
LINE
  5
284
  8
0
  6
AIGENLINE002
 62
     7
 10
152.285
 20
223.62899999999999
 30
0.0
 11
152.285
 21
218.929
 31
0.0
  0
LINE
  5
285
  8
0
  6
AIGENLINE002
 62
     7
 10
156.346
 20
223.62899999999999
 30
0.0
 11
152.285
 21
223.62899999999999
 31
0.0
  0
LINE
  5
286
  8
0
  6
AIGENLINE002
 62
     7
 10
151.221
 20
224.66399999999999
 30
0.0
 11
152.06299999999999
 21
223.72800000000001
 31
0.0
  0
ARC
  5
287
  8
0
  6
AIGENLINE002
 62
     7
 10
152.703113
 20
225.99035699999999
 30
0.0
 40
1.990313999999999
 50
206.213638
 51
222.94387900000001
  0
ARC
  5
288
  8
0
  6
AIGENLINE002
 62
     7
 10
156.550521
 20
227.292374
 30
0.0
 40
6.0422019999999987
 50
188.20900399999999
 51
200.91603699999999
  0
ARC
  5
289
  8
0
  6
AIGENLINE002
 62
     7
 10
128.144373
 20
197.699736
 30
0.0
 40
37.622109999999999
 50
57.387163000000001
 51
69.999665000000007
  0
ARC
  5
28B
  8
0
  6
AIGENLINE002
 62
     7
 10
145.95447200000001
 20
225.33955700000001
 30
0.0
 40
4.7421649999999991
 50
12.550660000000001
 51
58.656905999999999
  0
LINE
  5
28C
  8
0
  6
AIGENLINE002
 62
     7
 10
140.346
 20
244.78
 30
0.0
 11
140.613
 21
233.59399999999999
 31
0.0
  0
LINE
  5
28D
  8
0
  6
AIGENLINE001
 62
     7
 10
60.656999999999989
 20
139.69200000000001
 30
0.0
 11
53.656799999999997
 21
139.69200000000001
 31
0.0
  0
LINE
  5
28E
  8
0
  6
AIGENLINE002
 62
     7
 10
146.947
 20
70.191500000000005
 30
0.0
 11
146.947
 21
69.191400000000002
 31
0.0
  0
LINE
  5
28F
  8
0
  6
AIGENLINE002
 62
     7
 10
144.74700000000001
 20
70.191500000000005
 30
0.0
 11
144.74700000000001
 21
69.191400000000002
 31
0.0
  0
ARC
  5
290
  8
0
 62
     7
 10
57.15690699999999
 20
139.691926
 30
0.0
 40
1.7501199999999999
 50
90.0
 51
179.99996999999999
  0
ARC
  5
291
  8
0
 62
     7
 10
57.224129000000012
 20
139.75914800000001
 30
0.0
 40
1.818584999999999
 50
182.11838299999999
 51
267.88164599999999
  0
ARC
  5
292
  8
0
 62
     7
 10
57.090071999999999
 20
139.75858199999999
 30
0.0
 40
1.818004999999999
 50
272.10684700000002
 51
357.89880199999999
  0
ARC
  5
293
  8
0
 62
     7
 10
57.156820999999987
 20
139.69201200000001
 30
0.0
 40
1.7500340000000001
 50
359.99718999999999
 51
89.997159999999994
  0
TEXT
  5
294
  8
_________2
 62
     7
 10
90.092336166666669
 20
13.2182
 30
0.0
 40
3.6545800000000002
  1
1 ： 10
 41
0.5
 72
     1
 11
93.960099999999997
 21
13.2182
 31
0.0
  0
LINE
  5
295
  8
_________2
 62
     7
 10
205.30099999999999
 20
127.41200000000001
 30
0.0
 11
183.55000000000001
 21
127.41200000000001
 31
0.0
  0
LINE
  5
296
  8
_________2
 62
     7
 10
100.3
 20
-4.0903900000000002
 30
0.0
 11
100.3
 21
-21.070699999999999
 31
0.0
  0
LINE
  5
297
  8
_________2
 62
     7
 10
100.3
 20
275.93099999999998
 30
0.0
 11
100.3
 21
258.911
 31
0.0
  0
LINE
  5
298
  8
_________2
 62
     7
 10
17.049499999999998
 20
127.41200000000001
 30
0.0
 11
-4.70052
 21
127.41200000000001
 31
0.0
  0
LINE
  5
299
  8
_________2
 62
     7
 10
76.741399999999999
 20
29.805099999999999
 30
0.0
 11
74.554699999999997
 21
29.805099999999999
 31
0.0
  0
LINE
  5
29A
  8
_________2
 62
     7
 10
77.233999999999995
 20
29.805099999999999
 30
0.0
 11
76.981800000000007
 21
29.805099999999999
 31
0.0
  0
LINE
  5
29B
  8
_________2
 62
     7
 10
77.726299999999995
 20
29.805099999999999
 30
0.0
 11
80.651600000000002
 21
29.805099999999999
 31
0.0
  0
LINE
  5
29C
  8
_________2
 62
     7
 10
77.233999999999995
 20
29.805099999999999
 30
0.0
 11
77.485900000000001
 21
29.805099999999999
 31
0.0
  0
LINE
  5
29D
  8
_________2
 62
     7
 10
70.837500000000006
 20
29.805099999999999
 30
0.0
 11
68.650499999999994
 21
29.805099999999999
 31
0.0
  0
LINE
  5
29E
  8
_________2
 62
     7
 10
71.329800000000006
 20
29.805099999999999
 30
0.0
 11
71.0779
 21
29.805099999999999
 31
0.0
  0
LINE
  5
29F
  8
_________2
 62
     7
 10
71.329800000000006
 20
30.2974
 30
0.0
 11
71.329800000000006
 21
32.484400000000001
 31
0.0
  0
LINE
  5
2A0
  8
_________2
 62
     7
 10
71.329800000000006
 20
29.805099999999999
 30
0.0
 11
71.329800000000006
 21
30.057600000000001
 31
0.0
  0
LINE
  5
2A1
  8
_________2
 62
     7
 10
71.822400000000002
 20
29.805099999999999
 30
0.0
 11
74.009
 21
29.805099999999999
 31
0.0
  0
LINE
  5
2A2
  8
_________2
 62
     7
 10
71.329800000000006
 20
29.805099999999999
 30
0.0
 11
71.581999999999994
 21
29.805099999999999
 31
0.0
  0
LINE
  5
2A3
  8
_________2
 62
     7
 10
71.329800000000006
 20
29.312799999999999
 30
0.0
 11
71.329800000000006
 21
27.126200000000001
 31
0.0
  0
LINE
  5
2A4
  8
_________2
 62
     7
 10
71.329800000000006
 20
29.805099999999999
 30
0.0
 11
71.329800000000006
 21
29.5532
 31
0.0
  0
LINE
  5
2A5
  8
_________2
 62
     7
 10
75.040899999999993
 20
28.585899999999999
 30
0.0
 11
80.218500000000006
 21
27.720400000000001
 31
0.0
  0
LINE
  5
2A6
  8
_________2
 62
     7
 10
75.040899999999993
 20
31.024699999999999
 30
0.0
 11
80.218500000000006
 21
31.8901
 31
0.0
  0
LINE
  5
2A7
  8
_________2
 62
     7
 10
80.218500000000006
 20
27.720400000000001
 30
0.0
 11
80.218500000000006
 21
31.8901
 31
0.0
  0
LINE
  5
2A8
  8
_________2
 62
     7
 10
75.040899999999993
 20
28.585899999999999
 30
0.0
 11
75.040899999999993
 21
31.024699999999999
 31
0.0
  0
ARC
  5
2A9
  8
_________2
 62
     7
 10
71.283201000000005
 20
29.758156
 30
0.0
 40
1.2673589999999999
 50
2.122214
 51
87.893958999999995
  0
ARC
  5
2AA
  8
_________2
 62
     7
 10
71.376300000000001
 20
29.758562000000001
 30
0.0
 40
1.2669509999999991
 50
92.104485999999994
 51
177.89548500000001
  0
ARC
  5
2AB
  8
_________2
 62
     7
 10
71.376343999999989
 20
29.852014
 30
0.0
 40
1.2670099999999991
 50
182.12258499999999
 51
267.89363300000002
  0
ARC
  5
2AC
  8
_________2
 62
     7
 10
71.282900999999995
 20
29.852677000000011
 30
0.0
 40
1.267684
 50
272.11907200000002
 51
357.848567
  0
ARC
  5
2AD
  8
_________2
 62
     7
 10
71.249426999999997
 20
29.725097000000002
 30
0.0
 40
2.1664659999999989
 50
2.1159629999999998
 51
87.874558999999991
  0
ARC
  5
2AE
  8
_________2
 62
     7
 10
71.409410999999992
 20
29.725809000000002
 30
0.0
 40
2.1657280000000001
 50
92.107296999999988
 51
177.902142
  0
ARC
  5
2AF
  8
_________2
 62
     7
 10
71.409789000000004
 20
29.885100999999999
 30
0.0
 40
2.1661329999999999
 50
182.116929
 51
267.88310000000001
  0
ARC
  5
2B0
  8
_________2
 62
     7
 10
71.249769999999998
 20
29.885092
 30
0.0
 40
2.1661229999999989
 50
272.11667999999997
 51
357.88333
  0
TEXT
  5
2B1
  8
_________2
 62
     7
 10
104.605
 20
1.6794899999999999
 30
0.0
 40
3.0923400000000001
  1
図番
 41
0.5
  0
LINE
  5
2B2
  8
_________2
 62
     7
 10
103.55
 20
5.9087199999999989
 30
0.0
 11
183.55099999999999
 21
5.9087199999999989
 31
0.0
  0
TEXT
  5
2B3
  8
_________2
 62
     7
 10
104.605
 20
11.679600000000001
 30
0.0
 40
3.0923400000000001
  1
品番
 41
0.5
  0
TEXT
  5
2B4
  8
_________2
 62
     7
 10
104.605
 20
31.8184
 30
0.0
 40
3.0923400000000001
  1
名称
 41
0.5
  0
TEXT
  5
2B5
  8
_________2
 62
     7
 10
91.84545833333334
 20
26.822299999999998
 30
0.0
 40
3.6545800000000002
  1
mm
 41
0.5
 72
     1
 11
93.368200000000016
 21
26.822299999999998
 31
0.0
  0
TEXT
  5
2B6
  8
_________2
 62
     7
 10
85.643199999999993
 20
31.8184
 30
0.0
 40
3.0923400000000001
  1
単位
 41
0.5
  0
TEXT
  5
2B7
  8
_________2
 62
     7
 10
85.643199999999993
 20
19.411200000000001
 30
0.0
 40
3.0923400000000001
  1
尺度
 41
0.5
  0
TEXT
  5
2B8
  8
_________2
 62
     7
 10
135.67859999999999
 20
9.1082000000000001
 30
0.0
 40
3.9357000000000002
  1
GB124020N
 41
0.5
 72
     1
 11
143.55000000000001
 21
9.1082000000000001
 31
0.0
  0
TEXT
  5
2B9
  8
_________2
 62
     7
 10
135.67859999999999
 20
-0.8919409999999999
 30
0.0
 40
3.9357000000000002
  1
GB124020N
 41
0.5
 72
     1
 11
143.55000000000001
 21
-0.8919409999999999
 31
0.0
  0
TEXT
  5
2BA
  8
_________2
 62
     7
 10
24.5871
 20
0.707627
 30
0.0
 40
3.9357000000000002
  1
実容量：10.0L、重量：35.0kg、オーバーフロー付き
 41
0.5
  0
TEXT
  5
2BB
  8
_________2
 62
     7
 10
109.179
 20
24.226400000000002
 30
0.0
 40
3.9357000000000002
  1
アイコン　洗面器
 41
0.5
  0
TEXT
  5
2BC
  8
_________2
 62
     7
 10
39.425300333333333
 20
13.603400000000001
 30
0.0
 40
3.6545800000000002
  1
井田
 41
0.5
 72
     1
 11
41.313499999999998
 21
13.603400000000001
 31
0.0
  0
TEXT
  5
2BD
  8
_________2
 62
     7
 10
20.79039066666666
 20
13.603400000000001
 30
0.0
 40
3.6545800000000002
  1
恋塚
 41
0.5
 72
     1
 11
22.7395
 21
13.603400000000001
 31
0.0
  0
TEXT
  5
2BE
  8
_________2
 62
     7
 10
67.785799999999995
 20
13.2182
 30
0.0
 40
3.6545800000000002
  1
19.01.29
 41
0.5
  0
TEXT
  5
2BF
  8
_________2
 62
     7
 10
66.593100000000007
 20
19.411200000000001
 30
0.0
 40
3.0923400000000001
  1
日付
 41
0.5
  0
TEXT
  5
2C0
  8
_________2
 62
     7
 10
29.639399999999998
 20
19.411200000000001
 30
0.0
 40
3.0923400000000001
  1
検図
 41
0.5
  0
TEXT
  5
2C1
  8
_________2
 62
     7
 10
18.0214
 20
5.2117699999999987
 30
0.0
 40
3.0923400000000001
  1
備考
 41
0.5
  0
TEXT
  5
2C2
  8
_________2
 62
     7
 10
18.0214
 20
19.411200000000001
 30
0.0
 40
3.0923400000000001
  1
製図
 41
0.5
  0
TEXT
  5
2C3
  8
_________2
 62
     7
 10
23.788865333333341
 20
27.936800000000002
 30
0.0
 40
4.4979399999999989
  1
セラトレーディング株式会社
 41
0.5
 72
     1
 11
41.180900000000001
 21
27.936800000000002
 31
0.0
  0
LINE
  5
2C4
  8
_________2
 62
     7
 10
183.55099999999999
 20
-4.0910799999999998
 30
0.0
 11
17.049499999999998
 21
-4.0910799999999998
 31
0.0
  0
LINE
  5
2C5
  8
_________2
 62
     7
 10
17.049499999999998
 20
-4.0910799999999998
 30
0.0
 11
17.049499999999998
 21
258.911
 31
0.0
  0
LINE
  5
2C6
  8
_________2
 62
     7
 10
17.049499999999998
 20
258.911
 30
0.0
 11
183.55099999999999
 21
258.911
 31
0.0
  0
LINE
  5
2C7
  8
_________2
 62
     7
 10
183.55099999999999
 20
258.911
 30
0.0
 11
183.55099999999999
 21
-4.0910799999999998
 31
0.0
  0
LINE
  5
2C8
  8
_________2
 62
     7
 10
65.549899999999994
 20
9.4096499999999992
 30
0.0
 11
65.549899999999994
 21
35.909500000000001
 31
0.0
  0
LINE
  5
2C9
  8
_________2
 62
     7
 10
84.550099999999986
 20
9.4096499999999992
 30
0.0
 11
84.550099999999986
 21
35.909500000000001
 31
0.0
  0
LINE
  5
2CA
  8
_________2
 62
     7
 10
103.55
 20
-4.0910799999999998
 30
0.0
 11
103.55
 21
35.909500000000001
 31
0.0
  0
LINE
  5
2CB
  8
_________2
 62
     7
 10
28.549700000000001
 20
9.4096499999999992
 30
0.0
 11
28.549700000000001
 21
23.409199999999998
 31
0.0
  0
LINE
  5
2CC
  8
_________2
 62
     7
 10
17.049499999999998
 20
9.4096499999999992
 30
0.0
 11
103.55
 21
9.4096499999999992
 31
0.0
  0
LINE
  5
2CD
  8
_________2
 62
     7
 10
17.049499999999998
 20
23.409199999999998
 30
0.0
 11
103.55
 21
23.409199999999998
 31
0.0
  0
LINE
  5
2CE
  8
_________2
 62
     7
 10
103.55
 20
15.9092
 30
0.0
 11
183.55099999999999
 21
15.9092
 31
0.0
  0
LINE
  5
2CF
  8
_________2
 62
     7
 10
17.049499999999998
 20
35.909500000000001
 30
0.0
 11
183.55099999999999
 21
35.909500000000001
 31
0.0
  0
ENDSEC
  0
EOF
