  0
SECTION
  2
HEADER
  9
$ACADVER
  1
AC1009
  9
$INSBASE
 10
0.0
 20
0.0
 30
0.0
  9
$EXTMIN
 10
-4.70052
 20
-21.070699999999999
 30
0.0
  9
$EXTMAX
 10
205.30099999999999
 20
275.93099999999998
 30
0.0
  9
$LIMMIN
 10
0.0
 20
0.0
  9
$LIMMAX
 10
12.0
 20
9.0
  9
$ORTHOMODE
 70
     0
  9
$REGENMODE
 70
     1
  9
$FILLMODE
 70
     1
  9
$QTEXTMODE
 70
     0
  9
$MIRRTEXT
 70
     1
  9
$DRAGMODE
 70
     2
  9
$LTSCALE
 40
1.0
  9
$OSMODE
 70
    37
  9
$ATTMODE
 70
     1
  9
$TEXTSIZE
 40
0.0
  9
$TRACEWID
 40
0.05
  9
$TEXTSTYLE
  7
STANDARD
  9
$CLAYER
  8
0
  9
$CELTYPE
  6
CONTINUOUS
  9
$CECOLOR
 62
   256
  9
$DIMSCALE
 40
1.0
  9
$DIMASZ
 40
0.18
  9
$DIMEXO
 40
0.0625
  9
$DIMDLI
 40
0.38
  9
$DIMRND
 40
0.0
  9
$DIMDLE
 40
0.0
  9
$DIMEXE
 40
0.18
  9
$DIMTP
 40
0.0
  9
$DIMTM
 40
0.0
  9
$DIMTXT
 40
0.18
  9
$DIMCEN
 40
0.09
  9
$DIMTSZ
 40
0.0
  9
$DIMTOL
 70
     0
  9
$DIMLIM
 70
     0
  9
$DIMTIH
 70
     1
  9
$DIMTOH
 70
     1
  9
$DIMSE1
 70
     0
  9
$DIMSE2
 70
     0
  9
$DIMTAD
 70
     0
  9
$DIMZIN
 70
     0
  9
$DIMBLK
  1

  9
$DIMASO
 70
     1
  9
$DIMSHO
 70
     1
  9
$DIMPOST
  1

  9
$DIMAPOST
  1

  9
$DIMALT
 70
     0
  9
$DIMALTD
 70
     2
  9
$DIMALTF
 40
25.399999999999999
  9
$DIMLFAC
 40
1.0
  9
$DIMTOFL
 70
     0
  9
$DIMTVP
 40
0.0
  9
$DIMTIX
 70
     0
  9
$DIMSOXD
 70
     0
  9
$DIMSAH
 70
     0
  9
$DIMBLK1
  1

  9
$DIMBLK2
  1

  9
$DIMSTYLE
  2
STANDARD
  9
$DIMCLRD
 70
     0
  9
$DIMCLRE
 70
     0
  9
$DIMCLRT
 70
     0
  9
$DIMTFAC
 40
1.0
  9
$DIMGAP
 40
0.09
  9
$LUNITS
 70
     2
  9
$LUPREC
 70
     4
  9
$SKETCHINC
 40
0.1
  9
$FILLETRAD
 40
0.0
  9
$AUNITS
 70
     0
  9
$AUPREC
 70
     0
  9
$MENU
  1
.
  9
$ELEVATION
 40
0.0
  9
$PELEVATION
 40
0.0
  9
$THICKNESS
 40
0.0
  9
$LIMCHECK
 70
     0
  9
$BLIPMODE
 70
     0
  9
$CHAMFERA
 40
0.0
  9
$CHAMFERB
 40
0.0
  9
$SKPOLY
 70
     0
  9
$TDCREATE
 40
2444972.375
  9
$TDUPDATE
 40
2458783.2522092708
  9
$TDINDWG
 40
0.0000272801
  9
$TDUSRTIMER
 40
0.0000272801
  9
$USRTIMER
 70
     1
  9
$ANGBASE
 50
0.0
  9
$ANGDIR
 70
     0
  9
$PDMODE
 70
     0
  9
$PDSIZE
 40
0.0
  9
$PLINEWID
 40
0.0
  9
$COORDS
 70
     1
  9
$SPLFRAME
 70
     0
  9
$SPLINETYPE
 70
     6
  9
$SPLINESEGS
 70
     8
  9
$ATTDIA
 70
     1
  9
$ATTREQ
 70
     1
  9
$HANDLING
 70
     1
  9
$HANDSEED
  5
31C
  9
$SURFTAB1
 70
     6
  9
$SURFTAB2
 70
     6
  9
$SURFTYPE
 70
     6
  9
$SURFU
 70
     6
  9
$SURFV
 70
     6
  9
$UCSNAME
  2

  9
$UCSORG
 10
0.0
 20
0.0
 30
0.0
  9
$UCSXDIR
 10
1.0
 20
0.0
 30
0.0
  9
$UCSYDIR
 10
0.0
 20
1.0
 30
0.0
  9
$PUCSNAME
  2

  9
$PUCSORG
 10
0.0
 20
0.0
 30
0.0
  9
$PUCSXDIR
 10
1.0
 20
0.0
 30
0.0
  9
$PUCSYDIR
 10
0.0
 20
1.0
 30
0.0
  9
$USERI1
 70
     0
  9
$USERI2
 70
     0
  9
$USERI3
 70
     0
  9
$USERI4
 70
     0
  9
$USERI5
 70
     0
  9
$USERR1
 40
0.0
  9
$USERR2
 40
0.0
  9
$USERR3
 40
0.0
  9
$USERR4
 40
0.0
  9
$USERR5
 40
0.0
  9
$WORLDVIEW
 70
     1
  9
$SHADEDGE
 70
     3
  9
$SHADEDIF
 70
    70
  9
$TILEMODE
 70
     1
  9
$MAXACTVP
 70
    48
  9
$PLIMCHECK
 70
     0
  9
$PEXTMIN
 10
1.0000000000000000E+020
 20
1.0000000000000000E+020
 30
1.0000000000000000E+020
  9
$PEXTMAX
 10
-1.0000000000000000E+020
 20
-1.0000000000000000E+020
 30
-1.0000000000000000E+020
  9
$PLIMMIN
 10
0.0
 20
0.0
  9
$PLIMMAX
 10
12.0
 20
9.0
  9
$UNITMODE
 70
     0
  9
$VISRETAIN
 70
     1
  9
$PLINEGEN
 70
     0
  9
$PSLTSCALE
 70
     1
  0
ENDSEC
  0
SECTION
  2
TABLES
  0
TABLE
  2
VPORT
 70
     1
  0
VPORT
  2
*ACTIVE
 70
     0
 10
0.0
 20
0.0
 11
1.0
 21
1.0
 12
190.88168206760091
 22
127.4301499999999
 13
0.0
 23
0.0
 14
1.0
 24
1.0
 15
0.0
 25
0.0
 16
0.0
 26
0.0
 36
1.0
 17
0.0
 27
0.0
 37
0.0
 40
280.94862533030818
 41
2.298642533936651
 42
50.0
 43
0.0
 44
0.0
 50
0.0
 51
0.0
 71
     0
 72
   100
 73
     1
 74
     1
 75
     0
 76
     0
 77
     0
 78
     0
  0
ENDTAB
  0
TABLE
  2
LTYPE
 70
     3
  0
LTYPE
  2
CONTINUOUS
 70
     0
  3
Solid line
 72
    65
 73
     0
 40
0.0
  0
LTYPE
  2
AIGENLINE001
 70
     0
  3
generate AI->DXF Converter
 72
    65
 73
     2
 40
1.5522299999999991
 49
0.776115
 49
-0.776115
  0
LTYPE
  2
AIGENLINE002
 70
     0
  3
generate AI->DXF Converter
 72
    65
 73
     2
 40
1.5522299999999991
 49
0.776115
 49
-0.776115
  0
ENDTAB
  0
TABLE
  2
LAYER
 70
     2
  0
LAYER
  2
0
 70
     0
 62
     7
  6
CONTINUOUS
  0
LAYER
  2
_________2
 70
     0
 62
     7
  6
CONTINUOUS
  0
ENDTAB
  0
TABLE
  2
STYLE
 70
     1
  0
STYLE
  2
STANDARD
 70
     0
 40
0.0
 41
0.0
 50
0.0
 71
     0
 42
0.0
  3
TXT
  4
EXTFONT.SHX
  0
ENDTAB
  0
TABLE
  2
VIEW
 70
     0
  0
ENDTAB
  0
TABLE
  2
UCS
 70
     0
  0
ENDTAB
  0
TABLE
  2
APPID
 70
     3
  0
APPID
  2
ACAD
 70
     0
  0
APPID
  2
ACAD_NAV_VCDISPLAY
 70
     0
  0
APPID
  2
ACAD_MLEADERVER
 70
     0
  0
ENDTAB
  0
TABLE
  2
DIMSTYLE
 70
     1
  0
DIMSTYLE
  2
STANDARD
 70
     0
  3

  4

  5

  6

  7

 40
1.0
 41
0.18
 42
0.0625
 43
0.38
 44
0.18
 45
0.0
 46
0.0
 47
0.0
 48
0.0
140
0.18
141
0.09
142
0.0
143
25.399999999999999
144
1.0
145
0.0
146
1.0
147
0.09
 71
     0
 72
     0
 73
     1
 74
     1
 75
     0
 76
     0
 77
     0
 78
     0
170
     0
171
     2
172
     0
173
     0
174
     0
175
     0
176
     0
177
     0
178
     0
  0
ENDTAB
  0
ENDSEC
  0
SECTION
  2
BLOCKS
  0
BLOCK
  8
0
  2
$MODEL_SPACE
 70
     0
 10
0.0
 20
0.0
 30
0.0
  3
$MODEL_SPACE
  1

  0
ENDBLK
  5
1A
  8
0
  0
BLOCK
 67
     1
  8
0
  2
$PAPER_SPACE
 70
     0
 10
0.0
 20
0.0
 30
0.0
  3
$PAPER_SPACE
  1

  0
ENDBLK
  5
17
 67
     1
  8
0
  0
ENDSEC
  0
SECTION
  2
ENTITIES
  0
TEXT
  5
23
  8
0
 62
     7
 10
94.813464236044254
 20
190.40956423604419
 30
0.0
 40
3.0923400000000001
  1
A
 50
45.0
 41
0.5
 72
     1
 11
95.177899999999994
 21
190.774
 31
0.0
  0
TEXT
  5
24
  8
0
 62
     7
 10
56.055864236044258
 20
151.65156423604421
 30
0.0
 40
3.0923400000000001
  1
A
 50
45.0
 41
0.5
 72
     1
 11
56.420299999999997
 21
152.01599999999999
 31
0.0
  0
TEXT
  5
25
  8
0
 62
     7
 10
83.390265885166016
 20
161.07036588516601
 30
0.0
 40
3.0923400000000001
  1
460
 50
45.0
 41
0.5
 72
     1
 11
84.756900000000002
 21
162.43700000000001
 31
0.0
  0
TEXT
  5
26
  8
0
 62
     7
 10
79.474265885166005
 20
164.98636588516601
 30
0.0
 40
3.0923400000000001
  1
280
 50
45.0
 41
0.5
 72
     1
 11
80.840900000000005
 21
166.35299999999989
 31
0.0
  0
TEXT
  5
27
  8
0
 62
     7
 10
30.976138102037218
 20
158.2324834956701
 30
0.0
 40
3.0923400000000001
  1
330
 50
2.06128
 41
0.5
 72
     1
 11
32.907600000000009
 21
158.30199999999999
 31
0.0
  0
TEXT
  5
28
  8
0
 62
     7
 10
38.988966355098917
 20
159.63275236291409
 30
0.0
 40
3.0923400000000001
  1
180
 50
2.06128
 41
0.5
 72
     1
 11
40.6629
 21
159.69300000000001
 31
0.0
  0
TEXT
  5
29
  8
0
 62
     7
 10
28.382166355098921
 20
170.23975236291409
 30
0.0
 40
3.0923400000000001
  1
120
 50
2.06128
 41
0.5
 72
     1
 11
30.056100000000001
 21
170.30000000000001
 31
0.0
  0
TEXT
  5
2A
  8
0
 62
     7
 10
35.438858734691479
 20
172.23165566378009
 30
0.0
 40
3.0923400000000001
  1
45
 50
2.06128
 41
0.5
 72
     1
 11
36.726500000000001
 21
172.27799999999999
 31
0.0
  0
TEXT
  5
2B
  8
0
 62
     7
 10
31.44755873469148
 20
176.2226556637801
 30
0.0
 40
3.0923400000000001
  1
75
 50
2.06128
 41
0.5
 72
     1
 11
32.735199999999999
 21
176.26900000000001
 31
0.0
  0
TEXT
  5
2C
  8
0
 62
     7
 10
75.200756944177044
 20
169.07725694417709
 30
0.0
 40
3.0923400000000001
  1
225
 50
45.0
 41
0.5
 72
     1
 11
76.658500000000004
 21
170.535
 31
0.0
  0
TEXT
  5
2D
  8
0
 62
     7
 10
58.339080000000003
 20
199.761
 30
0.0
 40
3.0923400000000001
  1
%%c35
 41
0.5
 72
     2
 11
62.462200000000003
 21
199.761
 31
0.0
  0
TEXT
  5
2E
  8
0
 62
     7
 10
142.249
 20
190.24898250000001
 30
0.0
 40
3.0923400000000001
  1
105
 50
90.0
 41
0.5
 72
     1
 11
142.249
 21
191.92400000000001
 31
0.0
  0
TEXT
  5
2F
  8
0
 62
     7
 10
173.67699999999999
 20
189.1989825
 30
0.0
 40
3.0923400000000001
  1
130
 50
90.0
 41
0.5
 72
     1
 11
173.67699999999999
 21
190.874
 31
0.0
  0
TEXT
  5
30
  8
0
 62
     7
 10
109.77500000000001
 20
191.99037250000001
 30
0.0
 40
3.0923400000000001
  1
90
 50
90.0
 41
0.5
 72
     1
 11
109.77500000000001
 21
193.15000000000001
 31
0.0
  0
TEXT
  5
31
  8
0
 62
     7
 10
116.485
 20
193.33552499999999
 30
0.0
 40
3.0923400000000001
  1
55
 50
90.0
 41
0.5
 72
     1
 11
116.485
 21
194.624
 31
0.0
  0
TEXT
  5
32
  8
0
 62
     7
 10
99.747299999999996
 20
107.7129825
 30
0.0
 40
3.0923400000000001
  1
130
 50
90.0
 41
0.5
 72
     1
 11
99.747299999999996
 21
109.38800000000001
 31
0.0
  0
TEXT
  5
33
  8
0
 62
     7
 10
93.626599999999996
 20
110.22837250000001
 30
0.0
 40
3.0923400000000001
  1
90
 50
90.0
 41
0.5
 72
     1
 11
93.626599999999996
 21
111.38800000000001
 31
0.0
  0
TEXT
  5
34
  8
0
 62
     7
 10
87.686199999999999
 20
111.667525
 30
0.0
 40
3.0923400000000001
  1
55
 50
90.0
 41
0.5
 72
     1
 11
87.686199999999999
 21
112.956
 31
0.0
  0
TEXT
  5
35
  8
0
 62
     7
 10
88.924499999999995
 20
189.33513500000001
 30
0.0
 40
3.0923400000000001
  1
135
 50
90.0
 41
0.5
 72
     1
 11
88.924499999999995
 21
191.13900000000001
 31
0.0
  0
TEXT
  5
36
  8
0
 62
     7
 10
42.873100000000001
 20
182.50944000000001
 30
0.0
 40
3.0923400000000001
  1
275
 50
90.0
 41
0.5
 72
     1
 11
42.873100000000001
 21
184.571
 31
0.0
  0
TEXT
  5
37
  8
0
 62
     7
 10
55.035182499999991
 20
206.93600000000001
 30
0.0
 40
3.0923400000000001
  1
150
 41
0.5
 72
     1
 11
56.7102
 21
206.93600000000001
 31
0.0
  0
TEXT
  5
38
  8
0
 62
     7
 10
63.649039999999999
 20
212.845
 30
0.0
 40
3.0923400000000001
  1
275
 41
0.5
 72
     1
 11
65.710599999999999
 21
212.845
 31
0.0
  0
TEXT
  5
39
  8
0
 62
     7
 10
143.65244000000001
 20
96.485299999999995
 30
0.0
 40
3.0923400000000001
  1
275
 41
0.5
 72
     1
 11
145.714
 21
96.485299999999995
 31
0.0
  0
TEXT
  5
3A
  8
0
 62
     7
 10
60.89864
 20
96.485299999999995
 30
0.0
 40
3.0923400000000001
  1
275
 41
0.5
 72
     1
 11
62.9602
 21
96.485299999999995
 31
0.0
  0
TEXT
  5
3B
  8
0
 62
     7
 10
63.777887499999999
 20
218.51900000000001
 30
0.0
 40
3.0923400000000001
  1
330
 41
0.5
 72
     1
 11
65.710599999999999
 21
218.51900000000001
 31
0.0
  0
TEXT
  5
3C
  8
0
 62
     7
 10
27.164200000000001
 20
38.925699999999999
 30
0.0
 40
3.9357000000000002
  1
※壁取付部には厚さ30mm以上の補強木を入れてください。
 41
0.5
  0
TEXT
  5
3D
  8
0
 62
     7
 10
140.54603599999999
 20
174.404
 30
0.0
 40
3.0923400000000001
  1
矢視A-A
 41
0.5
 72
     1
 11
144.46299999999999
 21
174.404
 31
0.0
  0
TEXT
  5
3E
  8
0
 62
     7
 10
54.933900000000001
 20
179.81100000000001
 30
0.0
 40
3.0923400000000001
  1
%%c46
 41
0.5
  0
ARC
  5
3F
  8
0
  6
AIGENLINE001
 62
     7
 10
130.22678300000001
 20
107.40604500000001
 30
0.0
 40
0.518112
 50
271.87018699999999
 51
354.53980999999999
  0
ARC
  5
40
  8
0
  6
AIGENLINE001
 62
     7
 10
131.74095600000001
 20
110.059978
 30
0.0
 40
0.8284259999999999
 50
91.812289000000007
 51
174.62059199999999
  0
LINE
  5
41
  8
0
  6
AIGENLINE001
 62
     7
 10
130.916
 20
110.13800000000001
 30
0.0
 11
130.74299999999999
 21
107.357
 31
0.0
  0
ARC
  5
42
  8
0
  6
AIGENLINE001
 62
     7
 10
133.69953699999999
 20
107.406091
 30
0.0
 40
0.518138
 50
185.46512999999999
 51
268.20383700000002
  0
ARC
  5
43
  8
0
  6
AIGENLINE001
 62
     7
 10
132.18534299999999
 20
110.059978
 30
0.0
 40
0.8284259999999999
 50
5.3793889999999989
 51
88.187691000000001
  0
LINE
  5
44
  8
0
 62
     7
 10
157.25200000000001
 20
95.192700000000002
 30
0.0
 11
159.464
 21
95.785300000000007
 31
0.0
  0
LINE
  5
45
  8
0
 62
     7
 10
159.464
 20
95.785300000000007
 30
0.0
 11
157.25200000000001
 21
96.378200000000007
 31
0.0
  0
LINE
  5
46
  8
0
 62
     7
 10
157.25200000000001
 20
96.378200000000007
 30
0.0
 11
157.25200000000001
 21
95.192700000000002
 31
0.0
  0
LINE
  5
47
  8
0
 62
     7
 10
134.17500000000001
 20
96.370599999999996
 30
0.0
 11
131.96299999999999
 21
95.777999999999992
 31
0.0
  0
LINE
  5
48
  8
0
 62
     7
 10
131.96299999999999
 20
95.777999999999992
 30
0.0
 11
134.17500000000001
 21
95.185500000000005
 31
0.0
  0
LINE
  5
49
  8
0
 62
     7
 10
134.17500000000001
 20
95.185500000000005
 30
0.0
 11
134.17500000000001
 21
96.370599999999996
 31
0.0
  0
LINE
  5
4A
  8
0
 62
     7
 10
159.464
 20
95.785300000000007
 30
0.0
 11
131.96299999999999
 21
95.785300000000007
 31
0.0
  0
ARC
  5
4B
  8
0
 62
     7
 10
141.27456799999999
 20
103.198763
 30
0.0
 40
0.311231
 50
181.95368999999999
 51
267.91477700000002
  0
ARC
  5
4C
  8
0
 62
     7
 10
140.44614200000001
 20
103.711056
 30
0.0
 40
0.5176210000000001
 50
1.761693999999999
 51
82.667067000000003
  0
ARC
  5
4D
  8
0
 62
     7
 10
141.582697
 20
114.676293
 30
0.0
 40
10.506525999999999
 50
246.58043599999991
 51
264.15211099999999
  0
ARC
  5
4E
  8
0
 62
     7
 10
140.56205700000001
 20
112.130775
 30
0.0
 40
7.7654110000000003
 50
235.15242799999999
 51
246.025677
  0
ARC
  5
4F
  8
0
 62
     7
 10
139.32668699999999
 20
110.270126
 30
0.0
 40
5.5327580000000003
 50
223.22964400000001
 51
234.64158199999989
  0
ARC
  5
50
  8
0
 62
     7
 10
138.4108389999999
 20
109.356651
 30
0.0
 40
4.2399690000000003
 50
215.604331
 51
222.712288
  0
LINE
  5
51
  8
0
 62
     7
 10
140.964
 20
103.727
 30
0.0
 11
140.964
 21
103.187
 31
0.0
  0
LINE
  5
52
  8
0
 62
     7
 10
141.26300000000001
 20
102.88800000000001
 30
0.0
 11
144.464
 21
102.88800000000001
 31
0.0
  0
ARC
  5
53
  8
0
 62
     7
 10
147.65225799999999
 20
103.198763
 30
0.0
 40
0.311231
 50
272.08526000000001
 51
358.046313
  0
ARC
  5
54
  8
0
 62
     7
 10
148.480684
 20
103.711056
 30
0.0
 40
0.5176210000000001
 50
97.332895999999991
 51
178.238304
  0
ARC
  5
55
  8
0
 62
     7
 10
147.12405899999999
 20
116.793986
 30
0.0
 40
12.635622
 50
275.8622279999999
 51
294.02741700000001
  0
ARC
  5
56
  8
0
 62
     7
 10
148.869989
 20
112.660158
 30
0.0
 40
8.1495709999999981
 50
294.64990499999999
 51
303.56693899999999
  0
ARC
  5
57
  8
0
 62
     7
 10
150.410574
 20
110.249748
 30
0.0
 40
5.2895409999999998
 50
304.09839799999997
 51
313.03563000000003
  0
ARC
  5
58
  8
0
 62
     7
 10
151.498108
 20
109.044721
 30
0.0
 40
3.666663999999999
 50
313.46478999999999
 51
323.97485399999999
  0
LINE
  5
59
  8
0
  6
AIGENLINE002
 62
     7
 10
157.13999999999999
 20
110.38800000000001
 30
0.0
 11
161.72200000000001
 21
110.38800000000001
 31
0.0
  0
LINE
  5
5A
  8
0
  6
AIGENLINE002
 62
     7
 10
129.81299999999999
 20
110.38800000000001
 30
0.0
 11
134.39400000000001
 21
110.38800000000001
 31
0.0
  0
LINE
  5
5B
  8
0
 62
     7
 10
131.96299999999999
 20
103.78100000000001
 30
0.0
 11
131.96299999999999
 21
95.0852
 31
0.0
  0
LINE
  5
5C
  8
0
 62
     7
 10
159.464
 20
106.13800000000001
 30
0.0
 11
159.464
 21
95.0852
 31
0.0
  0
LINE
  5
5D
  8
0
 62
     7
 10
147.96299999999999
 20
103.727
 30
0.0
 11
147.96299999999999
 21
103.187
 31
0.0
  0
LINE
  5
5E
  8
0
 62
     7
 10
147.66399999999999
 20
102.88800000000001
 30
0.0
 11
144.464
 21
102.88800000000001
 31
0.0
  0
LINE
  5
5F
  8
0
  6
AIGENLINE001
 62
     7
 10
132.21199999999999
 20
110.88800000000001
 30
0.0
 11
131.715
 21
110.88800000000001
 31
0.0
  0
ARC
  5
60
  8
0
 62
     7
 10
126.981874
 20
107.407088
 30
0.0
 40
0.5192140000000001
 50
182.13446999999999
 51
267.94453399999998
  0
ARC
  5
61
  8
0
 62
     7
 10
127.293572
 20
115.05768
 30
0.0
 40
0.8311149999999999
 50
92.109700000000004
 51
177.89027100000001
  0
ARC
  5
62
  8
0
 62
     7
 10
159.15214599999999
 20
107.199887
 30
0.0
 40
0.311882
 50
272.06505199999998
 51
357.80339500000002
  0
ARC
  5
63
  8
0
 62
     7
 10
159.152097
 20
115.576531
 30
0.0
 40
0.311906
 50
2.0738379999999998
 51
87.926152000000002
  0
LINE
  5
64
  8
0
 62
     7
 10
159.16300000000001
 20
115.88800000000001
 30
0.0
 11
127.26300000000001
 21
115.88800000000001
 31
0.0
  0
LINE
  5
65
  8
0
 62
     7
 10
159.16300000000001
 20
106.88800000000001
 30
0.0
 11
126.96299999999999
 21
106.88800000000001
 31
0.0
  0
LINE
  5
66
  8
0
 62
     7
 10
146.76400000000001
 20
115.08799999999999
 30
0.0
 11
146.76300000000001
 21
107.38800000000001
 31
0.0
  0
LINE
  5
67
  8
0
  6
AIGENLINE001
 62
     7
 10
133.00999999999999
 20
110.13800000000001
 30
0.0
 11
133.184
 21
107.357
 31
0.0
  0
LINE
  5
68
  8
0
  6
AIGENLINE002
 62
     7
 10
131.96299999999999
 20
112.881
 30
0.0
 11
131.96299999999999
 21
104.48099999999999
 31
0.0
  0
LINE
  5
69
  8
0
  6
AIGENLINE002
 62
     7
 10
144.464
 20
109.06100000000001
 30
0.0
 11
144.46299999999999
 21
100.66200000000001
 31
0.0
  0
LINE
  5
6A
  8
0
  6
AIGENLINE002
 62
     7
 10
54.510899999999999
 20
118.93899999999999
 30
0.0
 11
54.51019999999999
 21
113.066
 31
0.0
  0
LINE
  5
6B
  8
0
  6
AIGENLINE002
 62
     7
 10
154.16399999999999
 20
118.93899999999999
 30
0.0
 11
154.16300000000001
 21
113.066
 31
0.0
  0
LINE
  5
6C
  8
0
 62
     7
 10
159.464
 20
115.58799999999999
 30
0.0
 11
159.46299999999999
 21
107.188
 31
0.0
  0
LINE
  5
6D
  8
0
 62
     7
 10
126.46299999999999
 20
115.08799999999999
 30
0.0
 11
126.46299999999999
 21
107.38800000000001
 31
0.0
  0
ARC
  5
6E
  8
0
  6
AIGENLINE001
 62
     7
 10
78.446907999999993
 20
107.406068
 30
0.0
 40
0.518125
 50
185.46267
 51
268.16685000000001
  0
ARC
  5
6F
  8
0
  6
AIGENLINE001
 62
     7
 10
76.932730000000006
 20
110.059989
 30
0.0
 40
0.8284200000000001
 50
5.3786180000000003
 51
88.176124999999999
  0
LINE
  5
70
  8
0
  6
AIGENLINE001
 62
     7
 10
77.757499999999993
 20
110.13800000000001
 30
0.0
 11
77.931100000000001
 21
107.357
 31
0.0
  0
ARC
  5
71
  8
0
  6
AIGENLINE001
 62
     7
 10
74.974153999999999
 20
107.406068
 30
0.0
 40
0.518125
 50
271.83317
 51
354.53735
  0
ARC
  5
72
  8
0
  6
AIGENLINE001
 62
     7
 10
76.488332
 20
110.059989
 30
0.0
 40
0.8284200000000001
 50
91.823854999999995
 51
174.621362
  0
ARC
  5
73
  8
0
  6
AIGENLINE001
 62
     7
 10
156.44404399999999
 20
196.54721000000001
 30
0.0
 40
0.824471
 50
91.333224999999985
 51
165.96169
  0
LINE
  5
74
  8
0
  6
AIGENLINE001
 62
     7
 10
146.76400000000001
 20
184.374
 30
0.0
 11
146.76400000000001
 21
185.874
 31
0.0
  0
LINE
  5
75
  8
0
  6
AIGENLINE001
 62
     7
 10
148.214
 20
186.87299999999999
 30
0.0
 11
146.76400000000001
 21
185.874
 31
0.0
  0
ARC
  5
76
  8
0
  6
AIGENLINE001
 62
     7
 10
147.38601399999999
 20
191.14501300000001
 30
0.0
 40
4.3509809999999991
 50
280.96711199999999
 51
290.62337600000001
  0
ARC
  5
77
  8
0
  6
AIGENLINE001
 62
     7
 10
146.70998299999999
 20
193.06500399999999
 30
0.0
 40
6.3861939999999997
 50
290.23258099999998
 51
301.21082699999999
  0
ARC
  5
78
  8
0
  6
AIGENLINE001
 62
     7
 10
145.355887
 20
195.45595700000001
 30
0.0
 40
9.1331299999999995
 50
300.70360399999998
 51
311.81522200000001
  0
ARC
  5
79
  8
0
  6
AIGENLINE001
 62
     7
 10
143.60279600000001
 20
197.54086000000001
 30
0.0
 40
11.85614
 50
311.411744
 51
327.38153199999999
  0
ARC
  5
7A
  8
0
  6
AIGENLINE001
 62
     7
 10
142.30525499999999
 20
198.46904499999999
 30
0.0
 40
13.449614
 50
327.03066699999999
 51
352.64470899999998
  0
ARC
  5
7B
  8
0
  6
AIGENLINE001
 62
     7
 10
132.48347200000001
 20
196.54721000000001
 30
0.0
 40
0.824471
 50
14.03829
 51
88.666755000000009
  0
LINE
  5
7C
  8
0
  6
AIGENLINE001
 62
     7
 10
142.16300000000001
 20
184.374
 30
0.0
 11
142.16300000000001
 21
185.874
 31
0.0
  0
LINE
  5
7D
  8
0
  6
AIGENLINE001
 62
     7
 10
140.714
 20
186.87299999999999
 30
0.0
 11
142.16300000000001
 21
185.874
 31
0.0
  0
ARC
  5
7E
  8
0
 62
     7
 10
166.944165
 20
188.893013
 30
0.0
 40
0.5198970000000001
 50
272.20442500000001
 51
357.87455899999998
  0
ARC
  5
7F
  8
0
 62
     7
 10
166.63315299999999
 20
196.54297199999999
 30
0.0
 40
0.8311159999999999
 50
2.109726999999999
 51
87.890263000000004
  0
LINE
  5
80
  8
0
  6
AIGENLINE002
 62
     7
 10
164.41399999999999
 20
193.708
 30
0.0
 11
164.41399999999999
 21
190.08099999999999
 31
0.0
  0
LINE
  5
81
  8
0
  6
AIGENLINE002
 62
     7
 10
124.51300000000001
 20
193.708
 30
0.0
 11
124.51300000000001
 21
190.08099999999999
 31
0.0
  0
LINE
  5
82
  8
0
 62
     7
 10
167.464
 20
196.57400000000001
 30
0.0
 11
167.464
 21
188.874
 31
0.0
  0
ARC
  5
83
  8
0
 62
     7
 10
141.2748269999999
 20
184.68539799999999
 30
0.0
 40
0.311882
 50
182.19662500000001
 51
267.93496800000003
  0
ARC
  5
84
  8
0
 62
     7
 10
140.44737699999999
 20
185.19786999999999
 30
0.0
 40
0.515998
 50
1.5980499999999991
 51
82.743589000000014
  0
ARC
  5
85
  8
0
 62
     7
 10
147.501969
 20
194.636189
 30
0.0
 40
8.9729530000000004
 50
275.835511
 51
288.76791600000001
  0
ARC
  5
86
  8
0
 62
     7
 10
148.08716000000001
 20
192.72151500000001
 30
0.0
 40
6.9720810000000002
 50
289.27695799999998
 51
307.48513800000001
  0
ARC
  5
87
  8
0
 62
     7
 10
148.72251900000001
 20
191.775676
 30
0.0
 40
5.8353330000000003
 50
308.18652400000002
 51
324.33604300000002
  0
ARC
  5
88
  8
0
  6
AIGENLINE001
 62
     7
 10
141.54150200000001
 20
191.14501300000001
 30
0.0
 40
4.3509809999999991
 50
249.376644
 51
259.03290800000002
  0
ARC
  5
89
  8
0
  6
AIGENLINE001
 62
     7
 10
142.21753200000001
 20
193.06500399999999
 30
0.0
 40
6.3861939999999997
 50
238.78919300000001
 51
249.767439
  0
ARC
  5
8A
  8
0
  6
AIGENLINE001
 62
     7
 10
143.571628
 20
195.45595700000001
 30
0.0
 40
9.1331299999999995
 50
228.184798
 51
239.29641599999999
  0
ARC
  5
8B
  8
0
  6
AIGENLINE001
 62
     7
 10
145.32472000000001
 20
197.54086000000001
 30
0.0
 40
11.85614
 50
212.61848699999999
 51
228.58827600000001
  0
ARC
  5
8C
  8
0
  6
AIGENLINE001
 62
     7
 10
146.62226000000001
 20
198.46904499999999
 30
0.0
 40
13.449614
 50
187.355311
 51
212.96935199999999
  0
ARC
  5
8D
  8
0
 62
     7
 10
141.424857
 20
194.636189
 30
0.0
 40
8.9729530000000004
 50
251.23210399999999
 51
264.16450900000001
  0
ARC
  5
8E
  8
0
 62
     7
 10
140.83966599999999
 20
192.72151500000001
 30
0.0
 40
6.9720810000000002
 50
232.514881
 51
250.723062
  0
ARC
  5
8F
  8
0
 62
     7
 10
140.204308
 20
191.775676
 30
0.0
 40
5.8353330000000003
 50
215.66397699999999
 51
231.81349599999999
  0
LINE
  5
90
  8
0
 62
     7
 10
140.96299999999999
 20
185.21199999999999
 30
0.0
 11
140.96299999999999
 21
184.673
 31
0.0
  0
LINE
  5
91
  8
0
 62
     7
 10
141.26400000000001
 20
184.374
 30
0.0
 11
144.46299999999999
 21
184.374
 31
0.0
  0
ARC
  5
92
  8
0
 62
     7
 10
147.65199999999999
 20
184.68539799999999
 30
0.0
 40
0.311882
 50
272.06505199999998
 51
357.80339500000002
  0
ARC
  5
93
  8
0
 62
     7
 10
148.47944899999999
 20
185.19786999999999
 30
0.0
 40
0.5159970000000002
 50
97.256372999999996
 51
178.401948
  0
LINE
  5
94
  8
0
  6
AIGENLINE002
 62
     7
 10
162.381
 20
191.874
 30
0.0
 11
166.34999999999999
 21
191.874
 31
0.0
  0
LINE
  5
95
  8
0
  6
AIGENLINE002
 62
     7
 10
122.65600000000001
 20
191.874
 30
0.0
 11
125.956
 21
191.874
 31
0.0
  0
LINE
  5
96
  8
0
 62
     7
 10
143.60499999999999
 20
195.16300000000001
 30
0.0
 11
143.01300000000001
 21
197.375
 31
0.0
  0
LINE
  5
97
  8
0
 62
     7
 10
143.01300000000001
 20
197.375
 30
0.0
 11
142.41900000000001
 21
195.16300000000001
 31
0.0
  0
LINE
  5
98
  8
0
 62
     7
 10
142.41900000000001
 20
195.16300000000001
 30
0.0
 11
143.60499999999999
 21
195.16300000000001
 31
0.0
  0
LINE
  5
99
  8
0
 62
     7
 10
142.435
 20
189.08500000000001
 30
0.0
 11
143.02699999999999
 21
186.87299999999999
 31
0.0
  0
LINE
  5
9A
  8
0
 62
     7
 10
143.02699999999999
 20
186.87299999999999
 30
0.0
 11
143.62
 21
189.08500000000001
 31
0.0
  0
LINE
  5
9B
  8
0
 62
     7
 10
143.62
 20
189.08500000000001
 30
0.0
 11
142.435
 21
189.08500000000001
 31
0.0
  0
LINE
  5
9C
  8
0
 62
     7
 10
143.02000000000001
 20
197.374
 30
0.0
 11
143.02000000000001
 21
186.875
 31
0.0
  0
LINE
  5
9D
  8
0
 62
     7
 10
174.96299999999999
 20
195.16300000000001
 30
0.0
 11
174.37
 21
197.375
 31
0.0
  0
LINE
  5
9E
  8
0
 62
     7
 10
174.37
 20
197.375
 30
0.0
 11
173.77699999999999
 21
195.16300000000001
 31
0.0
  0
LINE
  5
9F
  8
0
 62
     7
 10
173.77699999999999
 20
195.16300000000001
 30
0.0
 11
174.96299999999999
 21
195.16300000000001
 31
0.0
  0
LINE
  5
A0
  8
0
 62
     7
 10
173.792
 20
186.584
 30
0.0
 11
174.38499999999999
 21
184.37200000000001
 31
0.0
  0
LINE
  5
A1
  8
0
 62
     7
 10
174.38499999999999
 20
184.37200000000001
 30
0.0
 11
174.97800000000001
 21
186.584
 31
0.0
  0
LINE
  5
A2
  8
0
 62
     7
 10
174.97800000000001
 20
186.584
 30
0.0
 11
173.792
 21
186.584
 31
0.0
  0
LINE
  5
A3
  8
0
 62
     7
 10
174.37700000000001
 20
197.374
 30
0.0
 11
174.37700000000001
 21
184.374
 31
0.0
  0
LINE
  5
A4
  8
0
 62
     7
 10
117.875
 20
195.16300000000001
 30
0.0
 11
117.283
 21
197.375
 31
0.0
  0
LINE
  5
A5
  8
0
 62
     7
 10
117.283
 20
197.375
 30
0.0
 11
116.69
 21
195.16300000000001
 31
0.0
  0
LINE
  5
A6
  8
0
 62
     7
 10
116.69
 20
195.16300000000001
 30
0.0
 11
117.875
 21
195.16300000000001
 31
0.0
  0
LINE
  5
A7
  8
0
 62
     7
 10
116.705
 20
194.084
 30
0.0
 11
117.297
 21
191.87200000000001
 31
0.0
  0
LINE
  5
A8
  8
0
 62
     7
 10
117.297
 20
191.87200000000001
 30
0.0
 11
117.89
 21
194.084
 31
0.0
  0
LINE
  5
A9
  8
0
 62
     7
 10
117.89
 20
194.084
 30
0.0
 11
116.705
 21
194.084
 31
0.0
  0
LINE
  5
AA
  8
0
 62
     7
 10
117.29000000000001
 20
197.374
 30
0.0
 11
117.29000000000001
 21
191.874
 31
0.0
  0
LINE
  5
AB
  8
0
 62
     7
 10
111.06100000000001
 20
195.16300000000001
 30
0.0
 11
110.468
 21
197.375
 31
0.0
  0
LINE
  5
AC
  8
0
 62
     7
 10
110.468
 20
197.375
 30
0.0
 11
109.875
 21
195.16300000000001
 31
0.0
  0
LINE
  5
AD
  8
0
 62
     7
 10
109.875
 20
195.16300000000001
 30
0.0
 11
111.06100000000001
 21
195.16300000000001
 31
0.0
  0
LINE
  5
AE
  8
0
 62
     7
 10
109.89
 20
190.584
 30
0.0
 11
110.483
 21
188.37200000000001
 31
0.0
  0
LINE
  5
AF
  8
0
 62
     7
 10
110.483
 20
188.37200000000001
 30
0.0
 11
111.075
 21
190.584
 31
0.0
  0
LINE
  5
B0
  8
0
 62
     7
 10
111.075
 20
190.584
 30
0.0
 11
109.89
 21
190.584
 31
0.0
  0
LINE
  5
B1
  8
0
 62
     7
 10
110.47499999999999
 20
197.374
 30
0.0
 11
110.47499999999999
 21
188.37299999999999
 31
0.0
  0
LINE
  5
B2
  8
0
 62
     7
 10
121.956
 20
191.874
 30
0.0
 11
116.59
 21
191.874
 31
0.0
  0
LINE
  5
B3
  8
0
 62
     7
 10
120.864
 20
188.37299999999999
 30
0.0
 11
109.77500000000001
 21
188.37299999999999
 31
0.0
  0
LINE
  5
B4
  8
0
 62
     7
 10
147.964
 20
185.21199999999999
 30
0.0
 11
147.964
 21
184.673
 31
0.0
  0
LINE
  5
B5
  8
0
 62
     7
 10
147.66300000000001
 20
184.374
 30
0.0
 11
144.46299999999999
 21
184.374
 31
0.0
  0
LINE
  5
B6
  8
0
 62
     7
 10
148.68000000000001
 20
184.374
 30
0.0
 11
175.077
 21
184.374
 31
0.0
  0
LINE
  5
B7
  8
0
 62
     7
 10
168.261
 20
197.374
 30
0.0
 11
175.077
 21
197.374
 31
0.0
  0
LINE
  5
B8
  8
0
 62
     7
 10
120.864
 20
197.374
 30
0.0
 11
109.77500000000001
 21
197.374
 31
0.0
  0
ARC
  5
B9
  8
0
 62
     7
 10
121.98335
 20
188.893013
 30
0.0
 40
0.5198970000000001
 50
182.125461
 51
267.79559499999999
  0
ARC
  5
BA
  8
0
 62
     7
 10
122.294363
 20
196.54297199999999
 30
0.0
 40
0.8311149999999999
 50
92.109700000000004
 51
177.89027100000001
  0
LINE
  5
BB
  8
0
  6
AIGENLINE001
 62
     7
 10
146.76400000000001
 20
185.874
 30
0.0
 11
142.16300000000001
 21
185.874
 31
0.0
  0
LINE
  5
BC
  8
0
  6
AIGENLINE001
 62
     7
 10
148.214
 20
186.87299999999999
 30
0.0
 11
140.714
 21
186.87299999999999
 31
0.0
  0
LINE
  5
BD
  8
0
 62
     7
 10
166.66399999999999
 20
197.374
 30
0.0
 11
122.264
 21
197.374
 31
0.0
  0
LINE
  5
BE
  8
0
 62
     7
 10
166.964
 20
188.37299999999999
 30
0.0
 11
121.96299999999999
 21
188.37299999999999
 31
0.0
  0
LINE
  5
BF
  8
0
 62
     7
 10
130.464
 20
196.57400000000001
 30
0.0
 11
130.46299999999999
 21
188.874
 31
0.0
  0
LINE
  5
C0
  8
0
 62
     7
 10
158.464
 20
196.57400000000001
 30
0.0
 11
158.464
 21
188.874
 31
0.0
  0
LINE
  5
C1
  8
0
  6
AIGENLINE002
 62
     7
 10
144.46299999999999
 20
198.745
 30
0.0
 11
144.46299999999999
 21
182.84100000000001
 31
0.0
  0
LINE
  5
C2
  8
0
 62
     7
 10
121.464
 20
196.57400000000001
 30
0.0
 11
121.464
 21
188.874
 31
0.0
  0
LINE
  5
C3
  8
0
 62
     7
 10
51.421000000000006
 20
96.370599999999996
 30
0.0
 11
49.209200000000003
 21
95.777999999999992
 31
0.0
  0
LINE
  5
C4
  8
0
 62
     7
 10
49.209200000000003
 20
95.777999999999992
 30
0.0
 11
51.421000000000006
 21
95.185500000000005
 31
0.0
  0
LINE
  5
C5
  8
0
 62
     7
 10
51.421000000000006
 20
95.185500000000005
 30
0.0
 11
51.421000000000006
 21
96.370599999999996
 31
0.0
  0
LINE
  5
C6
  8
0
 62
     7
 10
74.498599999999996
 20
95.192700000000002
 30
0.0
 11
76.710499999999996
 21
95.785300000000007
 31
0.0
  0
LINE
  5
C7
  8
0
 62
     7
 10
76.710499999999996
 20
95.785300000000007
 30
0.0
 11
74.498599999999996
 21
96.378200000000007
 31
0.0
  0
LINE
  5
C8
  8
0
 62
     7
 10
74.498599999999996
 20
96.378200000000007
 30
0.0
 11
74.498599999999996
 21
95.192700000000002
 31
0.0
  0
LINE
  5
C9
  8
0
 62
     7
 10
49.2102
 20
95.785300000000007
 30
0.0
 11
76.710400000000007
 21
95.785300000000007
 31
0.0
  0
ARC
  5
CA
  8
0
 62
     7
 10
67.398958999999991
 20
103.199101
 30
0.0
 40
0.3115679999999999
 50
272.07954599999999
 51
357.98620799999998
  0
ARC
  5
CB
  8
0
 62
     7
 10
68.22739
 20
103.711393
 30
0.0
 40
0.51729
 50
97.340261000000012
 51
178.274485
  0
ARC
  5
CC
  8
0
 62
     7
 10
67.090857
 20
114.67698
 30
0.0
 40
10.507206
 50
275.847284
 51
293.41870399999999
  0
ARC
  5
CD
  8
0
 62
     7
 10
68.111305999999999
 20
112.132025
 30
0.0
 40
7.76668
 50
293.9727069999999
 51
304.84490399999999
  0
ARC
  5
CE
  8
0
 62
     7
 10
69.347536000000005
 20
110.269958
 30
0.0
 40
5.5323690000000001
 50
305.35577799999999
 51
316.76898499999999
  0
ARC
  5
CF
  8
0
 62
     7
 10
70.260269999999991
 20
109.35892699999999
 30
0.0
 40
4.2435260000000001
 50
317.29023599999999
 51
324.39227499999998
  0
LINE
  5
D0
  8
0
 62
     7
 10
67.710300000000004
 20
103.727
 30
0.0
 11
67.710300000000004
 21
103.187
 31
0.0
  0
LINE
  5
D1
  8
0
 62
     7
 10
67.410300000000007
 20
102.88800000000001
 30
0.0
 11
64.210300000000004
 21
102.88800000000001
 31
0.0
  0
ARC
  5
D2
  8
0
 62
     7
 10
61.021576000000003
 20
103.199101
 30
0.0
 40
0.3115679999999999
 50
182.01379499999999
 51
267.92049100000003
  0
ARC
  5
D3
  8
0
 62
     7
 10
60.193280000000001
 20
103.71153700000001
 30
0.0
 40
0.5171520000000001
 50
1.7099169999999999
 51
82.653514000000001
  0
ARC
  5
D4
  8
0
 62
     7
 10
61.549918000000012
 20
116.794853
 30
0.0
 40
12.636479
 50
245.97353699999999
 51
264.13841400000001
  0
ARC
  5
D5
  8
0
 62
     7
 10
59.802631000000012
 20
112.657893
 30
0.0
 40
8.1470130000000012
 50
236.43137300000001
 51
245.351113
  0
ARC
  5
D6
  8
0
 62
     7
 10
58.262411999999998
 20
110.248537
 30
0.0
 40
5.2880640000000003
 50
226.96229700000001
 51
235.901848
  0
ARC
  5
D7
  8
0
 62
     7
 10
57.174318
 20
109.043468
 30
0.0
 40
3.6647729999999998
 50
216.022447
 51
226.53795
  0
LINE
  5
D8
  8
0
  6
AIGENLINE002
 62
     7
 10
51.533099999999997
 20
110.38800000000001
 30
0.0
 11
46.952100000000002
 21
110.38800000000001
 31
0.0
  0
LINE
  5
D9
  8
0
  6
AIGENLINE002
 62
     7
 10
78.860500000000002
 20
110.38800000000001
 30
0.0
 11
74.279499999999999
 21
110.38800000000001
 31
0.0
  0
LINE
  5
DA
  8
0
 62
     7
 10
101.033
 20
113.678
 30
0.0
 11
100.44
 21
115.889
 31
0.0
  0
LINE
  5
DB
  8
0
 62
     7
 10
100.44
 20
115.889
 30
0.0
 11
99.847600000000014
 21
113.678
 31
0.0
  0
LINE
  5
DC
  8
0
 62
     7
 10
99.847600000000014
 20
113.678
 30
0.0
 11
101.033
 21
113.678
 31
0.0
  0
LINE
  5
DD
  8
0
 62
     7
 10
99.862399999999994
 20
105.098
 30
0.0
 11
100.455
 21
102.887
 31
0.0
  0
LINE
  5
DE
  8
0
 62
     7
 10
100.455
 20
102.887
 30
0.0
 11
101.047
 21
105.098
 31
0.0
  0
LINE
  5
DF
  8
0
 62
     7
 10
101.047
 20
105.098
 30
0.0
 11
99.862399999999994
 21
105.098
 31
0.0
  0
LINE
  5
E0
  8
0
 62
     7
 10
100.447
 20
115.88800000000001
 30
0.0
 11
100.447
 21
102.88800000000001
 31
0.0
  0
LINE
  5
E1
  8
0
 62
     7
 10
76.710400000000007
 20
103.78100000000001
 30
0.0
 11
76.710400000000007
 21
95.0852
 31
0.0
  0
LINE
  5
E2
  8
0
 62
     7
 10
49.2102
 20
106.13800000000001
 30
0.0
 11
49.2102
 21
95.0852
 31
0.0
  0
LINE
  5
E3
  8
0
 62
     7
 10
89.076400000000007
 20
113.678
 30
0.0
 11
88.483900000000006
 21
115.889
 31
0.0
  0
LINE
  5
E4
  8
0
 62
     7
 10
88.483900000000006
 20
115.889
 30
0.0
 11
87.891099999999994
 21
113.678
 31
0.0
  0
LINE
  5
E5
  8
0
 62
     7
 10
87.891099999999994
 20
113.678
 30
0.0
 11
89.076400000000007
 21
113.678
 31
0.0
  0
LINE
  5
E6
  8
0
 62
     7
 10
87.905799999999999
 20
112.598
 30
0.0
 11
88.4983
 21
110.387
 31
0.0
  0
LINE
  5
E7
  8
0
 62
     7
 10
88.4983
 20
110.387
 30
0.0
 11
89.091099999999997
 21
112.598
 31
0.0
  0
LINE
  5
E8
  8
0
 62
     7
 10
89.091099999999997
 20
112.598
 30
0.0
 11
87.905799999999999
 21
112.598
 31
0.0
  0
LINE
  5
E9
  8
0
 62
     7
 10
88.491100000000003
 20
115.88800000000001
 30
0.0
 11
88.491100000000003
 21
110.38800000000001
 31
0.0
  0
LINE
  5
EA
  8
0
 62
     7
 10
95.051800000000014
 20
113.678
 30
0.0
 11
94.459299999999999
 21
115.889
 31
0.0
  0
LINE
  5
EB
  8
0
 62
     7
 10
94.459299999999999
 20
115.889
 30
0.0
 11
93.866500000000016
 21
113.678
 31
0.0
  0
LINE
  5
EC
  8
0
 62
     7
 10
93.866500000000016
 20
113.678
 30
0.0
 11
95.051800000000014
 21
113.678
 31
0.0
  0
LINE
  5
ED
  8
0
 62
     7
 10
93.881200000000007
 20
109.099
 30
0.0
 11
94.473699999999994
 21
106.887
 31
0.0
  0
LINE
  5
EE
  8
0
 62
     7
 10
94.473699999999994
 20
106.887
 30
0.0
 11
95.066500000000005
 21
109.099
 31
0.0
  0
LINE
  5
EF
  8
0
 62
     7
 10
95.066500000000005
 20
109.099
 30
0.0
 11
93.881200000000007
 21
109.099
 31
0.0
  0
LINE
  5
F0
  8
0
 62
     7
 10
94.466499999999996
 20
115.88800000000001
 30
0.0
 11
94.466499999999996
 21
106.88800000000001
 31
0.0
  0
LINE
  5
F1
  8
0
 62
     7
 10
79.560500000000005
 20
110.38800000000001
 30
0.0
 11
89.191199999999995
 21
110.38800000000001
 31
0.0
  0
LINE
  5
F2
  8
0
 62
     7
 10
82.810599999999994
 20
106.88800000000001
 30
0.0
 11
95.166499999999999
 21
106.88800000000001
 31
0.0
  0
LINE
  5
F3
  8
0
 62
     7
 10
60.7102
 20
103.727
 30
0.0
 11
60.7102
 21
103.187
 31
0.0
  0
LINE
  5
F4
  8
0
 62
     7
 10
61.010300000000001
 20
102.88800000000001
 30
0.0
 11
64.210300000000004
 21
102.88800000000001
 31
0.0
  0
LINE
  5
F5
  8
0
 62
     7
 10
68.555400000000006
 20
102.88800000000001
 30
0.0
 11
101.14700000000001
 21
102.88800000000001
 31
0.0
  0
LINE
  5
F6
  8
0
  6
AIGENLINE001
 62
     7
 10
76.462000000000003
 20
110.88800000000001
 30
0.0
 11
76.959100000000007
 21
110.88800000000001
 31
0.0
  0
LINE
  5
F7
  8
0
 62
     7
 10
82.810599999999994
 20
115.88800000000001
 30
0.0
 11
101.14700000000001
 21
115.88800000000001
 31
0.0
  0
ARC
  5
F8
  8
0
 62
     7
 10
81.691646000000006
 20
107.40706400000001
 30
0.0
 40
0.5192020000000001
 50
272.09231999999997
 51
357.86818899999997
  0
ARC
  5
F9
  8
0
 62
     7
 10
81.379935999999987
 20
115.05768
 30
0.0
 40
0.8311159999999999
 50
2.109726999999999
 51
87.890263000000004
  0
ARC
  5
FA
  8
0
 62
     7
 10
49.521553999999988
 20
107.19954799999999
 30
0.0
 40
0.3115429999999999
 50
182.13656800000001
 51
267.929281
  0
ARC
  5
FB
  8
0
 62
     7
 10
49.522308999999993
 20
115.57616400000001
 30
0.0
 40
0.3123
 50
92.204378000000005
 51
177.86133599999999
  0
LINE
  5
FC
  8
0
 62
     7
 10
70.137600000000006
 20
147.655
 30
0.0
 11
68.993499999999997
 21
145.673
 31
0.0
  0
LINE
  5
FD
  8
0
 62
     7
 10
68.993499999999997
 20
145.673
 30
0.0
 11
70.975399999999993
 21
146.81800000000001
 31
0.0
  0
LINE
  5
FE
  8
0
 62
     7
 10
70.975399999999993
 20
146.81800000000001
 30
0.0
 11
70.137600000000006
 21
147.655
 31
0.0
  0
LINE
  5
FF
  8
0
 62
     7
 10
100.367
 20
176.22900000000001
 30
0.0
 11
101.511
 21
178.21100000000001
 31
0.0
  0
LINE
  5
100
  8
0
 62
     7
 10
101.511
 20
178.21100000000001
 30
0.0
 11
99.528600000000012
 21
177.06700000000001
 31
0.0
  0
LINE
  5
101
  8
0
 62
     7
 10
99.528600000000012
 20
177.06700000000001
 30
0.0
 11
100.367
 21
176.22900000000001
 31
0.0
  0
LINE
  5
102
  8
0
 62
     7
 10
68.988600000000005
 20
145.678
 30
0.0
 11
101.51600000000001
 21
178.20599999999999
 31
0.0
  0
LINE
  5
103
  8
0
 62
     7
 10
95.452999999999989
 20
186.208
 30
0.0
 11
97.598600000000005
 21
188.35300000000001
 31
0.0
  0
LINE
  5
104
  8
0
 62
     7
 10
95.716200000000015
 20
190.23500000000001
 30
0.0
 11
97.598600000000005
 21
188.35300000000001
 31
0.0
  0
LINE
  5
105
  8
0
 62
     7
 10
60.986299999999993
 20
151.74100000000001
 30
0.0
 11
58.84109999999999
 21
149.595
 31
0.0
  0
LINE
  5
106
  8
0
 62
     7
 10
72.585700000000003
 20
157.935
 30
0.0
 11
71.441599999999994
 21
155.953
 31
0.0
  0
LINE
  5
107
  8
0
 62
     7
 10
71.441599999999994
 20
155.953
 30
0.0
 11
73.423199999999994
 21
157.09700000000001
 31
0.0
  0
LINE
  5
108
  8
0
 62
     7
 10
73.423199999999994
 20
157.09700000000001
 30
0.0
 11
72.585700000000003
 21
157.935
 31
0.0
  0
LINE
  5
109
  8
0
 62
     7
 10
90.086500000000015
 20
173.78100000000001
 30
0.0
 11
91.230699999999999
 21
175.76300000000001
 31
0.0
  0
LINE
  5
10A
  8
0
 62
     7
 10
91.230699999999999
 20
175.76300000000001
 30
0.0
 11
89.2483
 21
174.619
 31
0.0
  0
LINE
  5
10B
  8
0
 62
     7
 10
89.2483
 20
174.619
 30
0.0
 11
90.086500000000015
 21
173.78100000000001
 31
0.0
  0
LINE
  5
10C
  8
0
 62
     7
 10
71.436400000000006
 20
155.958
 30
0.0
 11
91.235499999999988
 21
175.75800000000001
 31
0.0
  0
LINE
  5
10D
  8
0
 62
     7
 10
70.483099999999993
 20
163.92699999999999
 30
0.0
 11
69.338300000000004
 21
161.94499999999999
 31
0.0
  0
LINE
  5
10E
  8
0
 62
     7
 10
69.338300000000004
 20
161.94499999999999
 30
0.0
 11
71.320599999999999
 21
163.089
 31
0.0
  0
LINE
  5
10F
  8
0
 62
     7
 10
71.320599999999999
 20
163.089
 30
0.0
 11
70.483099999999993
 21
163.92699999999999
 31
0.0
  0
LINE
  5
110
  8
0
 62
     7
 10
84.094099999999983
 20
175.88399999999999
 30
0.0
 11
85.238200000000006
 21
177.86600000000001
 31
0.0
  0
LINE
  5
111
  8
0
 62
     7
 10
85.238200000000006
 20
177.86600000000001
 30
0.0
 11
83.256600000000006
 21
176.72099999999989
 31
0.0
  0
LINE
  5
112
  8
0
 62
     7
 10
83.256600000000006
 20
176.72099999999989
 30
0.0
 11
84.094099999999983
 21
175.88399999999999
 31
0.0
  0
LINE
  5
113
  8
0
 62
     7
 10
69.333500000000001
 20
161.94999999999999
 30
0.0
 11
85.243700000000004
 21
177.86000000000001
 31
0.0
  0
LINE
  5
114
  8
0
  6
AIGENLINE002
 62
     7
 10
56.560000000000002
 20
194.68299999999999
 30
0.0
 11
52.257100000000001
 21
190.37899999999999
 31
0.0
  0
ARC
  5
115
  8
0
 62
     7
 10
54.418372999999988
 20
192.634997
 30
0.0
 40
1.8184889999999989
 50
317.129322
 51
42.902577000000001
  0
ARC
  5
116
  8
0
 62
     7
 10
54.513641
 20
192.636719
 30
0.0
 40
1.7510859999999999
 50
225.017324
 51
314.966748
  0
ARC
  5
117
  8
0
 62
     7
 10
54.51353799999999
 20
192.635368
 30
0.0
 40
1.7500579999999999
 50
134.99561
 51
224.988438
  0
ARC
  5
118
  8
0
 62
     7
 10
54.513295999999997
 20
192.541222
 30
0.0
 40
1.817688999999999
 50
47.108487999999987
 51
132.891492
  0
LINE
  5
119
  8
0
 62
     7
 10
45.998999999999988
 20
152.30099999999999
 30
0.0
 11
65.175899999999999
 21
171.47800000000001
 31
0.0
  0
LINE
  5
11A
  8
0
 62
     7
 10
33.271000000000001
 20
165.029
 30
0.0
 11
52.447899999999997
 21
184.20599999999999
 31
0.0
  0
LINE
  5
11B
  8
0
 62
     7
 10
66.981899999999996
 20
186.548
 30
0.0
 11
65.836699999999993
 21
184.565
 31
0.0
  0
LINE
  5
11C
  8
0
 62
     7
 10
65.836699999999993
 20
184.565
 30
0.0
 11
67.819699999999997
 21
185.71000000000001
 31
0.0
  0
LINE
  5
11D
  8
0
 62
     7
 10
67.819699999999997
 20
185.71000000000001
 30
0.0
 11
66.981899999999996
 21
186.548
 31
0.0
  0
LINE
  5
11E
  8
0
 62
     7
 10
61.433799999999998
 20
179.33500000000001
 30
0.0
 11
62.578999999999994
 21
181.31800000000001
 31
0.0
  0
LINE
  5
11F
  8
0
 62
     7
 10
62.578999999999994
 20
181.31800000000001
 30
0.0
 11
60.595999999999997
 21
180.173
 31
0.0
  0
LINE
  5
120
  8
0
 62
     7
 10
60.595999999999997
 20
180.173
 30
0.0
 11
61.433799999999998
 21
179.33500000000001
 31
0.0
  0
LINE
  5
121
  8
0
 62
     7
 10
60.3827
 20
179.11099999999999
 30
0.0
 11
68.392300000000006
 21
187.1209999999999
 31
0.0
  0
LINE
  5
122
  8
0
 62
     7
 10
34.413800000000002
 20
172.535
 30
0.0
 11
51.762399999999992
 21
189.88399999999999
 31
0.0
  0
LINE
  5
123
  8
0
 62
     7
 10
43.547499999999999
 20
145.607
 30
0.0
 11
62.439799999999998
 21
164.49799999999999
 31
0.0
  0
LINE
  5
124
  8
0
 62
     7
 10
20.212299999999999
 20
168.941
 30
0.0
 11
48.715200000000003
 21
197.44399999999999
 31
0.0
  0
LINE
  5
125
  8
0
  6
AIGENLINE002
 62
     7
 10
51.788899999999991
 20
170.43899999999999
 30
0.0
 11
46.232599999999998
 21
170.43899999999999
 31
0.0
  0
ARC
  5
126
  8
0
 62
     7
 10
64.067234999999997
 20
183.08207100000001
 30
0.0
 40
3.8960400000000002
 50
272.09886899999998
 51
357.88535000000002
  0
ARC
  5
127
  8
0
 62
     7
 10
64.210548000000003
 20
182.93928
 30
0.0
 40
3.7506349999999991
 50
180.00956099999999
 51
269.99046900000008
  0
ARC
  5
128
  8
0
 62
     7
 10
64.353624999999994
 20
182.79495299999999
 30
0.0
 40
3.8963629999999991
 50
92.113596999999999
 51
177.88637299999999
  0
ARC
  5
129
  8
0
 62
     7
 10
64.066601000000006
 20
182.79463100000001
 30
0.0
 40
3.8966709999999991
 50
2.113116999999999
 51
87.892135999999994
  0
ARC
  5
12A
  8
0
 62
     7
 10
64.120931999999996
 20
183.0279909999999
 30
0.0
 40
2.3913099999999989
 50
272.14099199999998
 51
357.85901799999999
  0
ARC
  5
12B
  8
0
 62
     7
 10
64.211065000000005
 20
182.93910700000001
 30
0.0
 40
2.3007569999999991
 50
180.011281
 51
269.98016700000011
  0
ARC
  5
12C
  8
0
 62
     7
 10
64.298563000000001
 20
182.85056499999999
 30
0.0
 40
2.3898799999999989
 50
92.133821999999995
 51
177.88760600000001
  0
ARC
  5
12D
  8
0
 62
     7
 10
64.122630000000001
 20
182.85081299999999
 30
0.0
 40
2.389556999999999
 50
2.1067219999999991
 51
87.914718999999991
  0
LINE
  5
12E
  8
0
 62
     7
 10
55.337400000000002
 20
196.553
 30
0.0
 11
55.121999999999993
 21
194.27500000000001
 31
0.0
  0
LINE
  5
12F
  8
0
 62
     7
 10
55.121999999999993
 20
194.27500000000001
 30
0.0
 11
56.447699999999998
 21
196.14099999999999
 31
0.0
  0
LINE
  5
130
  8
0
 62
     7
 10
56.447699999999998
 20
196.14099999999999
 30
0.0
 11
55.337400000000002
 21
196.553
 31
0.0
  0
LINE
  5
131
  8
0
 62
     7
 10
53.689599999999999
 20
188.71799999999999
 30
0.0
 11
53.904200000000003
 21
190.99700000000001
 31
0.0
  0
LINE
  5
132
  8
0
 62
     7
 10
53.904200000000003
 20
190.99700000000001
 30
0.0
 11
52.57889999999999
 21
189.131
 31
0.0
  0
LINE
  5
133
  8
0
 62
     7
 10
52.57889999999999
 20
189.131
 30
0.0
 11
53.689599999999999
 21
188.71799999999999
 31
0.0
  0
LINE
  5
134
  8
0
 62
     7
 10
52.746000000000002
 20
187.88099999999989
 30
0.0
 11
56.900799999999997
 21
199.06100000000001
 31
0.0
  0
LINE
  5
135
  8
0
  6
AIGENLINE002
 62
     7
 10
64.210300000000004
 20
178.328
 30
0.0
 11
64.209900000000005
 21
187.495
 31
0.0
  0
LINE
  5
136
  8
0
 62
     7
 10
89.039599999999993
 20
186.65000000000001
 30
0.0
 11
89.631799999999984
 21
184.43899999999999
 31
0.0
  0
LINE
  5
137
  8
0
 62
     7
 10
89.631799999999984
 20
184.43899999999999
 30
0.0
 11
90.224299999999985
 21
186.649
 31
0.0
  0
LINE
  5
138
  8
0
 62
     7
 10
90.224299999999985
 20
186.649
 30
0.0
 11
89.039599999999993
 21
186.65000000000001
 31
0.0
  0
LINE
  5
139
  8
0
 62
     7
 10
90.209500000000006
 20
195.72800000000001
 30
0.0
 11
89.617300000000014
 21
197.93899999999999
 31
0.0
  0
LINE
  5
13A
  8
0
 62
     7
 10
89.617300000000014
 20
197.93899999999999
 30
0.0
 11
89.024799999999999
 21
195.72800000000001
 31
0.0
  0
LINE
  5
13B
  8
0
 62
     7
 10
89.024799999999999
 20
195.72800000000001
 30
0.0
 11
90.209500000000006
 21
195.72800000000001
 31
0.0
  0
LINE
  5
13C
  8
0
 62
     7
 10
89.624600000000001
 20
184.43899999999999
 30
0.0
 11
89.624600000000001
 21
197.93899999999999
 31
0.0
  0
LINE
  5
13D
  8
0
 62
     7
 10
76.710499999999996
 20
200.40899999999999
 30
0.0
 11
76.710499999999996
 21
212.846
 31
0.0
  0
LINE
  5
13E
  8
0
 62
     7
 10
82.905500000000004
 20
184.43799999999999
 30
0.0
 11
90.324900000000014
 21
184.43899999999999
 31
0.0
  0
LINE
  5
13F
  8
0
 62
     7
 10
42.873499999999993
 20
170.43899999999999
 30
0.0
 11
45.532600000000002
 21
170.43899999999999
 31
0.0
  0
LINE
  5
140
  8
0
 62
     7
 10
42.873100000000001
 20
197.93799999999999
 30
0.0
 11
48.510199999999998
 21
197.93899999999999
 31
0.0
  0
LINE
  5
141
  8
0
 62
     7
 10
82.764300000000006
 20
197.93899999999999
 30
0.0
 11
90.324600000000004
 21
197.93899999999999
 31
0.0
  0
LINE
  5
142
  8
0
  6
AIGENLINE002
 62
     7
 10
59.621699999999997
 20
182.93899999999999
 30
0.0
 11
68.822599999999994
 21
182.93799999999999
 31
0.0
  0
LINE
  5
143
  8
0
 62
     7
 10
75.910600000000002
 20
187.19300000000001
 30
0.0
 11
85.738799999999998
 21
177.36500000000001
 31
0.0
  0
LINE
  5
144
  8
0
 62
     7
 10
83.038199999999989
 20
196.68199999999999
 30
0.0
 11
85.159300000000002
 21
194.56100000000001
 31
0.0
  0
LINE
  5
145
  8
0
 62
     7
 10
90.304100000000005
 20
189.417
 30
0.0
 11
102.011
 21
177.71100000000001
 31
0.0
  0
LINE
  5
146
  8
0
 62
     7
 10
50.511400000000002
 20
164.155
 30
0.0
 11
69.483400000000003
 21
145.18299999999999
 31
0.0
  0
LINE
  5
147
  8
0
 62
     7
 10
82.889700000000005
 20
184.102
 30
0.0
 11
91.729900000000001
 21
175.262
 31
0.0
  0
LINE
  5
148
  8
0
 62
     7
 10
63.090899999999998
 20
164.303
 30
0.0
 11
71.931100000000001
 21
155.464
 31
0.0
  0
LINE
  5
149
  8
0
 62
     7
 10
60.000700000000002
 20
171.28299999999999
 30
0.0
 11
69.828199999999995
 21
161.45599999999999
 31
0.0
  0
LINE
  5
14A
  8
0
 62
     7
 10
58.5441
 20
150.56299999999999
 30
0.0
 11
56.95859999999999
 21
151.47800000000001
 31
0.0
  0
LINE
  5
14B
  8
0
 62
     7
 10
56.95859999999999
 20
151.47800000000001
 30
0.0
 11
57.873999999999988
 21
149.893
 31
0.0
  0
LINE
  5
14C
  8
0
 62
     7
 10
57.873999999999988
 20
149.893
 30
0.0
 11
58.5441
 21
150.56299999999999
 31
0.0
  0
LINE
  5
14D
  8
0
 62
     7
 10
97.301700000000011
 20
189.31999999999999
 30
0.0
 11
95.716200000000015
 21
190.23500000000001
 31
0.0
  0
LINE
  5
14E
  8
0
 62
     7
 10
95.716200000000015
 20
190.23500000000001
 30
0.0
 11
96.631600000000006
 21
188.65000000000001
 31
0.0
  0
LINE
  5
14F
  8
0
 62
     7
 10
96.631600000000006
 20
188.65000000000001
 30
0.0
 11
97.301700000000011
 21
189.31999999999999
 31
0.0
  0
LINE
  5
150
  8
0
 62
     7
 10
31.581900000000001
 20
177.184
 30
0.0
 11
29.599900000000002
 21
178.328
 31
0.0
  0
LINE
  5
151
  8
0
 62
     7
 10
29.599900000000002
 20
178.328
 30
0.0
 11
30.744399999999999
 21
176.346
 31
0.0
  0
LINE
  5
152
  8
0
 62
     7
 10
30.744399999999999
 20
176.346
 30
0.0
 11
31.581900000000001
 21
177.184
 31
0.0
  0
LINE
  5
153
  8
0
 62
     7
 10
32.927199999999999
 20
174.17500000000001
 30
0.0
 11
34.908900000000003
 21
173.03
 31
0.0
  0
LINE
  5
154
  8
0
 62
     7
 10
34.908900000000003
 20
173.03
 30
0.0
 11
33.764699999999998
 21
175.012
 31
0.0
  0
LINE
  5
155
  8
0
 62
     7
 10
33.764699999999998
 20
175.012
 30
0.0
 11
32.927199999999999
 21
174.17500000000001
 31
0.0
  0
LINE
  5
156
  8
0
 62
     7
 10
36.645200000000003
 20
172.13099999999989
 30
0.0
 11
34.908900000000003
 21
173.03
 31
0.0
  0
LINE
  5
157
  8
0
 62
     7
 10
34.908900000000003
 20
173.03
 30
0.0
 11
35.807299999999998
 21
171.29400000000001
 31
0.0
  0
LINE
  5
158
  8
0
 62
     7
 10
35.807299999999998
 20
171.29400000000001
 30
0.0
 11
36.645200000000003
 21
172.13099999999989
 31
0.0
  0
LINE
  5
159
  8
0
 62
     7
 10
31.784500000000001
 20
166.66900000000001
 30
0.0
 11
33.766100000000002
 21
165.524
 31
0.0
  0
LINE
  5
15A
  8
0
 62
     7
 10
33.766100000000002
 20
165.524
 30
0.0
 11
32.622
 21
167.506
 31
0.0
  0
LINE
  5
15B
  8
0
 62
     7
 10
32.622
 20
167.506
 30
0.0
 11
31.784500000000001
 21
166.66900000000001
 31
0.0
  0
LINE
  5
15C
  8
0
 62
     7
 10
36.380600000000001
 20
170.732
 30
0.0
 11
38.0959
 21
169.85400000000001
 31
0.0
  0
LINE
  5
15D
  8
0
 62
     7
 10
38.0959
 20
169.85400000000001
 30
0.0
 11
37.2181
 21
171.56899999999999
 31
0.0
  0
LINE
  5
15E
  8
0
 62
     7
 10
37.2181
 20
171.56899999999999
 30
0.0
 11
36.380600000000001
 21
170.732
 31
0.0
  0
LINE
  5
15F
  8
0
 62
     7
 10
29.6051
 20
178.334
 30
0.0
 11
38.090800000000002
 21
169.84899999999999
 31
0.0
  0
LINE
  5
160
  8
0
 62
     7
 10
22.683900000000001
 20
168.28700000000001
 30
0.0
 11
20.702200000000001
 21
169.4309999999999
 31
0.0
  0
LINE
  5
161
  8
0
 62
     7
 10
20.702200000000001
 20
169.4309999999999
 30
0.0
 11
21.846299999999999
 21
167.44900000000001
 31
0.0
  0
LINE
  5
162
  8
0
 62
     7
 10
21.846299999999999
 20
167.44900000000001
 30
0.0
 11
22.683900000000001
 21
168.28700000000001
 31
0.0
  0
LINE
  5
163
  8
0
 62
     7
 10
42.0657
 20
147.251
 30
0.0
 11
44.047699999999999
 21
146.107
 31
0.0
  0
LINE
  5
164
  8
0
 62
     7
 10
44.047699999999999
 20
146.107
 30
0.0
 11
42.90359999999999
 21
148.089
 31
0.0
  0
LINE
  5
165
  8
0
 62
     7
 10
42.90359999999999
 20
148.089
 30
0.0
 11
42.0657
 21
147.251
 31
0.0
  0
LINE
  5
166
  8
0
 62
     7
 10
20.7074
 20
169.43600000000001
 30
0.0
 11
44.042599999999993
 21
146.102
 31
0.0
  0
LINE
  5
167
  8
0
 62
     7
 10
56.95859999999999
 20
151.47800000000001
 30
0.0
 11
58.84109999999999
 21
149.595
 31
0.0
  0
LINE
  5
168
  8
0
 62
     7
 10
35.747700000000002
 20
164.38
 30
0.0
 11
33.766100000000002
 21
165.524
 31
0.0
  0
LINE
  5
169
  8
0
 62
     7
 10
33.766100000000002
 20
165.524
 30
0.0
 11
34.9099
 21
163.54300000000001
 31
0.0
  0
LINE
  5
16A
  8
0
 62
     7
 10
34.9099
 20
163.54300000000001
 30
0.0
 11
35.747700000000002
 21
164.38
 31
0.0
  0
LINE
  5
16B
  8
0
 62
     7
 10
27.2576
 20
172.86000000000001
 30
0.0
 11
25.276
 21
174.00399999999999
 31
0.0
  0
LINE
  5
16C
  8
0
 62
     7
 10
25.276
 20
174.00399999999999
 30
0.0
 11
26.419699999999999
 21
172.023
 31
0.0
  0
LINE
  5
16D
  8
0
 62
     7
 10
26.419699999999999
 20
172.023
 30
0.0
 11
27.2576
 21
172.86000000000001
 31
0.0
  0
LINE
  5
16E
  8
0
 62
     7
 10
44.518000000000001
 20
153.946
 30
0.0
 11
46.499600000000001
 21
152.80099999999999
 31
0.0
  0
LINE
  5
16F
  8
0
 62
     7
 10
46.499600000000001
 20
152.80099999999999
 30
0.0
 11
45.355499999999992
 21
154.78299999999999
 31
0.0
  0
LINE
  5
170
  8
0
 62
     7
 10
45.355499999999992
 20
154.78299999999999
 30
0.0
 11
44.518000000000001
 21
153.946
 31
0.0
  0
LINE
  5
171
  8
0
 62
     7
 10
25.280799999999999
 20
174.00999999999999
 30
0.0
 11
46.494399999999999
 21
152.79599999999999
 31
0.0
  0
LINE
  5
172
  8
0
  6
AIGENLINE002
 62
     7
 10
47.881100000000004
 20
199.268
 30
0.0
 11
67.651300000000006
 21
179.499
 31
0.0
  0
LINE
  5
173
  8
0
 62
     7
 10
54.933900000000001
 20
179.11099999999999
 30
0.0
 11
60.3827
 21
179.11099999999999
 31
0.0
  0
LINE
  5
174
  8
0
 62
     7
 10
51.421000000000006
 20
206.822
 30
0.0
 11
49.209200000000003
 21
206.22900000000001
 31
0.0
  0
LINE
  5
175
  8
0
 62
     7
 10
49.209200000000003
 20
206.22900000000001
 30
0.0
 11
51.4206
 21
205.636
 31
0.0
  0
LINE
  5
176
  8
0
 62
     7
 10
51.4206
 20
205.636
 30
0.0
 11
51.421000000000006
 21
206.822
 31
0.0
  0
LINE
  5
177
  8
0
 62
     7
 10
61.998800000000003
 20
205.65100000000001
 30
0.0
 11
64.210999999999999
 21
206.24299999999999
 31
0.0
  0
LINE
  5
178
  8
0
 62
     7
 10
64.210999999999999
 20
206.24299999999999
 30
0.0
 11
61.999499999999998
 21
206.83600000000001
 31
0.0
  0
LINE
  5
179
  8
0
 62
     7
 10
61.999499999999998
 20
206.83600000000001
 30
0.0
 11
61.998800000000003
 21
205.65100000000001
 31
0.0
  0
LINE
  5
17A
  8
0
 62
     7
 10
56.900799999999997
 20
199.06100000000001
 30
0.0
 11
62.462200000000003
 21
199.06100000000001
 31
0.0
  0
LINE
  5
17B
  8
0
 62
     7
 10
49.2102
 20
206.23599999999999
 30
0.0
 11
64.209900000000005
 21
206.23599999999999
 31
0.0
  0
LINE
  5
17C
  8
0
 62
     7
 10
49.510100000000001
 20
115.88800000000001
 30
0.0
 11
81.410499999999985
 21
115.88800000000001
 31
0.0
  0
LINE
  5
17D
  8
0
 62
     7
 10
49.510100000000001
 20
106.88800000000001
 30
0.0
 11
81.710599999999999
 21
106.88800000000001
 31
0.0
  0
LINE
  5
17E
  8
0
 62
     7
 10
51.421300000000002
 20
212.73099999999999
 30
0.0
 11
49.209200000000003
 21
212.13800000000001
 31
0.0
  0
LINE
  5
17F
  8
0
 62
     7
 10
49.209200000000003
 20
212.13800000000001
 30
0.0
 11
51.4206
 21
211.54599999999999
 31
0.0
  0
LINE
  5
180
  8
0
 62
     7
 10
51.4206
 20
211.54599999999999
 30
0.0
 11
51.421300000000002
 21
212.73099999999999
 31
0.0
  0
LINE
  5
181
  8
0
 62
     7
 10
74.499499999999998
 20
211.56
 30
0.0
 11
76.7119
 21
212.15199999999999
 31
0.0
  0
LINE
  5
182
  8
0
 62
     7
 10
76.7119
 20
212.15199999999999
 30
0.0
 11
74.499799999999993
 21
212.745
 31
0.0
  0
LINE
  5
183
  8
0
 62
     7
 10
74.499799999999993
 20
212.745
 30
0.0
 11
74.499499999999998
 21
211.56
 31
0.0
  0
LINE
  5
184
  8
0
 62
     7
 10
49.2102
 20
212.14500000000001
 30
0.0
 11
76.710499999999996
 21
212.14500000000001
 31
0.0
  0
LINE
  5
185
  8
0
 62
     7
 10
51.4206
 20
218.404
 30
0.0
 11
49.208799999999997
 21
217.81200000000001
 31
0.0
  0
LINE
  5
186
  8
0
 62
     7
 10
49.208799999999997
 20
217.81200000000001
 30
0.0
 11
51.421000000000006
 21
217.21899999999999
 31
0.0
  0
LINE
  5
187
  8
0
 62
     7
 10
51.421000000000006
 20
217.21899999999999
 30
0.0
 11
51.4206
 21
218.404
 31
0.0
  0
LINE
  5
188
  8
0
 62
     7
 10
79.999899999999997
 20
217.23400000000001
 30
0.0
 11
82.211699999999979
 21
217.82599999999999
 31
0.0
  0
LINE
  5
189
  8
0
 62
     7
 10
82.211699999999979
 20
217.82599999999999
 30
0.0
 11
80.000299999999996
 21
218.41900000000001
 31
0.0
  0
LINE
  5
18A
  8
0
 62
     7
 10
80.000299999999996
 20
218.41900000000001
 30
0.0
 11
79.999899999999997
 21
217.23400000000001
 31
0.0
  0
LINE
  5
18B
  8
0
 62
     7
 10
49.20989999999999
 20
217.81899999999999
 30
0.0
 11
82.210700000000003
 21
217.81899999999999
 31
0.0
  0
LINE
  5
18C
  8
0
  6
AIGENLINE002
 62
     7
 10
76.710499999999996
 20
199.709
 30
0.0
 11
76.7102
 21
195.59399999999999
 31
0.0
  0
LINE
  5
18D
  8
0
 62
     7
 10
64.209900000000005
 20
206.93600000000001
 30
0.0
 11
64.209900000000005
 21
188.19499999999999
 31
0.0
  0
LINE
  5
18E
  8
0
 62
     7
 10
44.158499999999989
 20
195.72800000000001
 30
0.0
 11
43.565899999999992
 21
197.94
 31
0.0
  0
LINE
  5
18F
  8
0
 62
     7
 10
43.565899999999992
 20
197.94
 30
0.0
 11
42.973399999999998
 21
195.72800000000001
 31
0.0
  0
LINE
  5
190
  8
0
 62
     7
 10
42.973399999999998
 20
195.72800000000001
 30
0.0
 11
44.158499999999989
 21
195.72800000000001
 31
0.0
  0
LINE
  5
191
  8
0
 62
     7
 10
42.987799999999993
 20
172.649
 30
0.0
 11
43.5807
 21
170.43700000000001
 31
0.0
  0
LINE
  5
192
  8
0
 62
     7
 10
43.5807
 20
170.43700000000001
 30
0.0
 11
44.17329999999999
 21
172.649
 31
0.0
  0
LINE
  5
193
  8
0
 62
     7
 10
44.17329999999999
 20
172.649
 30
0.0
 11
42.987799999999993
 21
172.649
 31
0.0
  0
LINE
  5
194
  8
0
 62
     7
 10
43.572800000000001
 20
197.93899999999999
 30
0.0
 11
43.573500000000003
 21
170.43799999999999
 31
0.0
  0
LINE
  5
195
  8
0
 62
     7
 10
61.9101
 20
115.08799999999999
 30
0.0
 11
61.910499999999999
 21
107.38800000000001
 31
0.0
  0
LINE
  5
196
  8
0
  6
AIGENLINE001
 62
     7
 10
75.663600000000002
 20
110.13800000000001
 30
0.0
 11
75.489900000000006
 21
107.357
 31
0.0
  0
LINE
  5
197
  8
0
  6
AIGENLINE002
 62
     7
 10
76.710400000000007
 20
112.881
 30
0.0
 11
76.710700000000003
 21
104.48099999999999
 31
0.0
  0
LINE
  5
198
  8
0
  6
AIGENLINE002
 62
     7
 10
64.210099999999997
 20
109.06100000000001
 30
0.0
 11
64.210400000000007
 21
100.66200000000001
 31
0.0
  0
LINE
  5
199
  8
0
 62
     7
 10
49.21009999999999
 20
115.58799999999999
 30
0.0
 11
49.2104
 21
107.188
 31
0.0
  0
LINE
  5
19A
  8
0
 62
     7
 10
82.210499999999996
 20
115.08799999999999
 30
0.0
 11
82.210499999999996
 21
107.38800000000001
 31
0.0
  0
LINE
  5
19B
  8
0
 62
     7
 10
49.2102
 20
218.51900000000001
 30
0.0
 11
49.2102
 21
198.41
 31
0.0
  0
LINE
  5
19C
  8
0
 62
     7
 10
82.210700000000003
 20
218.51900000000001
 30
0.0
 11
82.210700000000003
 21
198.41
 31
0.0
  0
ARC
  5
19D
  8
0
 62
     7
 10
62.468417000000002
 20
176.85451699999999
 30
0.0
 40
5.7199220000000004
 50
227.10471100000001
 51
312.895309
  0
ARC
  5
19E
  8
0
 62
     7
 10
57.823723999999991
 20
181.49859599999999
 30
0.0
 40
5.7193459999999989
 50
137.09932000000001
 51
222.90067999999999
  0
LINE
  5
19F
  8
0
 62
     7
 10
53.634099999999997
 20
177.60499999999999
 30
0.0
 11
58.575099999999999
 21
172.66399999999999
 31
0.0
  0
LINE
  5
1A0
  8
0
 62
     7
 10
58.575099999999999
 20
172.66399999999999
 30
0.0
 11
53.634099999999997
 21
177.60499999999999
 31
0.0
  0
ARC
  5
1A1
  8
0
 62
     7
 10
70.293510999999995
 20
184.68007600000001
 30
0.0
 40
5.7206460000000003
 50
317.11260800000008
 51
42.887391999999998
  0
ARC
  5
1A2
  8
0
 62
     7
 10
65.651015999999998
 20
189.32469499999999
 30
0.0
 40
5.7202199999999994
 50
47.107464999999991
 51
132.892515
  0
LINE
  5
1A4
  8
0
 62
     7
 10
49.4328
 20
165.023
 30
0.0
 11
49.356999999999999
 21
165.08500000000001
 31
0.0
  0
LINE
  5
1A5
  8
0
 62
     7
 10
49.356999999999999
 20
165.08500000000001
 30
0.0
 11
49.4328
 21
165.023
 31
0.0
  0
LINE
  5
1A6
  8
0
 62
     7
 10
49.5809
 20
164.95599999999999
 30
0.0
 11
49.612299999999998
 21
164.94800000000001
 31
0.0
  0
LINE
  5
1A7
  8
0
 62
     7
 10
49.612299999999998
 20
164.94800000000001
 30
0.0
 11
49.710500000000003
 21
164.93799999999999
 31
0.0
  0
LINE
  5
1A8
  8
0
 62
     7
 10
49.710500000000003
 20
164.93799999999999
 30
0.0
 11
49.700499999999998
 21
164.93899999999999
 31
0.0
  0
LINE
  5
1A9
  8
0
 62
     7
 10
49.700499999999998
 20
164.93899999999999
 30
0.0
 11
49.612299999999998
 21
164.94800000000001
 31
0.0
  0
LINE
  5
1AA
  8
0
 62
     7
 10
49.612299999999998
 20
164.94800000000001
 30
0.0
 11
49.5809
 21
164.95599999999999
 31
0.0
  0
LINE
  5
1AB
  8
0
 62
     7
 10
49.464500000000001
 20
165.00299999999999
 30
0.0
 11
49.460000000000001
 21
165.006
 31
0.0
  0
LINE
  5
1AC
  8
0
 62
     7
 10
49.460000000000001
 20
165.006
 30
0.0
 11
49.4328
 21
165.023
 31
0.0
  0
LINE
  5
1AD
  8
0
 62
     7
 10
49.4328
 20
165.023
 30
0.0
 11
49.356999999999999
 21
165.08500000000001
 31
0.0
  0
LINE
  5
1AE
  8
0
 62
     7
 10
49.356999999999999
 20
165.08500000000001
 30
0.0
 11
49.4328
 21
165.023
 31
0.0
  0
LINE
  5
1AF
  8
0
 62
     7
 10
49.5764
 20
164.95699999999999
 30
0.0
 11
49.5809
 21
164.95599999999999
 31
0.0
  0
LINE
  5
1B1
  8
0
 62
     7
 10
49.248100000000001
 20
165.24700000000001
 30
0.0
 11
49.248100000000001
 21
165.24799999999999
 31
0.0
  0
LINE
  5
1B2
  8
0
 62
     7
 10
49.248100000000001
 20
165.24799999999999
 30
0.0
 11
49.248100000000001
 21
165.24700000000001
 31
0.0
  0
LINE
  5
1B5
  8
0
 62
     7
 10
49.212600000000002
 20
165.38900000000001
 30
0.0
 11
49.210599999999999
 21
165.43799999999999
 31
0.0
  0
LINE
  5
1B6
  8
0
 62
     7
 10
49.210599999999999
 20
165.43799999999999
 30
0.0
 11
49.212600000000002
 21
165.38900000000001
 31
0.0
  0
LINE
  5
1B7
  8
0
 62
     7
 10
49.2271
 20
165.309
 30
0.0
 11
49.212600000000002
 21
165.38900000000001
 31
0.0
  0
LINE
  5
1B8
  8
0
 62
     7
 10
49.212600000000002
 20
165.38900000000001
 30
0.0
 11
49.2271
 21
165.309
 31
0.0
  0
LINE
  5
1B9
  8
0
 62
     7
 10
49.248100000000001
 20
165.24700000000001
 30
0.0
 11
49.2271
 21
165.309
 31
0.0
  0
LINE
  5
1BA
  8
0
 62
     7
 10
49.2271
 20
165.309
 30
0.0
 11
49.248100000000001
 21
165.24700000000001
 31
0.0
  0
LINE
  5
1BB
  8
0
 62
     7
 10
49.284999999999989
 20
165.17500000000001
 30
0.0
 11
49.277099999999997
 21
165.18899999999999
 31
0.0
  0
LINE
  5
1BC
  8
0
 62
     7
 10
49.277099999999997
 20
165.18899999999999
 30
0.0
 11
49.294299999999993
 21
165.16099999999989
 31
0.0
  0
LINE
  5
1BD
  8
0
 62
     7
 10
49.294299999999993
 20
165.16099999999989
 30
0.0
 11
49.277099999999997
 21
165.18899999999999
 31
0.0
  0
LINE
  5
1BE
  8
0
 62
     7
 10
49.277099999999997
 20
165.18899999999999
 30
0.0
 11
49.248100000000001
 21
165.24700000000001
 31
0.0
  0
LINE
  5
1BF
  8
0
 62
     7
 10
49.248100000000001
 20
165.24700000000001
 30
0.0
 11
49.277099999999997
 21
165.18899999999999
 31
0.0
  0
LINE
  5
1C0
  8
0
 62
     7
 10
49.277099999999997
 20
165.18899999999999
 30
0.0
 11
49.294299999999993
 21
165.16099999999989
 31
0.0
  0
LINE
  5
1C1
  8
0
 62
     7
 10
49.294299999999993
 20
165.16099999999989
 30
0.0
 11
49.284999999999989
 21
165.17500000000001
 31
0.0
  0
LINE
  5
1C2
  8
0
 62
     7
 10
49.248100000000001
 20
165.24700000000001
 30
0.0
 11
49.2271
 21
165.309
 31
0.0
  0
LINE
  5
1C3
  8
0
 62
     7
 10
49.2271
 20
165.309
 30
0.0
 11
49.248100000000001
 21
165.24700000000001
 31
0.0
  0
LINE
  5
1C4
  8
0
 62
     7
 10
49.248800000000003
 20
165.24600000000001
 30
0.0
 11
49.277099999999997
 21
165.18899999999999
 31
0.0
  0
LINE
  5
1C5
  8
0
 62
     7
 10
49.277099999999997
 20
165.18899999999999
 30
0.0
 11
49.248800000000003
 21
165.24600000000001
 31
0.0
  0
LINE
  5
1C6
  8
0
 62
     7
 10
49.210599999999999
 20
165.43799999999999
 30
0.0
 11
49.212600000000002
 21
165.38900000000001
 31
0.0
  0
LINE
  5
1C7
  8
0
 62
     7
 10
49.212600000000002
 20
165.38900000000001
 30
0.0
 11
49.2271
 21
165.309
 31
0.0
  0
LINE
  5
1C8
  8
0
 62
     7
 10
49.2271
 20
165.309
 30
0.0
 11
49.212600000000002
 21
165.38900000000001
 31
0.0
  0
LINE
  5
1C9
  8
0
 62
     7
 10
49.212600000000002
 20
165.38900000000001
 30
0.0
 11
49.210599999999999
 21
165.43799999999999
 31
0.0
  0
LINE
  5
1CA
  8
0
 62
     7
 10
49.326700000000002
 20
165.12200000000001
 30
0.0
 11
49.356999999999999
 21
165.08500000000001
 31
0.0
  0
LINE
  5
1CB
  8
0
 62
     7
 10
49.356999999999999
 20
165.08500000000001
 30
0.0
 11
49.294299999999993
 21
165.16099999999989
 31
0.0
  0
LINE
  5
1CC
  8
0
 62
     7
 10
49.294299999999993
 20
165.16099999999989
 30
0.0
 11
49.356999999999999
 21
165.08500000000001
 31
0.0
  0
LINE
  5
1CD
  8
0
 62
     7
 10
49.356999999999999
 20
165.08500000000001
 30
0.0
 11
49.294299999999993
 21
165.16099999999989
 31
0.0
  0
LINE
  5
1CE
  8
0
 62
     7
 10
49.294299999999993
 20
165.16099999999989
 30
0.0
 11
49.326700000000002
 21
165.12200000000001
 31
0.0
  0
LINE
  5
1D0
  8
0
 62
     7
 10
82.095200000000006
 20
184.15700000000001
 30
0.0
 11
82.063900000000004
 21
184.12299999999999
 31
0.0
  0
LINE
  5
1D1
  8
0
 62
     7
 10
82.063900000000004
 20
184.12299999999999
 30
0.0
 11
82.095200000000006
 21
184.15700000000001
 31
0.0
  0
LINE
  5
1D2
  8
0
 62
     7
 10
82.143500000000003
 20
184.226
 30
0.0
 11
82.095200000000006
 21
184.15700000000001
 31
0.0
  0
LINE
  5
1D3
  8
0
 62
     7
 10
82.095200000000006
 20
184.15700000000001
 30
0.0
 11
82.143500000000003
 21
184.226
 31
0.0
  0
LINE
  5
1D4
  8
0
 62
     7
 10
82.147300000000016
 20
184.233
 30
0.0
 11
82.143500000000003
 21
184.226
 31
0.0
  0
LINE
  5
1D5
  8
0
 62
     7
 10
82.143500000000003
 20
184.226
 30
0.0
 11
82.147300000000016
 21
184.233
 31
0.0
  0
LINE
  5
1D6
  8
0
 62
     7
 10
82.184100000000001
 20
184.31700000000001
 30
0.0
 11
82.147300000000016
 21
184.233
 31
0.0
  0
LINE
  5
1D7
  8
0
 62
     7
 10
82.147300000000016
 20
184.233
 30
0.0
 11
82.184100000000001
 21
184.31700000000001
 31
0.0
  0
LINE
  5
1D8
  8
0
 62
     7
 10
82.193399999999997
 20
184.34700000000001
 30
0.0
 11
82.184100000000001
 21
184.31700000000001
 31
0.0
  0
LINE
  5
1D9
  8
0
 62
     7
 10
82.184100000000001
 20
184.31700000000001
 30
0.0
 11
82.193399999999997
 21
184.34700000000001
 31
0.0
  0
LINE
  5
1DA
  8
0
 62
     7
 10
82.205500000000015
 20
184.40799999999999
 30
0.0
 11
82.193399999999997
 21
184.34700000000001
 31
0.0
  0
LINE
  5
1DB
  8
0
 62
     7
 10
82.193399999999997
 20
184.34700000000001
 30
0.0
 11
82.205500000000015
 21
184.40799999999999
 31
0.0
  0
LINE
  5
1DC
  8
0
 62
     7
 10
82.210700000000003
 20
184.477
 30
0.0
 11
82.205500000000015
 21
184.40799999999999
 31
0.0
  0
LINE
  5
1DD
  8
0
 62
     7
 10
82.205500000000015
 20
184.40799999999999
 30
0.0
 11
82.210700000000003
 21
184.477
 31
0.0
  0
LINE
  5
1DF
  8
0
 62
     7
 10
82.2089
 20
197.45599999999999
 30
0.0
 11
82.200699999999983
 21
197.536
 31
0.0
  0
LINE
  5
1E0
  8
0
 62
     7
 10
82.200699999999983
 20
197.536
 30
0.0
 11
82.209299999999999
 21
197.44799999999989
 31
0.0
  0
LINE
  5
1E1
  8
0
 62
     7
 10
82.209299999999999
 20
197.44799999999989
 30
0.0
 11
82.2089
 21
197.45599999999999
 31
0.0
  0
LINE
  5
1E3
  8
0
 62
     7
 10
82.125900000000001
 20
197.71599999999989
 30
0.0
 11
82.142799999999994
 21
197.68899999999999
 31
0.0
  0
LINE
  5
1E4
  8
0
 62
     7
 10
82.142799999999994
 20
197.68899999999999
 30
0.0
 11
82.125900000000001
 21
197.71599999999989
 31
0.0
  0
LINE
  5
1E5
  8
0
 62
     7
 10
82.064199999999985
 20
197.792
 30
0.0
 11
82.125900000000001
 21
197.71599999999989
 31
0.0
  0
LINE
  5
1E6
  8
0
 62
     7
 10
82.125900000000001
 20
197.71599999999989
 30
0.0
 11
82.064199999999985
 21
197.792
 31
0.0
  0
LINE
  5
1E8
  8
0
 62
     7
 10
82.200699999999983
 20
197.536
 30
0.0
 11
82.193100000000001
 21
197.56800000000001
 31
0.0
  0
LINE
  5
1E9
  8
0
 62
     7
 10
82.193100000000001
 20
197.56800000000001
 30
0.0
 11
82.174800000000005
 21
197.626
 31
0.0
  0
LINE
  5
1EA
  8
0
 62
     7
 10
82.174800000000005
 20
197.626
 30
0.0
 11
82.193399999999997
 21
197.56800000000001
 31
0.0
  0
LINE
  5
1EB
  8
0
 62
     7
 10
82.193399999999997
 20
197.56800000000001
 30
0.0
 11
82.200699999999983
 21
197.536
 31
0.0
  0
LINE
  5
1EC
  8
0
 62
     7
 10
82.142799999999994
 20
197.68899999999999
 30
0.0
 11
82.125900000000001
 21
197.71599999999989
 31
0.0
  0
LINE
  5
1ED
  8
0
 62
     7
 10
82.125900000000001
 20
197.71599999999989
 30
0.0
 11
82.064199999999985
 21
197.792
 31
0.0
  0
LINE
  5
1EE
  8
0
 62
     7
 10
82.064199999999985
 20
197.792
 30
0.0
 11
82.125900000000001
 21
197.71599999999989
 31
0.0
  0
LINE
  5
1EF
  8
0
 62
     7
 10
82.125900000000001
 20
197.71599999999989
 30
0.0
 11
82.142799999999994
 21
197.68899999999999
 31
0.0
  0
LINE
  5
1F0
  8
0
 62
     7
 10
82.193399999999997
 20
197.56800000000001
 30
0.0
 11
82.193100000000001
 21
197.56800000000001
 31
0.0
  0
LINE
  5
1F1
  8
0
 62
     7
 10
81.902000000000001
 20
197.90100000000001
 30
0.0
 11
81.901300000000006
 21
197.90100000000001
 31
0.0
  0
LINE
  5
1F2
  8
0
 62
     7
 10
81.901300000000006
 20
197.90100000000001
 30
0.0
 11
81.902000000000001
 21
197.90100000000001
 31
0.0
  0
LINE
  5
1F3
  8
0
 62
     7
 10
81.960499999999996
 20
197.8709999999999
 30
0.0
 11
81.988500000000002
 21
197.85400000000001
 31
0.0
  0
LINE
  5
1F4
  8
0
 62
     7
 10
81.988500000000002
 20
197.85400000000001
 30
0.0
 11
81.980199999999996
 21
197.86000000000001
 31
0.0
  0
LINE
  5
1F5
  8
0
 62
     7
 10
81.980199999999996
 20
197.86000000000001
 30
0.0
 11
81.960499999999996
 21
197.8709999999999
 31
0.0
  0
LINE
  5
1F6
  8
0
 62
     7
 10
81.759699999999995
 20
197.93599999999989
 30
0.0
 11
81.839299999999994
 21
197.922
 31
0.0
  0
LINE
  5
1F7
  8
0
 62
     7
 10
81.839299999999994
 20
197.922
 30
0.0
 11
81.902000000000001
 21
197.90100000000001
 31
0.0
  0
LINE
  5
1F8
  8
0
 62
     7
 10
81.902000000000001
 20
197.90100000000001
 30
0.0
 11
81.960499999999996
 21
197.8709999999999
 31
0.0
  0
LINE
  5
1F9
  8
0
 62
     7
 10
81.960499999999996
 20
197.8709999999999
 30
0.0
 11
81.902000000000001
 21
197.90100000000001
 31
0.0
  0
LINE
  5
1FA
  8
0
 62
     7
 10
81.902000000000001
 20
197.90100000000001
 30
0.0
 11
81.839299999999994
 21
197.922
 31
0.0
  0
LINE
  5
1FB
  8
0
 62
     7
 10
81.839299999999994
 20
197.922
 30
0.0
 11
81.759699999999995
 21
197.93599999999989
 31
0.0
  0
LINE
  5
1FE
  8
0
 62
     7
 10
81.960499999999996
 20
197.8709999999999
 30
0.0
 11
81.902699999999996
 21
197.90100000000001
 31
0.0
  0
LINE
  5
1FF
  8
0
 62
     7
 10
81.902699999999996
 20
197.90100000000001
 30
0.0
 11
81.839299999999994
 21
197.922
 31
0.0
  0
LINE
  5
200
  8
0
 62
     7
 10
81.839299999999994
 20
197.922
 30
0.0
 11
81.759699999999995
 21
197.93599999999989
 31
0.0
  0
LINE
  5
201
  8
0
 62
     7
 10
81.759699999999995
 20
197.93599999999989
 30
0.0
 11
81.710400000000007
 21
197.93899999999999
 31
0.0
  0
LINE
  5
202
  8
0
 62
     7
 10
81.710400000000007
 20
197.93899999999999
 30
0.0
 11
81.759699999999995
 21
197.93599999999989
 31
0.0
  0
LINE
  5
203
  8
0
 62
     7
 10
81.759699999999995
 20
197.93599999999989
 30
0.0
 11
81.710400000000007
 21
197.93899999999999
 31
0.0
  0
LINE
  5
204
  8
0
 62
     7
 10
81.710400000000007
 20
197.93899999999999
 30
0.0
 11
81.759699999999995
 21
197.93599999999989
 31
0.0
  0
LINE
  5
205
  8
0
 62
     7
 10
81.759699999999995
 20
197.93599999999989
 30
0.0
 11
81.839299999999994
 21
197.922
 31
0.0
  0
LINE
  5
206
  8
0
 62
     7
 10
81.839299999999994
 20
197.922
 30
0.0
 11
81.902000000000001
 21
197.90100000000001
 31
0.0
  0
LINE
  5
207
  8
0
 62
     7
 10
81.902000000000001
 20
197.90100000000001
 30
0.0
 11
81.960499999999996
 21
197.8709999999999
 31
0.0
  0
LINE
  5
208
  8
0
 62
     7
 10
81.960499999999996
 20
197.8709999999999
 30
0.0
 11
81.980199999999996
 21
197.86000000000001
 31
0.0
  0
LINE
  5
209
  8
0
 62
     7
 10
81.980199999999996
 20
197.86000000000001
 30
0.0
 11
81.960499999999996
 21
197.8709999999999
 31
0.0
  0
LINE
  5
20A
  8
0
 62
     7
 10
82.010499999999993
 20
197.83600000000001
 30
0.0
 11
82.064199999999985
 21
197.792
 31
0.0
  0
LINE
  5
20B
  8
0
 62
     7
 10
82.064199999999985
 20
197.792
 30
0.0
 11
81.988500000000002
 21
197.85400000000001
 31
0.0
  0
LINE
  5
20C
  8
0
 62
     7
 10
81.988500000000002
 20
197.85400000000001
 30
0.0
 11
82.064199999999985
 21
197.792
 31
0.0
  0
LINE
  5
20D
  8
0
 62
     7
 10
82.064199999999985
 20
197.792
 30
0.0
 11
81.988500000000002
 21
197.85400000000001
 31
0.0
  0
LINE
  5
20E
  8
0
 62
     7
 10
81.988500000000002
 20
197.85400000000001
 30
0.0
 11
82.010499999999993
 21
197.83600000000001
 31
0.0
  0
LINE
  5
20F
  8
0
 62
     7
 10
69.544300000000007
 20
193.51599999999999
 30
0.0
 11
74.484999999999999
 21
188.57300000000001
 31
0.0
  0
LINE
  5
210
  8
0
 62
     7
 10
74.484999999999999
 20
188.57300000000001
 30
0.0
 11
69.544300000000007
 21
193.51599999999999
 31
0.0
  0
LINE
  5
211
  8
0
 62
     7
 10
82.210300000000004
 20
197.43899999999999
 30
0.0
 11
82.209999999999994
 21
185.06999999999999
 31
0.0
  0
LINE
  5
212
  8
0
 62
     7
 10
82.209999999999994
 20
185.06999999999999
 30
0.0
 11
82.210300000000004
 21
197.43899999999999
 31
0.0
  0
LINE
  5
213
  8
0
 62
     7
 10
82.210300000000004
 20
197.43899999999999
 30
0.0
 11
82.209299999999999
 21
197.44799999999989
 31
0.0
  0
LINE
  5
214
  8
0
 62
     7
 10
82.209299999999999
 20
197.44799999999989
 30
0.0
 11
82.210300000000004
 21
197.43899999999999
 31
0.0
  0
LINE
  5
215
  8
0
 62
     7
 10
82.210300000000004
 20
197.43899999999999
 30
0.0
 11
82.200699999999983
 21
197.536
 31
0.0
  0
LINE
  5
216
  8
0
 62
     7
 10
82.200699999999983
 20
197.536
 30
0.0
 11
82.193100000000001
 21
197.56800000000001
 31
0.0
  0
LINE
  5
217
  8
0
 62
     7
 10
82.193100000000001
 20
197.56800000000001
 30
0.0
 11
82.174800000000005
 21
197.626
 31
0.0
  0
LINE
  5
218
  8
0
 62
     7
 10
82.174800000000005
 20
197.626
 30
0.0
 11
82.172399999999996
 21
197.63
 31
0.0
  0
LINE
  5
219
  8
0
 62
     7
 10
82.172399999999996
 20
197.63
 30
0.0
 11
82.142799999999994
 21
197.68899999999999
 31
0.0
  0
LINE
  5
21A
  8
0
 62
     7
 10
82.210700000000003
 20
184.477
 30
0.0
 11
82.209999999999994
 21
185.06999999999999
 31
0.0
  0
LINE
  5
21B
  8
0
 62
     7
 10
82.209999999999994
 20
185.06999999999999
 30
0.0
 11
82.210700000000003
 21
184.477
 31
0.0
  0
LINE
  5
21C
  8
0
 62
     7
 10
61.757699999999993
 20
193.51599999999999
 30
0.0
 11
53.633400000000002
 21
185.39099999999999
 31
0.0
  0
LINE
  5
21D
  8
0
 62
     7
 10
53.633400000000002
 20
185.39099999999999
 30
0.0
 11
61.757699999999993
 21
193.51599999999999
 31
0.0
  0
LINE
  5
21E
  8
0
 62
     7
 10
74.4846
 20
180.78700000000001
 30
0.0
 11
66.360399999999998
 21
172.66399999999999
 31
0.0
  0
LINE
  5
21F
  8
0
 62
     7
 10
66.360399999999998
 20
172.66399999999999
 30
0.0
 11
74.4846
 21
180.78700000000001
 31
0.0
  0
LINE
  5
220
  8
0
 62
     7
 10
49.210599999999999
 20
165.43799999999999
 30
0.0
 11
49.2102
 21
197.93899999999999
 31
0.0
  0
LINE
  5
221
  8
0
 62
     7
 10
49.2102
 20
197.93899999999999
 30
0.0
 11
81.710400000000007
 21
197.93899999999999
 31
0.0
  0
LINE
  5
222
  8
0
 62
     7
 10
81.710400000000007
 20
197.93899999999999
 30
0.0
 11
49.2102
 21
197.93899999999999
 31
0.0
  0
LINE
  5
223
  8
0
 62
     7
 10
49.2102
 20
197.93899999999999
 30
0.0
 11
49.210599999999999
 21
165.43799999999999
 31
0.0
  0
LINE
  5
225
  8
0
 62
     7
 10
63.02579999999999
 20
165.08500000000001
 30
0.0
 11
82.063900000000004
 21
184.12299999999999
 31
0.0
  0
LINE
  5
226
  8
0
 62
     7
 10
82.063900000000004
 20
184.12299999999999
 30
0.0
 11
63.02579999999999
 21
165.08500000000001
 31
0.0
  0
LINE
  5
227
  8
0
 62
     7
 10
63.02579999999999
 20
165.08500000000001
 30
0.0
 11
62.991399999999999
 21
165.054
 31
0.0
  0
LINE
  5
228
  8
0
 62
     7
 10
62.991399999999999
 20
165.054
 30
0.0
 11
62.922499999999999
 21
165.006
 31
0.0
  0
LINE
  5
229
  8
0
 62
     7
 10
62.922499999999999
 20
165.006
 30
0.0
 11
62.915199999999999
 21
165.00200000000001
 31
0.0
  0
LINE
  5
22A
  8
0
 62
     7
 10
62.915199999999999
 20
165.00200000000001
 30
0.0
 11
62.830500000000001
 21
164.965
 31
0.0
  0
LINE
  5
22B
  8
0
 62
     7
 10
62.830500000000001
 20
164.965
 30
0.0
 11
62.802199999999992
 21
164.95500000000001
 31
0.0
  0
LINE
  5
22C
  8
0
 62
     7
 10
62.802199999999992
 20
164.95500000000001
 30
0.0
 11
62.741599999999998
 21
164.94399999999999
 31
0.0
  0
LINE
  5
22D
  8
0
 62
     7
 10
62.741599999999998
 20
164.94399999999999
 30
0.0
 11
62.67199999999999
 21
164.93899999999999
 31
0.0
  0
LINE
  5
22E
  8
0
 62
     7
 10
62.67199999999999
 20
164.93899999999999
 30
0.0
 11
49.710500000000003
 21
164.93799999999999
 31
0.0
  0
LINE
  5
22F
  8
0
 62
     7
 10
49.710500000000003
 20
164.93799999999999
 30
0.0
 11
62.67199999999999
 21
164.93899999999999
 31
0.0
  0
TEXT
  5
230
  8
_________2
 62
     7
 10
90.092336166666669
 20
13.2182
 30
0.0
 40
3.6545800000000002
  1
1 ： 10
 41
0.5
 72
     1
 11
93.960099999999997
 21
13.2182
 31
0.0
  0
LINE
  5
231
  8
_________2
 62
     7
 10
205.30099999999999
 20
127.41200000000001
 30
0.0
 11
183.55000000000001
 21
127.41200000000001
 31
0.0
  0
LINE
  5
232
  8
_________2
 62
     7
 10
100.3
 20
-4.0903900000000002
 30
0.0
 11
100.3
 21
-21.070699999999999
 31
0.0
  0
LINE
  5
233
  8
_________2
 62
     7
 10
100.3
 20
275.93099999999998
 30
0.0
 11
100.3
 21
258.911
 31
0.0
  0
LINE
  5
234
  8
_________2
 62
     7
 10
17.049499999999998
 20
127.41200000000001
 30
0.0
 11
-4.70052
 21
127.41200000000001
 31
0.0
  0
LINE
  5
235
  8
_________2
 62
     7
 10
76.741399999999999
 20
29.805099999999999
 30
0.0
 11
74.554699999999997
 21
29.805099999999999
 31
0.0
  0
LINE
  5
236
  8
_________2
 62
     7
 10
77.233999999999995
 20
29.805099999999999
 30
0.0
 11
76.981800000000007
 21
29.805099999999999
 31
0.0
  0
LINE
  5
237
  8
_________2
 62
     7
 10
77.726299999999995
 20
29.805099999999999
 30
0.0
 11
80.651600000000002
 21
29.805099999999999
 31
0.0
  0
LINE
  5
238
  8
_________2
 62
     7
 10
77.233999999999995
 20
29.805099999999999
 30
0.0
 11
77.485900000000001
 21
29.805099999999999
 31
0.0
  0
LINE
  5
239
  8
_________2
 62
     7
 10
70.837500000000006
 20
29.805099999999999
 30
0.0
 11
68.650499999999994
 21
29.805099999999999
 31
0.0
  0
LINE
  5
23A
  8
_________2
 62
     7
 10
71.329800000000006
 20
29.805099999999999
 30
0.0
 11
71.0779
 21
29.805099999999999
 31
0.0
  0
LINE
  5
23B
  8
_________2
 62
     7
 10
71.329800000000006
 20
30.2974
 30
0.0
 11
71.329800000000006
 21
32.484400000000001
 31
0.0
  0
LINE
  5
23C
  8
_________2
 62
     7
 10
71.329800000000006
 20
29.805099999999999
 30
0.0
 11
71.329800000000006
 21
30.057600000000001
 31
0.0
  0
LINE
  5
23D
  8
_________2
 62
     7
 10
71.822400000000002
 20
29.805099999999999
 30
0.0
 11
74.009
 21
29.805099999999999
 31
0.0
  0
LINE
  5
23E
  8
_________2
 62
     7
 10
71.329800000000006
 20
29.805099999999999
 30
0.0
 11
71.581999999999994
 21
29.805099999999999
 31
0.0
  0
LINE
  5
23F
  8
_________2
 62
     7
 10
71.329800000000006
 20
29.312799999999999
 30
0.0
 11
71.329800000000006
 21
27.126200000000001
 31
0.0
  0
LINE
  5
240
  8
_________2
 62
     7
 10
71.329800000000006
 20
29.805099999999999
 30
0.0
 11
71.329800000000006
 21
29.5532
 31
0.0
  0
LINE
  5
241
  8
_________2
 62
     7
 10
75.040899999999993
 20
28.585899999999999
 30
0.0
 11
80.218500000000006
 21
27.720400000000001
 31
0.0
  0
LINE
  5
242
  8
_________2
 62
     7
 10
75.040899999999993
 20
31.024699999999999
 30
0.0
 11
80.218500000000006
 21
31.8901
 31
0.0
  0
LINE
  5
243
  8
_________2
 62
     7
 10
80.218500000000006
 20
27.720400000000001
 30
0.0
 11
80.218500000000006
 21
31.8901
 31
0.0
  0
LINE
  5
244
  8
_________2
 62
     7
 10
75.040899999999993
 20
28.585899999999999
 30
0.0
 11
75.040899999999993
 21
31.024699999999999
 31
0.0
  0
ARC
  5
245
  8
_________2
 62
     7
 10
71.283201000000005
 20
29.758156
 30
0.0
 40
1.2673589999999999
 50
2.122214
 51
87.893958999999995
  0
ARC
  5
246
  8
_________2
 62
     7
 10
71.376300000000001
 20
29.758562000000001
 30
0.0
 40
1.2669509999999991
 50
92.104485999999994
 51
177.89548500000001
  0
ARC
  5
247
  8
_________2
 62
     7
 10
71.376343999999989
 20
29.852014
 30
0.0
 40
1.2670099999999991
 50
182.12258499999999
 51
267.89363300000002
  0
ARC
  5
248
  8
_________2
 62
     7
 10
71.282900999999995
 20
29.852677000000011
 30
0.0
 40
1.267684
 50
272.11907200000002
 51
357.848567
  0
ARC
  5
249
  8
_________2
 62
     7
 10
71.249426999999997
 20
29.725097000000002
 30
0.0
 40
2.1664659999999989
 50
2.1159629999999998
 51
87.874558999999991
  0
ARC
  5
24A
  8
_________2
 62
     7
 10
71.409410999999992
 20
29.725809000000002
 30
0.0
 40
2.1657280000000001
 50
92.107296999999988
 51
177.902142
  0
ARC
  5
24B
  8
_________2
 62
     7
 10
71.409789000000004
 20
29.885100999999999
 30
0.0
 40
2.1661329999999999
 50
182.116929
 51
267.88310000000001
  0
ARC
  5
24C
  8
_________2
 62
     7
 10
71.249769999999998
 20
29.885092
 30
0.0
 40
2.1661229999999989
 50
272.11667999999997
 51
357.88333
  0
TEXT
  5
24D
  8
_________2
 62
     7
 10
104.605
 20
1.6794899999999999
 30
0.0
 40
3.0923400000000001
  1
図番
 41
0.5
  0
LINE
  5
24E
  8
_________2
 62
     7
 10
103.55
 20
5.9087199999999989
 30
0.0
 11
183.55099999999999
 21
5.9087199999999989
 31
0.0
  0
TEXT
  5
24F
  8
_________2
 62
     7
 10
104.605
 20
11.679600000000001
 30
0.0
 40
3.0923400000000001
  1
品番
 41
0.5
  0
TEXT
  5
250
  8
_________2
 62
     7
 10
104.605
 20
31.8184
 30
0.0
 40
3.0923400000000001
  1
名称
 41
0.5
  0
TEXT
  5
251
  8
_________2
 62
     7
 10
91.84545833333334
 20
26.822299999999998
 30
0.0
 40
3.6545800000000002
  1
mm
 41
0.5
 72
     1
 11
93.368200000000016
 21
26.822299999999998
 31
0.0
  0
TEXT
  5
252
  8
_________2
 62
     7
 10
85.643199999999993
 20
31.8184
 30
0.0
 40
3.0923400000000001
  1
単位
 41
0.5
  0
TEXT
  5
253
  8
_________2
 62
     7
 10
85.643199999999993
 20
19.411200000000001
 30
0.0
 40
3.0923400000000001
  1
尺度
 41
0.5
  0
TEXT
  5
254
  8
_________2
 62
     7
 10
136.33455000000001
 20
9.1082000000000001
 30
0.0
 40
3.9357000000000002
  1
GB124729
 41
0.5
 72
     1
 11
143.55000000000001
 21
9.1082000000000001
 31
0.0
  0
TEXT
  5
255
  8
_________2
 62
     7
 10
136.33455000000001
 20
-0.8919409999999999
 30
0.0
 40
3.9357000000000002
  1
GB124729
 41
0.5
 72
     1
 11
143.55000000000001
 21
-0.8919409999999999
 31
0.0
  0
TEXT
  5
256
  8
_________2
 62
     7
 10
24.5871
 20
0.707627
 30
0.0
 40
3.9357000000000002
  1
重量：6kg、オーバーフローなし
 41
0.5
  0
TEXT
  5
257
  8
_________2
 62
     7
 10
109.179
 20
24.226400000000002
 30
0.0
 40
3.9357000000000002
  1
アイコン　手洗器
 41
0.5
  0
TEXT
  5
258
  8
_________2
 62
     7
 10
39.425300333333333
 20
13.603400000000001
 30
0.0
 40
3.6545800000000002
  1
井田
 41
0.5
 72
     1
 11
41.313499999999998
 21
13.603400000000001
 31
0.0
  0
TEXT
  5
259
  8
_________2
 62
     7
 10
20.79039066666666
 20
13.603400000000001
 30
0.0
 40
3.6545800000000002
  1
恋塚
 41
0.5
 72
     1
 11
22.7395
 21
13.603400000000001
 31
0.0
  0
TEXT
  5
25A
  8
_________2
 62
     7
 10
67.785799999999995
 20
13.2182
 30
0.0
 40
3.6545800000000002
  1
19.01.29
 41
0.5
  0
TEXT
  5
25B
  8
_________2
 62
     7
 10
66.593100000000007
 20
19.411200000000001
 30
0.0
 40
3.0923400000000001
  1
日付
 41
0.5
  0
TEXT
  5
25C
  8
_________2
 62
     7
 10
29.639399999999998
 20
19.411200000000001
 30
0.0
 40
3.0923400000000001
  1
検図
 41
0.5
  0
TEXT
  5
25D
  8
_________2
 62
     7
 10
18.0214
 20
5.2117699999999987
 30
0.0
 40
3.0923400000000001
  1
備考
 41
0.5
  0
TEXT
  5
25E
  8
_________2
 62
     7
 10
18.0214
 20
19.411200000000001
 30
0.0
 40
3.0923400000000001
  1
製図
 41
0.5
  0
TEXT
  5
25F
  8
_________2
 62
     7
 10
23.788865333333341
 20
27.936800000000002
 30
0.0
 40
4.4979399999999989
  1
セラトレーディング株式会社
 41
0.5
 72
     1
 11
41.180900000000001
 21
27.936800000000002
 31
0.0
  0
LINE
  5
260
  8
_________2
 62
     7
 10
183.55099999999999
 20
-4.0910799999999998
 30
0.0
 11
17.049499999999998
 21
-4.0910799999999998
 31
0.0
  0
LINE
  5
261
  8
_________2
 62
     7
 10
17.049499999999998
 20
-4.0910799999999998
 30
0.0
 11
17.049499999999998
 21
258.911
 31
0.0
  0
LINE
  5
262
  8
_________2
 62
     7
 10
17.049499999999998
 20
258.911
 30
0.0
 11
183.55099999999999
 21
258.911
 31
0.0
  0
LINE
  5
263
  8
_________2
 62
     7
 10
183.55099999999999
 20
258.911
 30
0.0
 11
183.55099999999999
 21
-4.0910799999999998
 31
0.0
  0
LINE
  5
264
  8
_________2
 62
     7
 10
65.549899999999994
 20
9.4096499999999992
 30
0.0
 11
65.549899999999994
 21
35.909500000000001
 31
0.0
  0
LINE
  5
265
  8
_________2
 62
     7
 10
84.550099999999986
 20
9.4096499999999992
 30
0.0
 11
84.550099999999986
 21
35.909500000000001
 31
0.0
  0
LINE
  5
266
  8
_________2
 62
     7
 10
103.55
 20
-4.0910799999999998
 30
0.0
 11
103.55
 21
35.909500000000001
 31
0.0
  0
LINE
  5
267
  8
_________2
 62
     7
 10
28.549700000000001
 20
9.4096499999999992
 30
0.0
 11
28.549700000000001
 21
23.409199999999998
 31
0.0
  0
LINE
  5
268
  8
_________2
 62
     7
 10
17.049499999999998
 20
9.4096499999999992
 30
0.0
 11
103.55
 21
9.4096499999999992
 31
0.0
  0
LINE
  5
269
  8
_________2
 62
     7
 10
17.049499999999998
 20
23.409199999999998
 30
0.0
 11
103.55
 21
23.409199999999998
 31
0.0
  0
LINE
  5
26A
  8
_________2
 62
     7
 10
103.55
 20
15.9092
 30
0.0
 11
183.55099999999999
 21
15.9092
 31
0.0
  0
LINE
  5
26B
  8
_________2
 62
     7
 10
17.049499999999998
 20
35.909500000000001
 30
0.0
 11
183.55099999999999
 21
35.909500000000001
 31
0.0
  0
ENDSEC
  0
EOF
