  0
SECTION
  2
HEADER
  9
$ACADVER
  1
AC1009
  9
$INSBASE
 10
0.0
 20
0.0
 30
0.0
  9
$EXTMIN
 10
0.238058
 20
0.4482100000000001
 30
0.0
  9
$EXTMAX
 10
210.24000000000001
 20
297.44999999999987
 30
0.0
  9
$LIMMIN
 10
0.0
 20
0.0
  9
$LIMMAX
 10
12.0
 20
9.0
  9
$ORTHOMODE
 70
     0
  9
$REGENMODE
 70
     1
  9
$FILLMODE
 70
     1
  9
$QTEXTMODE
 70
     0
  9
$MIRRTEXT
 70
     1
  9
$DRAGMODE
 70
     2
  9
$LTSCALE
 40
1.0
  9
$OSMODE
 70
    37
  9
$ATTMODE
 70
     1
  9
$TEXTSIZE
 40
0.0
  9
$TRACEWID
 40
0.05
  9
$TEXTSTYLE
  7
STANDARD
  9
$CLAYER
  8
0
  9
$CELTYPE
  6
CONTINUOUS
  9
$CECOLOR
 62
   256
  9
$DIMSCALE
 40
1.0
  9
$DIMASZ
 40
0.18
  9
$DIMEXO
 40
0.0625
  9
$DIMDLI
 40
0.38
  9
$DIMRND
 40
0.0
  9
$DIMDLE
 40
0.0
  9
$DIMEXE
 40
0.18
  9
$DIMTP
 40
0.0
  9
$DIMTM
 40
0.0
  9
$DIMTXT
 40
0.18
  9
$DIMCEN
 40
0.09
  9
$DIMTSZ
 40
0.0
  9
$DIMTOL
 70
     0
  9
$DIMLIM
 70
     0
  9
$DIMTIH
 70
     1
  9
$DIMTOH
 70
     1
  9
$DIMSE1
 70
     0
  9
$DIMSE2
 70
     0
  9
$DIMTAD
 70
     0
  9
$DIMZIN
 70
     0
  9
$DIMBLK
  1

  9
$DIMASO
 70
     1
  9
$DIMSHO
 70
     1
  9
$DIMPOST
  1

  9
$DIMAPOST
  1

  9
$DIMALT
 70
     0
  9
$DIMALTD
 70
     2
  9
$DIMALTF
 40
25.399999999999999
  9
$DIMLFAC
 40
1.0
  9
$DIMTOFL
 70
     0
  9
$DIMTVP
 40
0.0
  9
$DIMTIX
 70
     0
  9
$DIMSOXD
 70
     0
  9
$DIMSAH
 70
     0
  9
$DIMBLK1
  1

  9
$DIMBLK2
  1

  9
$DIMSTYLE
  2
STANDARD
  9
$DIMCLRD
 70
     0
  9
$DIMCLRE
 70
     0
  9
$DIMCLRT
 70
     0
  9
$DIMTFAC
 40
1.0
  9
$DIMGAP
 40
0.09
  9
$LUNITS
 70
     2
  9
$LUPREC
 70
     4
  9
$SKETCHINC
 40
0.1
  9
$FILLETRAD
 40
0.0
  9
$AUNITS
 70
     0
  9
$AUPREC
 70
     0
  9
$MENU
  1
.
  9
$ELEVATION
 40
0.0
  9
$PELEVATION
 40
0.0
  9
$THICKNESS
 40
0.0
  9
$LIMCHECK
 70
     0
  9
$BLIPMODE
 70
     0
  9
$CHAMFERA
 40
0.0
  9
$CHAMFERB
 40
0.0
  9
$SKPOLY
 70
     0
  9
$TDCREATE
 40
2444972.375
  9
$TDUPDATE
 40
2456744.2491713068
  9
$TDINDWG
 40
0.0000069676
  9
$TDUSRTIMER
 40
0.0000069676
  9
$USRTIMER
 70
     1
  9
$ANGBASE
 50
0.0
  9
$ANGDIR
 70
     0
  9
$PDMODE
 70
     0
  9
$PDSIZE
 40
0.0
  9
$PLINEWID
 40
0.0
  9
$COORDS
 70
     1
  9
$SPLFRAME
 70
     0
  9
$SPLINETYPE
 70
     6
  9
$SPLINESEGS
 70
     8
  9
$ATTDIA
 70
     0
  9
$ATTREQ
 70
     1
  9
$HANDLING
 70
     1
  9
$HANDSEED
  5
2A8
  9
$SURFTAB1
 70
     6
  9
$SURFTAB2
 70
     6
  9
$SURFTYPE
 70
     6
  9
$SURFU
 70
     6
  9
$SURFV
 70
     6
  9
$UCSNAME
  2

  9
$UCSORG
 10
0.0
 20
0.0
 30
0.0
  9
$UCSXDIR
 10
1.0
 20
0.0
 30
0.0
  9
$UCSYDIR
 10
0.0
 20
1.0
 30
0.0
  9
$PUCSNAME
  2

  9
$PUCSORG
 10
0.0
 20
0.0
 30
0.0
  9
$PUCSXDIR
 10
1.0
 20
0.0
 30
0.0
  9
$PUCSYDIR
 10
0.0
 20
1.0
 30
0.0
  9
$USERI1
 70
     0
  9
$USERI2
 70
     0
  9
$USERI3
 70
     0
  9
$USERI4
 70
     0
  9
$USERI5
 70
     0
  9
$USERR1
 40
0.0
  9
$USERR2
 40
0.0
  9
$USERR3
 40
0.0
  9
$USERR4
 40
0.0
  9
$USERR5
 40
0.0
  9
$WORLDVIEW
 70
     1
  9
$SHADEDGE
 70
     3
  9
$SHADEDIF
 70
    70
  9
$TILEMODE
 70
     1
  9
$MAXACTVP
 70
    48
  9
$PLIMCHECK
 70
     0
  9
$PEXTMIN
 10
1.0000000000000000E+020
 20
1.0000000000000000E+020
 30
1.0000000000000000E+020
  9
$PEXTMAX
 10
-1.0000000000000000E+020
 20
-1.0000000000000000E+020
 30
-1.0000000000000000E+020
  9
$PLIMMIN
 10
0.0
 20
0.0
  9
$PLIMMAX
 10
12.0
 20
9.0
  9
$UNITMODE
 70
     0
  9
$VISRETAIN
 70
     1
  9
$PLINEGEN
 70
     0
  9
$PSLTSCALE
 70
     1
  0
ENDSEC
  0
SECTION
  2
TABLES
  0
TABLE
  2
VPORT
 70
     2
  0
VPORT
  2
*ACTIVE
 70
     0
 10
0.0
 20
0.0
 11
1.0
 21
1.0
 12
206.97982146115791
 22
148.72499999999991
 13
0.0
 23
0.0
 14
1.0
 24
1.0
 15
0.0
 25
0.0
 16
0.0
 26
0.0
 36
1.0
 17
0.0
 27
0.0
 37
0.0
 40
299.90488308115528
 41
2.2894736842105261
 42
50.0
 43
0.0
 44
0.0
 50
0.0
 51
0.0
 71
     0
 72
   100
 73
     1
 74
     1
 75
     0
 76
     0
 77
     0
 78
     0
  0
ENDTAB
  0
TABLE
  2
LTYPE
 70
     2
  0
LTYPE
  2
CONTINUOUS
 70
     0
  3
Solid line
 72
    65
 73
     0
 40
0.0
  0
LTYPE
  2
AIGENLINE001
 70
     0
  3
generate AI->DXF Converter
 72
    65
 73
     4
 40
5.8561449999999988
 49
3.5278
 49
-0.776115
 49
0.776115
 49
-0.776115
  0
ENDTAB
  0
TABLE
  2
LAYER
 70
     2
  0
LAYER
  2
0
 70
     0
 62
     7
  6
CONTINUOUS
  0
LAYER
  2
_________2
 70
     0
 62
     7
  6
CONTINUOUS
  0
ENDTAB
  0
TABLE
  2
STYLE
 70
     1
  0
STYLE
  2
STANDARD
 70
     0
 40
0.0
 41
0.0
 50
0.0
 71
     0
 42
0.0
  3
TXT
  4
EXTFONT.SHX
  0
ENDTAB
  0
TABLE
  2
VIEW
 70
     0
  0
ENDTAB
  0
TABLE
  2
UCS
 70
     0
  0
ENDTAB
  0
TABLE
  2
APPID
 70
     1
  0
APPID
  2
ACAD
 70
     0
  0
ENDTAB
  0
TABLE
  2
DIMSTYLE
 70
     1
  0
DIMSTYLE
  2
STANDARD
 70
     0
  3

  4

  5

  6

  7

 40
1.0
 41
0.18
 42
0.0625
 43
0.38
 44
0.18
 45
0.0
 46
0.0
 47
0.0
 48
0.0
140
0.18
141
0.09
142
0.0
143
25.399999999999999
144
1.0
145
0.0
146
1.0
147
0.09
 71
     0
 72
     0
 73
     1
 74
     1
 75
     0
 76
     0
 77
     0
 78
     0
170
     0
171
     2
172
     0
173
     0
174
     0
175
     0
176
     0
177
     0
178
     0
  0
ENDTAB
  0
ENDSEC
  0
SECTION
  2
BLOCKS
  0
BLOCK
  8
0
  2
$MODEL_SPACE
 70
     0
 10
0.0
 20
0.0
 30
0.0
  3
$MODEL_SPACE
  1

  0
ENDBLK
  5
1A
  8
0
  0
BLOCK
 67
     1
  8
0
  2
$PAPER_SPACE
 70
     0
 10
0.0
 20
0.0
 30
0.0
  3
$PAPER_SPACE
  1

  0
ENDBLK
  5
17
 67
     1
  8
0
  0
ENDSEC
  0
SECTION
  2
ENTITIES
  0
TEXT
  5
22
  8
0
 62
     7
 10
155.99564599999991
 20
243.833
 30
0.0
 40
3.0923400000000001
  1
t＝6
 41
0.5
 72
     2
 11
160.42799999999991
 21
243.833
 31
0.0
  0
TEXT
  5
23
  8
0
 62
     7
 10
149.84252499999991
 20
228.148
 30
0.0
 40
3.0923400000000001
  1
22
 41
0.5
 72
     1
 11
151.13099999999989
 21
228.148
 31
0.0
  0
TEXT
  5
24
  8
0
 62
     7
 10
89.488429999999994
 20
227.83999999999989
 30
0.0
 40
3.0923400000000001
  1
100
 41
0.5
 72
     1
 11
91.034599999999998
 21
227.83999999999989
 31
0.0
  0
TEXT
  5
25
  8
0
 62
     7
 10
88.609282500000006
 20
234.64099999999999
 30
0.0
 40
3.0923400000000001
  1
106
 41
0.5
 72
     1
 11
90.284300000000002
 21
234.64099999999999
 31
0.0
  0
TEXT
  5
26
  8
0
 62
     7
 10
58.205399999999997
 20
143.26043999999999
 30
0.0
 40
3.0923400000000001
  1
446
 50
90.0
 41
0.5
 72
     1
 11
58.205399999999997
 21
145.32199999999989
 31
0.0
  0
TEXT
  5
27
  8
0
 62
     7
 10
64.819199999999995
 20
80.234324999999998
 30
0.0
 40
3.0923400000000001
  1
85
 50
90.0
 41
0.5
 72
     1
 11
64.819199999999995
 21
81.522800000000004
 31
0.0
  0
TEXT
  5
28
  8
0
 62
     7
 10
58.205399999999997
 20
82.884024999999994
 30
0.0
 40
3.0923400000000001
  1
44
 50
90.0
 41
0.5
 72
     1
 11
58.205399999999997
 21
84.172500000000014
 31
0.0
  0
TEXT
  5
29
  8
0
 62
     7
 10
58.205399999999997
 20
205.18352499999989
 30
0.0
 40
3.0923400000000001
  1
44
 50
90.0
 41
0.5
 72
     1
 11
58.205399999999997
 21
206.47200000000001
 31
0.0
  0
TEXT
  5
2A
  8
0
 62
     7
 10
30.789899999999999
 20
222.41200000000001
 30
0.0
 40
3.0923400000000001
  1
（%%c5×30樹脂プラグ付）
 41
0.5
  0
TEXT
  5
2B
  8
0
 62
     7
 10
30.789899999999999
 20
227.917
 30
0.0
 40
3.0923400000000001
  1
%%c3.5×38 SUS 十字穴付皿頭タッピングネジ
 41
0.5
  0
TEXT
  5
2C
  8
0
 62
     7
 10
121.568
 20
143.39313499999989
 30
0.0
 40
3.0923400000000001
  1
600
 50
90.0
 41
0.5
 72
     1
 11
121.568
 21
145.197
 31
0.0
  0
TEXT
  5
2D
  8
0
 62
     7
 10
113.661
 20
143.26528749999991
 30
0.0
 40
3.0923400000000001
  1
550
 50
90.0
 41
0.5
 72
     1
 11
113.661
 21
145.19799999999989
 31
0.0
  0
LINE
  5
2E
  8
0
 62
     7
 10
154.21899999999991
 20
243.72499999999999
 30
0.0
 11
152.0089999999999
 21
243.1329999999999
 31
0.0
  0
LINE
  5
2F
  8
0
 62
     7
 10
152.0089999999999
 20
243.1329999999999
 30
0.0
 11
154.21899999999991
 21
242.53999999999991
 31
0.0
  0
LINE
  5
30
  8
0
 62
     7
 10
154.21899999999991
 20
242.53999999999991
 30
0.0
 11
154.21899999999991
 21
243.72499999999999
 31
0.0
  0
LINE
  5
31
  8
0
 62
     7
 10
148.29799999999989
 20
242.54099999999991
 30
0.0
 11
150.5089999999999
 21
243.1329999999999
 31
0.0
  0
LINE
  5
32
  8
0
 62
     7
 10
150.5089999999999
 20
243.1329999999999
 30
0.0
 11
148.29799999999989
 21
243.72499999999999
 31
0.0
  0
LINE
  5
33
  8
0
 62
     7
 10
148.29799999999989
 20
243.72499999999999
 30
0.0
 11
148.29799999999989
 21
242.54099999999991
 31
0.0
  0
LINE
  5
34
  8
0
 62
     7
 10
146.69799999999989
 20
243.1329999999999
 30
0.0
 11
160.42799999999991
 21
243.1329999999999
 31
0.0
  0
LINE
  5
35
  8
0
 62
     7
 10
150.59100000000001
 20
227.727
 30
0.0
 11
148.381
 21
227.13499999999991
 31
0.0
  0
LINE
  5
36
  8
0
 62
     7
 10
148.381
 20
227.13499999999991
 30
0.0
 11
150.59100000000001
 21
226.542
 31
0.0
  0
LINE
  5
37
  8
0
 62
     7
 10
150.59100000000001
 20
226.542
 30
0.0
 11
150.59100000000001
 21
227.727
 31
0.0
  0
LINE
  5
38
  8
0
 62
     7
 10
151.6699999999999
 20
226.553
 30
0.0
 11
153.88099999999989
 21
227.1459999999999
 31
0.0
  0
LINE
  5
39
  8
0
 62
     7
 10
153.88099999999989
 20
227.1459999999999
 30
0.0
 11
151.6699999999999
 21
227.73799999999989
 31
0.0
  0
LINE
  5
3A
  8
0
 62
     7
 10
151.6699999999999
 20
227.73799999999989
 30
0.0
 11
151.6699999999999
 21
226.553
 31
0.0
  0
LINE
  5
3B
  8
0
 62
     7
 10
148.381
 20
227.1399999999999
 30
0.0
 11
153.88099999999989
 21
227.1399999999999
 31
0.0
  0
LINE
  5
3C
  8
0
 62
     7
 10
80.744799999999984
 20
227.727
 30
0.0
 11
78.534400000000005
 21
227.13499999999991
 31
0.0
  0
LINE
  5
3D
  8
0
 62
     7
 10
78.534400000000005
 20
227.13499999999991
 30
0.0
 11
80.744799999999984
 21
226.542
 31
0.0
  0
LINE
  5
3E
  8
0
 62
     7
 10
80.744799999999984
 20
226.542
 30
0.0
 11
80.744799999999984
 21
227.727
 31
0.0
  0
LINE
  5
3F
  8
0
 62
     7
 10
101.32299999999989
 20
226.553
 30
0.0
 11
103.5349999999999
 21
227.1459999999999
 31
0.0
  0
LINE
  5
40
  8
0
 62
     7
 10
103.5349999999999
 20
227.1459999999999
 30
0.0
 11
101.32299999999989
 21
227.73799999999989
 31
0.0
  0
LINE
  5
41
  8
0
 62
     7
 10
101.32299999999989
 20
227.73799999999989
 30
0.0
 11
101.32299999999989
 21
226.553
 31
0.0
  0
LINE
  5
42
  8
0
 62
     7
 10
78.534400000000005
 20
227.1399999999999
 30
0.0
 11
103.5349999999999
 21
227.1399999999999
 31
0.0
  0
LINE
  5
43
  8
0
 62
     7
 10
79.244799999999984
 20
234.52799999999991
 30
0.0
 11
77.034400000000005
 21
233.93599999999989
 31
0.0
  0
LINE
  5
44
  8
0
 62
     7
 10
77.034400000000005
 20
233.93599999999989
 30
0.0
 11
79.244799999999984
 21
233.3429999999999
 31
0.0
  0
LINE
  5
45
  8
0
 62
     7
 10
79.244799999999984
 20
233.3429999999999
 30
0.0
 11
79.244799999999984
 21
234.52799999999991
 31
0.0
  0
LINE
  5
46
  8
0
 62
     7
 10
101.32299999999989
 20
233.35400000000001
 30
0.0
 11
103.5349999999999
 21
233.94599999999991
 31
0.0
  0
LINE
  5
47
  8
0
 62
     7
 10
103.5349999999999
 20
233.94599999999991
 30
0.0
 11
101.32299999999989
 21
234.53899999999999
 31
0.0
  0
LINE
  5
48
  8
0
 62
     7
 10
101.32299999999989
 20
234.53899999999999
 30
0.0
 11
101.32299999999989
 21
233.35400000000001
 31
0.0
  0
LINE
  5
49
  8
0
 62
     7
 10
77.034400000000005
 20
233.94099999999989
 30
0.0
 11
103.5349999999999
 21
233.94099999999989
 31
0.0
  0
LINE
  5
4A
  8
0
 62
     7
 10
77.034400000000005
 20
234.47099999999989
 30
0.0
 11
77.034400000000005
 21
220.68700000000001
 31
0.0
  0
LINE
  5
4B
  8
0
 62
     7
 10
78.534400000000005
 20
227.66
 30
0.0
 11
78.534400000000005
 21
199.48500000000001
 31
0.0
  0
LINE
  5
4C
  8
0
 62
     7
 10
148.381
 20
262.48500000000001
 30
0.0
 11
148.381
 21
255.48500000000001
 31
0.0
  0
LINE
  5
4D
  8
0
 62
     7
 10
153.88099999999989
 20
262.48500000000001
 30
0.0
 11
153.88099999999989
 21
255.48500000000001
 31
0.0
  0
LINE
  5
4E
  8
0
 62
     7
 10
148.381
 20
227.66
 30
0.0
 11
148.381
 21
219.02199999999999
 31
0.0
  0
LINE
  5
4F
  8
0
 62
     7
 10
153.88099999999989
 20
227.66
 30
0.0
 11
153.88099999999989
 21
219.02199999999999
 31
0.0
  0
LINE
  5
50
  8
0
 62
     7
 10
103.5349999999999
 20
234.47099999999989
 30
0.0
 11
103.5349999999999
 21
214.00999999999991
 31
0.0
  0
LINE
  5
51
  8
0
 62
     7
 10
64.932199999999995
 20
72.408100000000005
 30
0.0
 11
65.524799999999999
 21
70.197699999999998
 31
0.0
  0
LINE
  5
52
  8
0
 62
     7
 10
65.524799999999999
 20
70.197699999999998
 30
0.0
 11
66.1173
 21
72.408100000000005
 31
0.0
  0
LINE
  5
53
  8
0
 62
     7
 10
66.1173
 20
72.408100000000005
 30
0.0
 11
64.932199999999995
 21
72.408100000000005
 31
0.0
  0
LINE
  5
54
  8
0
 62
     7
 10
66.106300000000005
 20
89.236800000000002
 30
0.0
 11
65.514099999999999
 21
91.447900000000004
 31
0.0
  0
LINE
  5
55
  8
0
 62
     7
 10
65.514099999999999
 20
91.447900000000004
 30
0.0
 11
64.921499999999995
 21
89.236800000000002
 31
0.0
  0
LINE
  5
56
  8
0
 62
     7
 10
64.921499999999995
 20
89.236800000000002
 30
0.0
 11
66.106300000000005
 21
89.236800000000002
 31
0.0
  0
LINE
  5
57
  8
0
 62
     7
 10
58.31839999999999
 20
80.882400000000004
 30
0.0
 11
58.911000000000001
 21
78.671999999999997
 31
0.0
  0
LINE
  5
58
  8
0
 62
     7
 10
58.911000000000001
 20
78.671999999999997
 30
0.0
 11
59.503500000000003
 21
80.882400000000004
 31
0.0
  0
LINE
  5
59
  8
0
 62
     7
 10
59.503500000000003
 20
80.882400000000004
 30
0.0
 11
58.31839999999999
 21
80.882400000000004
 31
0.0
  0
LINE
  5
5A
  8
0
 62
     7
 10
59.4925
 20
87.461200000000005
 30
0.0
 11
58.900300000000001
 21
89.672300000000007
 31
0.0
  0
LINE
  5
5B
  8
0
 62
     7
 10
58.900300000000001
 20
89.672300000000007
 30
0.0
 11
58.307699999999997
 21
87.461200000000005
 31
0.0
  0
LINE
  5
5C
  8
0
 62
     7
 10
58.307699999999997
 20
87.461200000000005
 30
0.0
 11
59.4925
 21
87.461200000000005
 31
0.0
  0
LINE
  5
5D
  8
0
 62
     7
 10
65.514099999999999
 20
70.197699999999998
 30
0.0
 11
65.514099999999999
 21
91.447900000000004
 31
0.0
  0
LINE
  5
5E
  8
0
 62
     7
 10
64.813999999999993
 20
91.447900000000004
 30
0.0
 11
76.334299999999999
 21
91.447900000000004
 31
0.0
  0
LINE
  5
5F
  8
0
 62
     7
 10
64.813999999999993
 20
70.197699999999998
 30
0.0
 11
76.334299999999999
 21
70.197699999999998
 31
0.0
  0
LINE
  5
60
  8
0
 62
     7
 10
58.375300000000003
 20
78.671999999999997
 30
0.0
 11
67.623000000000005
 21
78.671999999999997
 31
0.0
  0
LINE
  5
61
  8
0
 62
     7
 10
58.375300000000003
 20
89.672300000000007
 30
0.0
 11
67.623000000000005
 21
89.672300000000007
 31
0.0
  0
LINE
  5
62
  8
0
 62
     7
 10
58.307699999999997
 20
91.882700000000014
 30
0.0
 11
58.900300000000001
 21
89.672300000000007
 31
0.0
  0
LINE
  5
63
  8
0
 62
     7
 10
58.900300000000001
 20
89.672300000000007
 30
0.0
 11
59.492899999999999
 21
91.882700000000014
 31
0.0
  0
LINE
  5
64
  8
0
 62
     7
 10
59.492899999999999
 20
91.882700000000014
 30
0.0
 11
58.307699999999997
 21
91.882700000000014
 31
0.0
  0
LINE
  5
65
  8
0
 62
     7
 10
58.31839999999999
 20
203.18299999999991
 30
0.0
 11
58.911000000000001
 21
200.97200000000001
 31
0.0
  0
LINE
  5
66
  8
0
 62
     7
 10
58.911000000000001
 20
200.97200000000001
 30
0.0
 11
59.503500000000003
 21
203.18299999999991
 31
0.0
  0
LINE
  5
67
  8
0
 62
     7
 10
59.503500000000003
 20
203.18299999999991
 30
0.0
 11
58.31839999999999
 21
203.18299999999991
 31
0.0
  0
LINE
  5
68
  8
0
 62
     7
 10
59.5032
 20
198.761
 30
0.0
 11
58.911000000000001
 21
200.97200000000001
 31
0.0
  0
LINE
  5
69
  8
0
 62
     7
 10
58.911000000000001
 20
200.97200000000001
 30
0.0
 11
58.31839999999999
 21
198.761
 31
0.0
  0
LINE
  5
6A
  8
0
 62
     7
 10
58.31839999999999
 20
198.761
 30
0.0
 11
59.5032
 21
198.761
 31
0.0
  0
LINE
  5
6B
  8
0
 62
     7
 10
59.4925
 20
209.76099999999991
 30
0.0
 11
58.900300000000001
 21
211.9729999999999
 31
0.0
  0
LINE
  5
6C
  8
0
 62
     7
 10
58.900300000000001
 20
211.9729999999999
 30
0.0
 11
58.307699999999997
 21
209.76099999999991
 31
0.0
  0
LINE
  5
6D
  8
0
 62
     7
 10
58.307699999999997
 20
209.76099999999991
 30
0.0
 11
59.4925
 21
209.76099999999991
 31
0.0
  0
LINE
  5
6E
  8
0
 62
     7
 10
58.905500000000011
 20
78.671999999999997
 30
0.0
 11
58.905500000000011
 21
211.9729999999999
 31
0.0
  0
LINE
  5
6F
  8
0
 62
     7
 10
58.375300000000003
 20
200.97200000000001
 30
0.0
 11
67.623000000000005
 21
200.97200000000001
 31
0.0
  0
LINE
  5
70
  8
0
 62
     7
 10
58.375300000000003
 20
211.9729999999999
 30
0.0
 11
67.623000000000005
 21
211.9729999999999
 31
0.0
  0
LINE
  5
71
  8
0
  6
AIGENLINE001
 62
     7
 10
151.2589999999999
 20
200.09700000000001
 30
0.0
 11
151.2589999999999
 21
201.84700000000001
 31
0.0
  0
LINE
  5
72
  8
0
  6
AIGENLINE001
 62
     7
 10
150.3839999999999
 20
200.97200000000001
 30
0.0
 11
152.1339999999999
 21
200.97200000000001
 31
0.0
  0
ARC
  5
73
  8
0
  6
AIGENLINE001
 62
     7
 10
151.23961800000001
 20
200.95266000000001
 30
0.0
 40
0.51919
 50
2.1291720000000001
 51
87.870818000000014
  0
ARC
  5
74
  8
0
  6
AIGENLINE001
 62
     7
 10
151.23890900000001
 20
200.99123099999991
 30
0.0
 40
0.5198970000000001
 50
272.20442500000001
 51
357.87455899999998
  0
ARC
  5
75
  8
0
  6
AIGENLINE001
 62
     7
 10
151.25890699999991
 20
200.971949
 30
0.0
 40
0.5002310000000002
 50
179.99996999999991
 51
270.00002000000001
  0
ARC
  5
76
  8
0
  6
AIGENLINE001
 62
     7
 10
151.2775399999999
 20
200.95260099999999
 30
0.0
 40
0.5192250000000001
 50
92.056557999999995
 51
177.86443799999989
  0
LINE
  5
77
  8
0
  6
AIGENLINE001
 62
     7
 10
151.2589999999999
 20
211.09599999999989
 30
0.0
 11
151.2589999999999
 21
212.84700000000001
 31
0.0
  0
LINE
  5
78
  8
0
  6
AIGENLINE001
 62
     7
 10
150.3839999999999
 20
211.97200000000001
 30
0.0
 11
152.1339999999999
 21
211.97200000000001
 31
0.0
  0
ARC
  5
79
  8
0
  6
AIGENLINE001
 62
     7
 10
151.2395689999999
 20
211.95289700000001
 30
0.0
 40
0.5192140000000001
 50
2.0554759999999992
 51
87.865539999999996
  0
ARC
  5
7A
  8
0
  6
AIGENLINE001
 62
     7
 10
151.239259
 20
211.9908099999999
 30
0.0
 40
0.519549
 50
272.16736200000003
 51
357.87214899999998
  0
ARC
  5
7B
  8
0
  6
AIGENLINE001
 62
     7
 10
151.27820299999991
 20
211.991173
 30
0.0
 40
0.519898
 50
182.16647599999999
 51
267.87302699999992
  0
ARC
  5
7C
  8
0
  6
AIGENLINE001
 62
     7
 10
151.25890699999991
 20
211.97151899999989
 30
0.0
 40
0.5002310000000002
 50
90.0
 51
179.99996999999991
  0
ARC
  5
7D
  8
0
 62
     7
 10
152.21909099999991
 20
199.31472400000001
 30
0.0
 40
0.357193
 50
267.509457
 51
276.25225699999987
  0
ARC
  5
7E
  8
0
 62
     7
 10
152.03559699999991
 20
205.81930999999989
 30
0.0
 40
6.8634969999999988
 50
269.77434299999999
 51
271.40236099999993
  0
ARC
  5
7F
  8
0
 62
     7
 10
152.26679899999991
 20
199.21884299999991
 30
0.0
 40
0.259336
 50
185.28454799999989
 51
268.05373700000001
  0
LINE
  5
80
  8
0
 62
     7
 10
150.5089999999999
 20
211.405
 30
0.0
 11
150.5089999999999
 21
211.405
 31
0.0
  0
LINE
  5
81
  8
0
 62
     7
 10
150.5089999999999
 20
212.488
 30
0.0
 11
150.5089999999999
 21
212.488
 31
0.0
  0
LINE
  5
82
  8
0
 62
     7
 10
150.6339999999999
 20
212.69599999999991
 30
0.0
 11
150.5089999999999
 21
212.69599999999991
 31
0.0
  0
LINE
  5
83
  8
0
 62
     7
 10
150.5089999999999
 20
213.822
 30
0.0
 11
150.5089999999999
 21
212.69599999999991
 31
0.0
  0
LINE
  5
84
  8
0
 62
     7
 10
150.6339999999999
 20
213.947
 30
0.0
 11
150.5089999999999
 21
213.822
 31
0.0
  0
LINE
  5
85
  8
0
 62
     7
 10
150.6339999999999
 20
213.947
 30
0.0
 11
151.8839999999999
 21
213.947
 31
0.0
  0
LINE
  5
86
  8
0
 62
     7
 10
150.6339999999999
 20
212.69599999999991
 30
0.0
 11
150.6339999999999
 21
213.947
 31
0.0
  0
LINE
  5
87
  8
0
 62
     7
 10
150.6339999999999
 20
212.69599999999991
 30
0.0
 11
151.8839999999999
 21
212.69599999999991
 31
0.0
  0
LINE
  5
88
  8
0
 62
     7
 10
152.0089999999999
 20
212.69599999999991
 30
0.0
 11
151.8839999999999
 21
212.69599999999991
 31
0.0
  0
LINE
  5
89
  8
0
 62
     7
 10
151.8839999999999
 20
213.947
 30
0.0
 11
151.8839999999999
 21
212.69599999999991
 31
0.0
  0
LINE
  5
8A
  8
0
 62
     7
 10
152.0089999999999
 20
213.822
 30
0.0
 11
151.8839999999999
 21
213.947
 31
0.0
  0
LINE
  5
8B
  8
0
 62
     7
 10
152.0089999999999
 20
212.69599999999991
 30
0.0
 11
152.0089999999999
 21
213.822
 31
0.0
  0
LINE
  5
8C
  8
0
 62
     7
 10
150.50399999999991
 20
201.55699999999999
 30
0.0
 11
150.50399999999991
 21
211.33699999999999
 31
0.0
  0
LINE
  5
8D
  8
0
 62
     7
 10
150.50399999999991
 20
212.55699999999999
 30
0.0
 11
150.50399999999991
 21
213.69900000000001
 31
0.0
  0
LINE
  5
8E
  8
0
 62
     7
 10
150.50399999999991
 20
199.20500000000001
 30
0.0
 11
150.50399999999991
 21
200.3359999999999
 31
0.0
  0
LINE
  5
8F
  8
0
 62
     7
 10
150.50399999999991
 20
198.95500000000001
 30
0.0
 11
150.50399999999991
 21
199.20500000000001
 31
0.0
  0
ARC
  5
90
  8
0
 62
     7
 10
151.1415419999999
 20
211.941711
 30
0.0
 40
0.8858679999999999
 50
136.052638
 51
179.676344
  0
LINE
  5
91
  8
0
 62
     7
 10
150.50399999999991
 20
212.55699999999999
 30
0.0
 11
150.25399999999991
 21
212.55699999999999
 31
0.0
  0
ARC
  5
92
  8
0
 62
     7
 10
151.14325700000001
 20
200.94144900000001
 30
0.0
 40
0.8875819999999999
 50
136.09730899999991
 51
179.6768219999999
  0
LINE
  5
93
  8
0
 62
     7
 10
150.25399999999991
 20
201.55699999999999
 30
0.0
 11
150.50399999999991
 21
201.55699999999999
 31
0.0
  0
ARC
  5
94
  8
0
 62
     7
 10
151.142393
 20
211.95171699999989
 30
0.0
 40
0.8867179999999999
 50
180.32324399999999
 51
223.92518899999999
  0
LINE
  5
95
  8
0
 62
     7
 10
150.25399999999991
 20
211.33699999999999
 30
0.0
 11
150.50399999999991
 21
211.33699999999999
 31
0.0
  0
ARC
  5
96
  8
0
 62
     7
 10
151.14843099999999
 20
200.95391299999989
 30
0.0
 40
0.892774
 50
180.47861199999991
 51
223.76982100000001
  0
LINE
  5
97
  8
0
 62
     7
 10
150.25399999999991
 20
200.3359999999999
 30
0.0
 11
150.50399999999991
 21
200.3359999999999
 31
0.0
  0
LINE
  5
98
  8
0
 62
     7
 10
150.5089999999999
 20
198.947
 30
0.0
 11
148.63200000000001
 21
198.947
 31
0.0
  0
LINE
  5
99
  8
0
 62
     7
 10
153.631
 20
198.947
 30
0.0
 11
152.0089999999999
 21
198.947
 31
0.0
  0
ARC
  5
9A
  8
0
 62
     7
 10
150.50052500000001
 20
226.458158
 30
0.0
 40
27.50297999999999
 50
268.96597200000002
 51
270.0067029999999
  0
ARC
  5
9B
  8
0
 62
     7
 10
149.99420199999989
 20
199.21975199999989
 30
0.0
 40
0.260288
 50
272.20041299999991
 51
357.87846300000001
  0
ARC
  5
9C
  8
0
 62
     7
 10
153.62157999999991
 20
199.20597000000001
 30
0.0
 40
0.25924
 50
272.12982899999997
 51
357.870181
  0
ARC
  5
9D
  8
0
 62
     7
 10
148.64122900000001
 20
199.20733799999991
 30
0.0
 40
0.260605
 50
182.41976399999999
 51
267.89594399999987
  0
ARC
  5
9E
  8
0
 62
     7
 10
152.883893
 20
212.45679599999991
 30
0.0
 40
0.8567629999999999
 50
174.18482900000001
 51
179.460678
  0
ARC
  5
9F
  8
0
 62
     7
 10
144.17388799999989
 20
212.317971
 30
0.0
 40
7.8608899999999986
 50
359.84022099999987
 51
1.6447909999999999
  0
ARC
  5
A0
  8
0
 62
     7
 10
81.302260000000004
 20
211.98186999999999
 30
0.0
 40
70.733184999999992
 50
359.97152399999999
 51
0.254495
  0
ARC
  5
A1
  8
0
 62
     7
 10
117.06296399999999
 20
211.9426859999999
 30
0.0
 40
34.972471999999989
 50
358.98269499999998
 51
0.006601
  0
ARC
  5
A2
  8
0
 62
     7
 10
152.32406
 20
211.355343
 30
0.0
 40
0.296046
 50
177.26192800000001
 51
186.51160899999999
  0
ARC
  5
A3
  8
0
 62
     7
 10
159.185337
 20
211.54316099999991
 30
0.0
 40
7.1590910000000001
 50
180.91991999999991
 51
181.39012
  0
LINE
  5
A4
  8
0
 62
     7
 10
150.25399999999991
 20
213.69900000000001
 30
0.0
 11
150.25399999999991
 21
212.55699999999999
 31
0.0
  0
LINE
  5
A5
  8
0
 62
     7
 10
150.25399999999991
 20
212.55699999999999
 30
0.0
 11
150.25399999999991
 21
212.37200000000001
 31
0.0
  0
ARC
  5
A6
  8
0
 62
     7
 10
1005.977
 20
214.94767899999999
 30
0.0
 40
855.72614099999998
 50
180.17248699999999
 51
180.20081399999989
  0
LINE
  5
A7
  8
0
 62
     7
 10
150.256
 20
211.94900000000001
 30
0.0
 11
150.256
 21
211.947
 31
0.0
  0
LINE
  5
A8
  8
0
 62
     7
 10
150.256
 20
211.947
 30
0.0
 11
150.256
 21
211.94499999999999
 31
0.0
  0
ARC
  5
A9
  8
0
 62
     7
 10
85.688897999999995
 20
211.94308699999999
 30
0.0
 40
64.566791000000009
 50
359.62565799999987
 51
0.001385
  0
LINE
  5
AA
  8
0
 62
     7
 10
150.25399999999991
 20
211.5209999999999
 30
0.0
 11
150.25399999999991
 21
211.33699999999999
 31
0.0
  0
LINE
  5
AB
  8
0
 62
     7
 10
150.25399999999991
 20
211.33699999999999
 30
0.0
 11
150.25399999999991
 21
201.55699999999999
 31
0.0
  0
LINE
  5
AC
  8
0
 62
     7
 10
150.25399999999991
 20
201.55699999999999
 30
0.0
 11
150.25399999999991
 21
201.37200000000001
 31
0.0
  0
ARC
  5
AD
  8
0
 62
     7
 10
1005.977
 20
203.94741899999991
 30
0.0
 40
855.72614099999998
 50
180.17248699999999
 51
180.20081399999989
  0
LINE
  5
AE
  8
0
 62
     7
 10
150.256
 20
200.9489999999999
 30
0.0
 11
150.256
 21
200.94599999999991
 31
0.0
  0
LINE
  5
AF
  8
0
 62
     7
 10
150.256
 20
200.94599999999991
 30
0.0
 11
150.256
 21
200.94399999999999
 31
0.0
  0
ARC
  5
B0
  8
0
 62
     7
 10
85.899659000000014
 20
200.94282799999991
 30
0.0
 40
64.356030000000004
 50
359.62504499999989
 51
0.001389
  0
LINE
  5
B1
  8
0
 62
     7
 10
150.25399999999991
 20
200.52199999999999
 30
0.0
 11
150.25399999999991
 21
200.3359999999999
 31
0.0
  0
LINE
  5
B2
  8
0
 62
     7
 10
150.25399999999991
 20
200.3359999999999
 30
0.0
 11
150.25399999999991
 21
199.21000000000001
 31
0.0
  0
LINE
  5
B3
  8
0
 62
     7
 10
151.7579999999999
 20
213.94900000000001
 30
0.0
 11
150.50399999999991
 21
213.94900000000001
 31
0.0
  0
ARC
  5
B4
  8
0
 62
     7
 10
150.51442
 20
213.68894900000001
 30
0.0
 40
0.260287
 50
92.352284999999995
 51
177.88460699999999
  0
ARC
  5
B5
  8
0
 62
     7
 10
152.18002899999991
 20
202.47214600000001
 30
0.0
 40
1.6689599999999991
 50
1.6967369999999991
 51
3.3186659999999999
  0
ARC
  5
B6
  8
0
 62
     7
 10
153.93893299999999
 20
202.54990599999999
 30
0.0
 40
0.09464
 50
168.50797800000001
 51
185.61843200000001
  0
ARC
  5
B7
  8
0
 62
     7
 10
155.91060200000001
 20
202.484702
 30
0.0
 40
2.0666120000000001
 50
178.448938
 51
179.35052799999991
  0
ARC
  5
B8
  8
0
 62
     7
 10
188.23290499999999
 20
201.87452099999999
 30
0.0
 40
34.394618999999992
 50
178.94443799999999
 51
179.23314599999989
  0
ARC
  5
B9
  8
0
 62
     7
 10
246.56378399999991
 20
201.46385799999999
 30
0.0
 40
92.726507999999995
 50
179.461793
 51
179.621454
  0
LINE
  5
BA
  8
0
 62
     7
 10
153.83899999999991
 20
202.07599999999999
 30
0.0
 11
153.83899999999991
 21
201.77199999999999
 31
0.0
  0
LINE
  5
BB
  8
0
 62
     7
 10
153.83899999999991
 20
201.77199999999999
 30
0.0
 11
153.83899999999991
 21
201.46700000000001
 31
0.0
  0
ARC
  5
BC
  8
0
 62
     7
 10
133.46398099999999
 20
201.17446499999991
 30
0.0
 40
20.377414000000002
 50
0.09509
 51
0.8216229999999999
  0
ARC
  5
BD
  8
0
 62
     7
 10
166.7617919999999
 20
201.3276929999999
 30
0.0
 40
12.920977000000001
 50
180.52952400000001
 51
181.29652100000001
  0
ARC
  5
BE
  8
0
 62
     7
 10
155.352587
 20
201.05641199999999
 30
0.0
 40
1.5086109999999999
 50
180.80036699999991
 51
183.10468999999989
  0
ARC
  5
BF
  8
0
 62
     7
 10
153.68014099999991
 20
201.005503
 30
0.0
 40
0.168881
 50
349.49244399999992
 51
5.455322999999999
  0
ARC
  5
C0
  8
0
 62
     7
 10
152.23278099999999
 20
212.648574
 30
0.0
 40
1.616182999999999
 50
1.6947700000000001
 51
3.3574639999999989
  0
ARC
  5
C1
  8
0
 62
     7
 10
153.92703499999999
 20
212.72568899999999
 30
0.0
 40
0.082725
 50
167.76098099999999
 51
186.17916099999999
  0
ARC
  5
C2
  8
0
 62
     7
 10
156.0454499999999
 20
212.656722
 30
0.0
 40
2.2014789999999991
 50
178.436587
 51
179.3266689999999
  0
ARC
  5
C3
  8
0
 62
     7
 10
185.41550599999999
 20
212.0921359999999
 30
0.0
 40
31.576903999999988
 50
178.9285449999999
 51
179.2417659999999
  0
ARC
  5
C4
  8
0
 62
     7
 10
246.56378399999991
 20
211.63901200000001
 30
0.0
 40
92.726507999999995
 50
179.461793
 51
179.621454
  0
LINE
  5
C5
  8
0
 62
     7
 10
153.83899999999991
 20
212.25200000000001
 30
0.0
 11
153.83899999999991
 21
211.947
 31
0.0
  0
LINE
  5
C6
  8
0
 62
     7
 10
153.83899999999991
 20
211.947
 30
0.0
 11
153.83899999999991
 21
211.64099999999999
 31
0.0
  0
ARC
  5
C7
  8
0
 62
     7
 10
133.46398099999999
 20
211.34927500000001
 30
0.0
 40
20.377414000000002
 50
0.09509
 51
0.8216229999999999
  0
ARC
  5
C8
  8
0
 62
     7
 10
166.91186499999989
 20
211.50548199999989
 30
0.0
 40
13.071071
 50
180.53650499999989
 51
181.293184
  0
ARC
  5
C9
  8
0
 62
     7
 10
155.37696800000001
 20
211.23192999999989
 30
0.0
 40
1.5329950000000001
 50
180.80123800000001
 51
183.081774
  0
ARC
  5
CA
  8
0
 62
     7
 10
153.67732000000001
 20
211.18043700000001
 30
0.0
 40
0.171678
 50
349.62327099999999
 51
5.3244949999999989
  0
LINE
  5
CB
  8
0
 62
     7
 10
153.88099999999989
 20
201.02199999999999
 30
0.0
 11
153.88099999999989
 21
199.19599999999991
 31
0.0
  0
LINE
  5
CC
  8
0
 62
     7
 10
153.88099999999989
 20
211.19599999999991
 30
0.0
 11
153.88099999999989
 21
202.52199999999999
 31
0.0
  0
LINE
  5
CD
  8
0
 62
     7
 10
153.88099999999989
 20
217.44599999999991
 30
0.0
 11
153.88099999999989
 21
212.69599999999991
 31
0.0
  0
LINE
  5
CE
  8
0
 62
     7
 10
148.381
 20
199.19599999999991
 30
0.0
 11
148.381
 21
217.44599999999991
 31
0.0
  0
ARC
  5
CF
  8
0
 62
     7
 10
167.541551
 20
215.522764
 30
0.0
 40
19.257024999999992
 50
173.22300200000001
 51
174.26669099999989
  0
ARC
  5
D0
  8
0
 62
     7
 10
151.89968899999991
 20
217.36431400000001
 30
0.0
 40
3.5071819999999989
 50
163.48098100000001
 51
172.94308699999999
  0
ARC
  5
D1
  8
0
 62
     7
 10
150.77186499999991
 20
217.63156299999989
 30
0.0
 40
2.3508040000000001
 50
145.30969799999991
 51
161.90971499999989
  0
ARC
  5
D2
  8
0
 62
     7
 10
151.18653999999989
 20
217.38166699999991
 30
0.0
 40
2.8341569999999989
 50
140.91905
 51
145.92698300000001
  0
ARC
  5
D3
  8
0
 62
     7
 10
151.20527199999989
 20
217.35949400000001
 30
0.0
 40
2.8626819999999991
 50
122.2361649999999
 51
140.81089900000001
  0
ARC
  5
D4
  8
0
 62
     7
 10
151.11620400000001
 20
217.48735400000001
 30
0.0
 40
2.707028999999999
 50
102.463311
 51
122.0851199999999
  0
ARC
  5
D5
  8
0
 62
     7
 10
151.13257400000001
 20
217.43150600000001
 30
0.0
 40
2.7650980000000001
 50
83.312314999999984
 51
102.544785
  0
ARC
  5
D6
  8
0
 62
     7
 10
151.11753899999999
 20
217.40687700000001
 30
0.0
 40
2.7913359999999998
 50
64.011557999999994
 51
83.064670999999976
  0
ARC
  5
D7
  8
0
 62
     7
 10
151.135144
 20
217.45029099999999
 30
0.0
 40
2.744599
 50
44.59189099999999
 51
63.944768999999987
  0
ARC
  5
D8
  8
0
 62
     7
 10
151.12946599999989
 20
217.446089
 30
0.0
 40
2.7515930000000002
 50
25.251714
 51
44.571207999999999
  0
ARC
  5
D9
  8
0
 62
     7
 10
151.173079
 20
217.45874800000001
 30
0.0
 40
2.7067559999999991
 50
5.7594589999999997
 51
25.40317799999999
  0
ARC
  5
DA
  8
0
 62
     7
 10
150.51702
 20
217.41736099999989
 30
0.0
 40
3.363747
 50
0.4963420000000001
 51
5.3394389999999987
  0
ARC
  5
DB
  8
0
 62
     7
 10
152.35696599999989
 20
217.45425
 30
0.0
 40
1.465797999999999
 50
359.93946
 51
2.4853959999999988
  0
ARC
  5
DC
  8
0
 62
     7
 10
151.9433249999999
 20
217.44425099999989
 30
0.0
 40
1.879500999999999
 50
2.243101999999999
 51
22.304375
  0
ARC
  5
DD
  8
0
 62
     7
 10
151.92867899999999
 20
217.4348359999999
 30
0.0
 40
1.896625999999999
 50
22.399605000000001
 51
42.113802999999997
  0
ARC
  5
DE
  8
0
 62
     7
 10
151.53367700000001
 20
217.13188699999989
 30
0.0
 40
2.3931409999999991
 50
41.152284000000002
 51
60.254901000000011
  0
ARC
  5
DF
  8
0
 62
     7
 10
151.030035
 20
216.3827289999999
 30
0.0
 40
3.2941220000000002
 50
59.113925000000002
 51
75.659143999999998
  0
ARC
  5
E0
  8
0
 62
     7
 10
151.06117199999991
 20
216.57296700000001
 30
0.0
 40
3.102145999999999
 50
75.346020999999993
 51
84.404617999999985
  0
ARC
  5
E1
  8
0
 62
     7
 10
151.12572399999991
 20
217.03305299999991
 30
0.0
 40
2.6380289999999991
 50
84.825660999999997
 51
95.496205000000003
  0
ARC
  5
E2
  8
0
 62
     7
 10
151.13780800000001
 20
216.91155000000001
 30
0.0
 40
2.7601309999999999
 50
95.504315000000005
 51
107.35997500000001
  0
ARC
  5
E3
  8
0
 62
     7
 10
151.343087
 20
216.10663299999999
 30
0.0
 40
3.5899059999999992
 50
106.6538919999999
 51
115.088272
  0
ARC
  5
E4
  8
0
 62
     7
 10
151.129164
 20
216.55921699999999
 30
0.0
 40
3.089315
 50
115.054186
 51
124.844207
  0
ARC
  5
E5
  8
0
 62
     7
 10
150.79037600000001
 20
217.05190400000001
 30
0.0
 40
2.4913989999999999
 50
124.92352700000001
 51
142.92810299999999
  0
ARC
  5
E6
  8
0
 62
     7
 10
150.38230200000001
 20
217.41015699999991
 30
0.0
 40
1.9502520000000001
 50
144.0988889999999
 51
163.20730399999991
  0
ARC
  5
E7
  8
0
 62
     7
 10
150.26901599999999
 20
217.45245499999999
 30
0.0
 40
1.829593
 50
163.45049299999999
 51
179.99228600000001
  0
LINE
  5
E8
  8
0
 62
     7
 10
150.49700000000001
 20
200.88200000000001
 30
0.0
 11
150.5089999999999
 21
201.00399999999999
 31
0.0
  0
LINE
  5
E9
  8
0
 62
     7
 10
150.5089999999999
 20
211.88999999999999
 30
0.0
 11
150.49700000000001
 21
212.01099999999991
 31
0.0
  0
LINE
  5
EA
  8
0
 62
     7
 10
154.00899999999999
 20
201.339
 30
0.0
 11
154.00899999999999
 21
201.547
 31
0.0
  0
LINE
  5
EB
  8
0
 62
     7
 10
154.00899999999999
 20
201.16
 30
0.0
 11
154.00899999999999
 21
201.339
 31
0.0
  0
LINE
  5
EC
  8
0
 62
     7
 10
154.00899999999999
 20
201.547
 30
0.0
 11
154.00899999999999
 21
202.3829999999999
 31
0.0
  0
LINE
  5
ED
  8
0
 62
     7
 10
154.00899999999999
 20
211.50399999999999
 30
0.0
 11
154.00899999999999
 21
211.71000000000001
 31
0.0
  0
LINE
  5
EE
  8
0
 62
     7
 10
154.00899999999999
 20
211.33500000000001
 30
0.0
 11
154.00899999999999
 21
211.50399999999999
 31
0.0
  0
LINE
  5
EF
  8
0
 62
     7
 10
154.00899999999999
 20
211.71000000000001
 30
0.0
 11
154.00899999999999
 21
212.55799999999991
 31
0.0
  0
LINE
  5
F0
  8
0
 62
     7
 10
154.00899999999999
 20
201.16
 30
0.0
 11
153.929
 21
201.02199999999999
 31
0.0
  0
LINE
  5
F1
  8
0
 62
     7
 10
153.929
 20
202.52199999999999
 30
0.0
 11
154.00899999999999
 21
202.3829999999999
 31
0.0
  0
LINE
  5
F2
  8
0
 62
     7
 10
153.84399999999999
 20
202.52199999999999
 30
0.0
 11
153.929
 21
202.52199999999999
 31
0.0
  0
LINE
  5
F3
  8
0
 62
     7
 10
153.929
 20
201.02199999999999
 30
0.0
 11
153.84399999999999
 21
201.02199999999999
 31
0.0
  0
LINE
  5
F4
  8
0
 62
     7
 10
154.00899999999999
 20
211.33500000000001
 30
0.0
 11
153.929
 21
211.19599999999991
 31
0.0
  0
LINE
  5
F5
  8
0
 62
     7
 10
153.929
 20
212.69599999999991
 30
0.0
 11
154.00899999999999
 21
212.55799999999991
 31
0.0
  0
LINE
  5
F6
  8
0
 62
     7
 10
153.84399999999999
 20
212.69599999999991
 30
0.0
 11
153.929
 21
212.69599999999991
 31
0.0
  0
LINE
  5
F7
  8
0
 62
     7
 10
153.929
 20
211.19599999999991
 30
0.0
 11
153.84399999999999
 21
211.19599999999991
 31
0.0
  0
LINE
  5
F8
  8
0
  6
AIGENLINE001
 62
     7
 10
151.2589999999999
 20
90.297899999999998
 30
0.0
 11
151.2589999999999
 21
88.547799999999995
 31
0.0
  0
LINE
  5
F9
  8
0
  6
AIGENLINE001
 62
     7
 10
150.3839999999999
 20
89.422499999999985
 30
0.0
 11
152.1339999999999
 21
89.422499999999985
 31
0.0
  0
ARC
  5
FA
  8
0
  6
AIGENLINE001
 62
     7
 10
151.2395929999999
 20
89.441452999999996
 30
0.0
 40
0.5192020000000001
 50
272.131821
 51
357.90769
  0
ARC
  5
FB
  8
0
  6
AIGENLINE001
 62
     7
 10
151.23891399999991
 20
89.403221000000016
 30
0.0
 40
0.5198920000000001
 50
2.1248949999999991
 51
87.796120999999985
  0
ARC
  5
FC
  8
0
  6
AIGENLINE001
 62
     7
 10
151.25890699999991
 20
89.422496999999993
 30
0.0
 40
0.5002310000000002
 50
90.0
 51
179.99996999999991
  0
ARC
  5
FD
  8
0
  6
AIGENLINE001
 62
     7
 10
151.2778889999999
 20
89.441835999999995
 30
0.0
 40
0.519573
 50
182.1331439999999
 51
267.90635900000001
  0
LINE
  5
FE
  8
0
  6
AIGENLINE001
 62
     7
 10
151.2589999999999
 20
79.297600000000003
 30
0.0
 11
151.2589999999999
 21
77.547499999999999
 31
0.0
  0
LINE
  5
FF
  8
0
  6
AIGENLINE001
 62
     7
 10
150.3839999999999
 20
78.422600000000003
 30
0.0
 11
152.1339999999999
 21
78.422600000000003
 31
0.0
  0
ARC
  5
100
  8
0
  6
AIGENLINE001
 62
     7
 10
151.2395689999999
 20
78.441205000000011
 30
0.0
 40
0.5192140000000001
 50
272.13445999999999
 51
357.944524
  0
ARC
  5
101
  8
0
  6
AIGENLINE001
 62
     7
 10
151.23891399999991
 20
78.403306000000001
 30
0.0
 40
0.5198920000000001
 50
2.1248949999999991
 51
87.796120999999985
  0
ARC
  5
102
  8
0
  6
AIGENLINE001
 62
     7
 10
151.25890699999991
 20
78.422581999999991
 30
0.0
 40
0.5002310000000002
 50
90.0
 51
179.99996999999991
  0
ARC
  5
103
  8
0
  6
AIGENLINE001
 62
     7
 10
151.27823699999999
 20
78.441913
 30
0.0
 40
0.519921
 50
182.13072999999989
 51
267.8692999999999
  0
LINE
  5
104
  8
0
 62
     7
 10
69.4696
 20
90.110100000000003
 30
0.0
 11
69.822000000000003
 21
89.235100000000003
 31
0.0
  0
LINE
  5
105
  8
0
 62
     7
 10
69.967699999999994
 20
90.110100000000003
 30
0.0
 11
70.320499999999996
 21
89.235100000000003
 31
0.0
  0
LINE
  5
106
  8
0
 62
     7
 10
70.466899999999995
 20
90.110100000000003
 30
0.0
 11
70.818700000000007
 21
89.235100000000003
 31
0.0
  0
LINE
  5
107
  8
0
 62
     7
 10
70.965500000000006
 20
90.110100000000003
 30
0.0
 11
71.317499999999995
 21
89.235100000000003
 31
0.0
  0
LINE
  5
108
  8
0
 62
     7
 10
71.4636
 20
90.110100000000003
 30
0.0
 11
71.816100000000006
 21
89.235100000000003
 31
0.0
  0
LINE
  5
109
  8
0
 62
     7
 10
71.962100000000007
 20
90.110100000000003
 30
0.0
 11
72.314599999999999
 21
89.235100000000003
 31
0.0
  0
LINE
  5
10A
  8
0
 62
     7
 10
72.460999999999999
 20
90.110100000000003
 30
0.0
 11
72.813100000000006
 21
89.235100000000003
 31
0.0
  0
LINE
  5
10B
  8
0
 62
     7
 10
72.959500000000006
 20
90.110100000000003
 30
0.0
 11
73.311899999999994
 21
89.235100000000003
 31
0.0
  0
LINE
  5
10C
  8
0
 62
     7
 10
73.457999999999998
 20
90.110100000000003
 30
0.0
 11
73.810400000000001
 21
89.235100000000003
 31
0.0
  0
LINE
  5
10D
  8
0
 62
     7
 10
76.447999999999993
 20
90.110100000000003
 30
0.0
 11
76.800399999999996
 21
89.235100000000003
 31
0.0
  0
LINE
  5
10E
  8
0
 62
     7
 10
75.9495
 20
90.110100000000003
 30
0.0
 11
76.301900000000003
 21
89.235100000000003
 31
0.0
  0
LINE
  5
10F
  8
0
 62
     7
 10
75.451000000000008
 20
90.110100000000003
 30
0.0
 11
75.803799999999995
 21
89.235100000000003
 31
0.0
  0
LINE
  5
110
  8
0
 62
     7
 10
74.952799999999996
 20
90.110100000000003
 30
0.0
 11
75.305300000000003
 21
89.235100000000003
 31
0.0
  0
LINE
  5
111
  8
0
 62
     7
 10
74.454700000000003
 20
90.110100000000003
 30
0.0
 11
74.806799999999996
 21
89.235100000000003
 31
0.0
  0
LINE
  5
112
  8
0
 62
     7
 10
73.956199999999995
 20
90.110100000000003
 30
0.0
 11
74.308599999999998
 21
89.235100000000003
 31
0.0
  0
LINE
  5
113
  8
0
 62
     7
 10
69.297300000000007
 20
89.881699999999995
 30
0.0
 11
68.784400000000005
 21
89.672300000000007
 31
0.0
  0
LINE
  5
114
  8
0
 62
     7
 10
69.297300000000007
 20
89.463099999999997
 30
0.0
 11
68.784400000000005
 21
89.672300000000007
 31
0.0
  0
LINE
  5
115
  8
0
 62
     7
 10
69.297300000000007
 20
89.463099999999997
 30
0.0
 11
77.034400000000005
 21
89.463099999999997
 31
0.0
  0
LINE
  5
116
  8
0
 62
     7
 10
69.297300000000007
 20
89.881699999999995
 30
0.0
 11
77.034400000000005
 21
89.881699999999995
 31
0.0
  0
LINE
  5
117
  8
0
  6
AIGENLINE001
 62
     7
 10
68.147999999999996
 20
89.672300000000007
 30
0.0
 11
77.739199999999997
 21
89.672300000000007
 31
0.0
  0
LINE
  5
118
  8
0
 62
     7
 10
69.4696
 20
79.109899999999996
 30
0.0
 11
69.822000000000003
 21
78.234800000000007
 31
0.0
  0
LINE
  5
119
  8
0
 62
     7
 10
69.967699999999994
 20
79.109899999999996
 30
0.0
 11
70.320499999999996
 21
78.234800000000007
 31
0.0
  0
LINE
  5
11A
  8
0
 62
     7
 10
70.466899999999995
 20
79.109899999999996
 30
0.0
 11
70.818700000000007
 21
78.234800000000007
 31
0.0
  0
LINE
  5
11B
  8
0
 62
     7
 10
70.965500000000006
 20
79.109899999999996
 30
0.0
 11
71.317499999999995
 21
78.234800000000007
 31
0.0
  0
LINE
  5
11C
  8
0
 62
     7
 10
71.4636
 20
79.109899999999996
 30
0.0
 11
71.816100000000006
 21
78.234800000000007
 31
0.0
  0
LINE
  5
11D
  8
0
 62
     7
 10
71.962100000000007
 20
79.109899999999996
 30
0.0
 11
72.314599999999999
 21
78.234800000000007
 31
0.0
  0
LINE
  5
11E
  8
0
 62
     7
 10
72.460999999999999
 20
79.109899999999996
 30
0.0
 11
72.813100000000006
 21
78.234800000000007
 31
0.0
  0
LINE
  5
11F
  8
0
 62
     7
 10
72.959500000000006
 20
79.109899999999996
 30
0.0
 11
73.311899999999994
 21
78.234800000000007
 31
0.0
  0
LINE
  5
120
  8
0
 62
     7
 10
73.457999999999998
 20
79.109899999999996
 30
0.0
 11
73.810400000000001
 21
78.234800000000007
 31
0.0
  0
LINE
  5
121
  8
0
 62
     7
 10
76.447999999999993
 20
79.109899999999996
 30
0.0
 11
76.800399999999996
 21
78.234800000000007
 31
0.0
  0
LINE
  5
122
  8
0
 62
     7
 10
75.9495
 20
79.109899999999996
 30
0.0
 11
76.301900000000003
 21
78.234800000000007
 31
0.0
  0
LINE
  5
123
  8
0
 62
     7
 10
75.451000000000008
 20
79.109899999999996
 30
0.0
 11
75.803799999999995
 21
78.234800000000007
 31
0.0
  0
LINE
  5
124
  8
0
 62
     7
 10
74.952799999999996
 20
79.109899999999996
 30
0.0
 11
75.305300000000003
 21
78.234800000000007
 31
0.0
  0
LINE
  5
125
  8
0
 62
     7
 10
74.454700000000003
 20
79.109899999999996
 30
0.0
 11
74.806799999999996
 21
78.234800000000007
 31
0.0
  0
LINE
  5
126
  8
0
 62
     7
 10
73.956199999999995
 20
79.109899999999996
 30
0.0
 11
74.308599999999998
 21
78.234800000000007
 31
0.0
  0
LINE
  5
127
  8
0
 62
     7
 10
69.297300000000007
 20
78.881500000000003
 30
0.0
 11
68.784400000000005
 21
78.672399999999996
 31
0.0
  0
LINE
  5
128
  8
0
 62
     7
 10
69.297300000000007
 20
78.4636
 30
0.0
 11
68.784400000000005
 21
78.672399999999996
 31
0.0
  0
LINE
  5
129
  8
0
 62
     7
 10
69.297300000000007
 20
78.4636
 30
0.0
 11
77.034400000000005
 21
78.4636
 31
0.0
  0
LINE
  5
12A
  8
0
 62
     7
 10
69.297300000000007
 20
78.881500000000003
 30
0.0
 11
77.034400000000005
 21
78.881500000000003
 31
0.0
  0
LINE
  5
12B
  8
0
  6
AIGENLINE001
 62
     7
 10
68.147999999999996
 20
78.672399999999996
 30
0.0
 11
77.739199999999997
 21
78.672399999999996
 31
0.0
  0
LINE
  5
12C
  8
0
 62
     7
 10
151.696
 20
270.05000000000001
 30
0.0
 11
150.821
 21
269.69799999999992
 31
0.0
  0
LINE
  5
12D
  8
0
 62
     7
 10
151.696
 20
269.55200000000002
 30
0.0
 11
150.821
 21
269.19900000000001
 31
0.0
  0
LINE
  5
12E
  8
0
 62
     7
 10
151.696
 20
269.05299999999988
 30
0.0
 11
150.821
 21
268.70099999999991
 31
0.0
  0
LINE
  5
12F
  8
0
 62
     7
 10
151.696
 20
268.55399999999997
 30
0.0
 11
150.821
 21
268.202
 31
0.0
  0
LINE
  5
130
  8
0
 62
     7
 10
151.696
 20
268.05599999999993
 30
0.0
 11
150.821
 21
267.70400000000001
 31
0.0
  0
LINE
  5
131
  8
0
 62
     7
 10
151.696
 20
267.55700000000002
 30
0.0
 11
150.821
 21
267.20499999999998
 31
0.0
  0
LINE
  5
132
  8
0
 62
     7
 10
151.696
 20
267.05900000000003
 30
0.0
 11
150.821
 21
266.70699999999988
 31
0.0
  0
LINE
  5
133
  8
0
 62
     7
 10
151.696
 20
266.55999999999989
 30
0.0
 11
150.821
 21
266.20799999999991
 31
0.0
  0
LINE
  5
134
  8
0
 62
     7
 10
151.696
 20
266.06200000000001
 30
0.0
 11
150.821
 21
265.709
 31
0.0
  0
LINE
  5
135
  8
0
 62
     7
 10
151.696
 20
263.072
 30
0.0
 11
150.821
 21
262.71899999999999
 31
0.0
  0
LINE
  5
136
  8
0
 62
     7
 10
151.696
 20
263.56999999999988
 30
0.0
 11
150.821
 21
263.21800000000002
 31
0.0
  0
LINE
  5
137
  8
0
 62
     7
 10
151.696
 20
264.06900000000002
 30
0.0
 11
150.821
 21
263.71600000000001
 31
0.0
  0
LINE
  5
138
  8
0
 62
     7
 10
151.696
 20
264.56699999999989
 30
0.0
 11
150.821
 21
264.21399999999988
 31
0.0
  0
LINE
  5
139
  8
0
 62
     7
 10
151.696
 20
265.065
 30
0.0
 11
150.821
 21
264.71299999999991
 31
0.0
  0
LINE
  5
13A
  8
0
 62
     7
 10
151.696
 20
265.56299999999987
 30
0.0
 11
150.821
 21
265.2109999999999
 31
0.0
  0
LINE
  5
13B
  8
0
 62
     7
 10
151.46799999999999
 20
270.22199999999998
 30
0.0
 11
151.2589999999999
 21
270.73500000000001
 31
0.0
  0
LINE
  5
13C
  8
0
 62
     7
 10
151.05000000000001
 20
270.22199999999998
 30
0.0
 11
151.2589999999999
 21
270.73500000000001
 31
0.0
  0
LINE
  5
13D
  8
0
 62
     7
 10
151.05000000000001
 20
270.22199999999998
 30
0.0
 11
151.05000000000001
 21
262.48500000000001
 31
0.0
  0
LINE
  5
13E
  8
0
 62
     7
 10
151.46799999999999
 20
270.22199999999998
 30
0.0
 11
151.46799999999999
 21
262.48500000000001
 31
0.0
  0
LINE
  5
13F
  8
0
  6
AIGENLINE001
 62
     7
 10
151.2589999999999
 20
271.37200000000001
 30
0.0
 11
151.2589999999999
 21
261.77999999999992
 31
0.0
  0
LINE
  5
140
  8
0
 62
     7
 10
69.4696
 20
212.40999999999991
 30
0.0
 11
69.822000000000003
 21
211.53499999999991
 31
0.0
  0
LINE
  5
141
  8
0
 62
     7
 10
69.967699999999994
 20
212.40999999999991
 30
0.0
 11
70.320499999999996
 21
211.53499999999991
 31
0.0
  0
LINE
  5
142
  8
0
 62
     7
 10
70.466899999999995
 20
212.40999999999991
 30
0.0
 11
70.818700000000007
 21
211.53499999999991
 31
0.0
  0
LINE
  5
143
  8
0
 62
     7
 10
70.965500000000006
 20
212.40999999999991
 30
0.0
 11
71.317499999999995
 21
211.53499999999991
 31
0.0
  0
LINE
  5
144
  8
0
 62
     7
 10
71.4636
 20
212.40999999999991
 30
0.0
 11
71.816100000000006
 21
211.53499999999991
 31
0.0
  0
LINE
  5
145
  8
0
 62
     7
 10
71.962100000000007
 20
212.40999999999991
 30
0.0
 11
72.314599999999999
 21
211.53499999999991
 31
0.0
  0
LINE
  5
146
  8
0
 62
     7
 10
72.460999999999999
 20
212.40999999999991
 30
0.0
 11
72.813100000000006
 21
211.53499999999991
 31
0.0
  0
LINE
  5
147
  8
0
 62
     7
 10
72.959500000000006
 20
212.40999999999991
 30
0.0
 11
73.311899999999994
 21
211.53499999999991
 31
0.0
  0
LINE
  5
148
  8
0
 62
     7
 10
73.457999999999998
 20
212.40999999999991
 30
0.0
 11
73.810400000000001
 21
211.53499999999991
 31
0.0
  0
LINE
  5
149
  8
0
 62
     7
 10
76.447999999999993
 20
212.40999999999991
 30
0.0
 11
76.800399999999996
 21
211.53499999999991
 31
0.0
  0
LINE
  5
14A
  8
0
 62
     7
 10
75.9495
 20
212.40999999999991
 30
0.0
 11
76.301900000000003
 21
211.53499999999991
 31
0.0
  0
LINE
  5
14B
  8
0
 62
     7
 10
75.451000000000008
 20
212.40999999999991
 30
0.0
 11
75.803799999999995
 21
211.53499999999991
 31
0.0
  0
LINE
  5
14C
  8
0
 62
     7
 10
74.952799999999996
 20
212.40999999999991
 30
0.0
 11
75.305300000000003
 21
211.53499999999991
 31
0.0
  0
LINE
  5
14D
  8
0
 62
     7
 10
74.454700000000003
 20
212.40999999999991
 30
0.0
 11
74.806799999999996
 21
211.53499999999991
 31
0.0
  0
LINE
  5
14E
  8
0
 62
     7
 10
73.956199999999995
 20
212.40999999999991
 30
0.0
 11
74.308599999999998
 21
211.53499999999991
 31
0.0
  0
LINE
  5
14F
  8
0
 62
     7
 10
69.297300000000007
 20
212.18199999999999
 30
0.0
 11
68.784400000000005
 21
211.97200000000001
 31
0.0
  0
LINE
  5
150
  8
0
 62
     7
 10
69.297300000000007
 20
211.76300000000001
 30
0.0
 11
68.784400000000005
 21
211.97200000000001
 31
0.0
  0
LINE
  5
151
  8
0
 62
     7
 10
69.297300000000007
 20
211.76300000000001
 30
0.0
 11
77.034400000000005
 21
211.76300000000001
 31
0.0
  0
LINE
  5
152
  8
0
 62
     7
 10
69.297300000000007
 20
212.18199999999999
 30
0.0
 11
77.034400000000005
 21
212.18199999999999
 31
0.0
  0
LINE
  5
153
  8
0
  6
AIGENLINE001
 62
     7
 10
68.147999999999996
 20
211.97200000000001
 30
0.0
 11
77.739199999999997
 21
211.97200000000001
 31
0.0
  0
LINE
  5
154
  8
0
 62
     7
 10
69.4696
 20
201.41
 30
0.0
 11
69.822000000000003
 21
200.53499999999991
 31
0.0
  0
LINE
  5
155
  8
0
 62
     7
 10
69.967699999999994
 20
201.41
 30
0.0
 11
70.320499999999996
 21
200.53499999999991
 31
0.0
  0
LINE
  5
156
  8
0
 62
     7
 10
70.466899999999995
 20
201.41
 30
0.0
 11
70.818700000000007
 21
200.53499999999991
 31
0.0
  0
LINE
  5
157
  8
0
 62
     7
 10
70.965500000000006
 20
201.41
 30
0.0
 11
71.317499999999995
 21
200.53499999999991
 31
0.0
  0
LINE
  5
158
  8
0
 62
     7
 10
71.4636
 20
201.41
 30
0.0
 11
71.816100000000006
 21
200.53499999999991
 31
0.0
  0
LINE
  5
159
  8
0
 62
     7
 10
71.962100000000007
 20
201.41
 30
0.0
 11
72.314599999999999
 21
200.53499999999991
 31
0.0
  0
LINE
  5
15A
  8
0
 62
     7
 10
72.460999999999999
 20
201.41
 30
0.0
 11
72.813100000000006
 21
200.53499999999991
 31
0.0
  0
LINE
  5
15B
  8
0
 62
     7
 10
72.959500000000006
 20
201.41
 30
0.0
 11
73.311899999999994
 21
200.53499999999991
 31
0.0
  0
LINE
  5
15C
  8
0
 62
     7
 10
73.457999999999998
 20
201.41
 30
0.0
 11
73.810400000000001
 21
200.53499999999991
 31
0.0
  0
LINE
  5
15D
  8
0
 62
     7
 10
76.447999999999993
 20
201.41
 30
0.0
 11
76.800399999999996
 21
200.53499999999991
 31
0.0
  0
LINE
  5
15E
  8
0
 62
     7
 10
75.9495
 20
201.41
 30
0.0
 11
76.301900000000003
 21
200.53499999999991
 31
0.0
  0
LINE
  5
15F
  8
0
 62
     7
 10
75.451000000000008
 20
201.41
 30
0.0
 11
75.803799999999995
 21
200.53499999999991
 31
0.0
  0
LINE
  5
160
  8
0
 62
     7
 10
74.952799999999996
 20
201.41
 30
0.0
 11
75.305300000000003
 21
200.53499999999991
 31
0.0
  0
LINE
  5
161
  8
0
 62
     7
 10
74.454700000000003
 20
201.41
 30
0.0
 11
74.806799999999996
 21
200.53499999999991
 31
0.0
  0
LINE
  5
162
  8
0
 62
     7
 10
73.956199999999995
 20
201.41
 30
0.0
 11
74.308599999999998
 21
200.53499999999991
 31
0.0
  0
LINE
  5
163
  8
0
 62
     7
 10
69.297300000000007
 20
201.1809999999999
 30
0.0
 11
68.784400000000005
 21
200.97200000000001
 31
0.0
  0
LINE
  5
164
  8
0
 62
     7
 10
69.297300000000007
 20
200.76400000000001
 30
0.0
 11
68.784400000000005
 21
200.97200000000001
 31
0.0
  0
LINE
  5
165
  8
0
 62
     7
 10
69.297300000000007
 20
200.76400000000001
 30
0.0
 11
77.034400000000005
 21
200.76400000000001
 31
0.0
  0
LINE
  5
166
  8
0
 62
     7
 10
69.297300000000007
 20
201.1809999999999
 30
0.0
 11
77.034400000000005
 21
201.1809999999999
 31
0.0
  0
LINE
  5
167
  8
0
  6
AIGENLINE001
 62
     7
 10
68.147999999999996
 20
200.97200000000001
 30
0.0
 11
77.739199999999997
 21
200.97200000000001
 31
0.0
  0
ARC
  5
168
  8
0
 62
     7
 10
152.22108199999991
 20
91.087858999999995
 30
0.0
 40
0.348889
 50
83.927338000000006
 51
92.579937000000001
  0
ARC
  5
169
  8
0
 62
     7
 10
152.03674599999991
 20
83.929839000000001
 30
0.0
 40
7.5084489999999997
 50
88.713083999999995
 51
90.215041000000014
  0
ARC
  5
16A
  8
0
 62
     7
 10
152.26679899999991
 20
91.175602999999995
 30
0.0
 40
0.259336
 50
91.946263000000016
 51
174.715452
  0
LINE
  5
16B
  8
0
 62
     7
 10
150.5089999999999
 20
78.9893
 30
0.0
 11
150.5089999999999
 21
78.9893
 31
0.0
  0
LINE
  5
16C
  8
0
 62
     7
 10
150.5089999999999
 20
77.906199999999998
 30
0.0
 11
150.5089999999999
 21
77.906199999999998
 31
0.0
  0
LINE
  5
16D
  8
0
 62
     7
 10
150.5089999999999
 20
235.98500000000001
 30
0.0
 11
150.5089999999999
 21
255.48500000000001
 31
0.0
  0
LINE
  5
16E
  8
0
 62
     7
 10
152.0089999999999
 20
255.48500000000001
 30
0.0
 11
152.0089999999999
 21
235.98500000000001
 31
0.0
  0
LINE
  5
16F
  8
0
 62
     7
 10
150.5089999999999
 20
77.697699999999998
 30
0.0
 11
150.5089999999999
 21
212.697
 31
0.0
  0
LINE
  5
170
  8
0
 62
     7
 10
152.0089999999999
 20
212.697
 30
0.0
 11
152.0089999999999
 21
77.697699999999998
 31
0.0
  0
LINE
  5
171
  8
0
 62
     7
 10
150.6339999999999
 20
77.697699999999998
 30
0.0
 11
150.5089999999999
 21
77.697699999999998
 31
0.0
  0
LINE
  5
172
  8
0
 62
     7
 10
150.5089999999999
 20
76.572599999999994
 30
0.0
 11
150.5089999999999
 21
77.697699999999998
 31
0.0
  0
LINE
  5
173
  8
0
 62
     7
 10
150.6339999999999
 20
76.447800000000001
 30
0.0
 11
150.5089999999999
 21
76.572599999999994
 31
0.0
  0
LINE
  5
174
  8
0
 62
     7
 10
150.6339999999999
 20
76.447800000000001
 30
0.0
 11
151.8839999999999
 21
76.447800000000001
 31
0.0
  0
LINE
  5
175
  8
0
 62
     7
 10
150.6339999999999
 20
77.697699999999998
 30
0.0
 11
150.6339999999999
 21
76.447800000000001
 31
0.0
  0
LINE
  5
176
  8
0
 62
     7
 10
150.6339999999999
 20
77.697699999999998
 30
0.0
 11
151.8839999999999
 21
77.697699999999998
 31
0.0
  0
LINE
  5
177
  8
0
 62
     7
 10
151.8839999999999
 20
77.697699999999998
 30
0.0
 11
151.8839999999999
 21
212.697
 31
0.0
  0
LINE
  5
178
  8
0
 62
     7
 10
150.6339999999999
 20
212.697
 30
0.0
 11
150.6339999999999
 21
77.697699999999998
 31
0.0
  0
LINE
  5
179
  8
0
 62
     7
 10
152.0089999999999
 20
77.697699999999998
 30
0.0
 11
151.8839999999999
 21
77.697699999999998
 31
0.0
  0
LINE
  5
17A
  8
0
 62
     7
 10
151.8839999999999
 20
76.447800000000001
 30
0.0
 11
151.8839999999999
 21
77.697699999999998
 31
0.0
  0
LINE
  5
17B
  8
0
 62
     7
 10
152.0089999999999
 20
76.572599999999994
 30
0.0
 11
151.8839999999999
 21
76.447800000000001
 31
0.0
  0
LINE
  5
17C
  8
0
 62
     7
 10
152.0089999999999
 20
77.697699999999998
 30
0.0
 11
152.0089999999999
 21
76.572599999999994
 31
0.0
  0
LINE
  5
17D
  8
0
 62
     7
 10
150.50399999999991
 20
88.837500000000006
 30
0.0
 11
150.50399999999991
 21
79.057900000000004
 31
0.0
  0
LINE
  5
17E
  8
0
 62
     7
 10
150.50399999999991
 20
77.837599999999995
 30
0.0
 11
150.50399999999991
 21
76.695899999999995
 31
0.0
  0
LINE
  5
17F
  8
0
 62
     7
 10
150.50399999999991
 20
91.188800000000001
 30
0.0
 11
150.50399999999991
 21
90.058099999999996
 31
0.0
  0
LINE
  5
180
  8
0
 62
     7
 10
150.50399999999991
 20
91.438900000000004
 30
0.0
 11
150.50399999999991
 21
91.188800000000001
 31
0.0
  0
ARC
  5
181
  8
0
 62
     7
 10
151.14155799999989
 20
78.452396999999991
 30
0.0
 40
0.8858829999999999
 50
180.32405399999999
 51
223.94696499999989
  0
LINE
  5
182
  8
0
 62
     7
 10
150.50399999999991
 20
77.837599999999995
 30
0.0
 11
150.25399999999991
 21
77.837599999999995
 31
0.0
  0
ARC
  5
183
  8
0
 62
     7
 10
151.142415
 20
89.452657999999985
 30
0.0
 40
0.8867399999999999
 50
180.32381399999991
 51
223.92461900000001
  0
LINE
  5
184
  8
0
 62
     7
 10
150.25399999999991
 20
88.837500000000006
 30
0.0
 11
150.50399999999991
 21
88.837500000000006
 31
0.0
  0
ARC
  5
185
  8
0
 62
     7
 10
151.14390800000001
 20
78.44211700000001
 30
0.0
 40
0.8882339999999999
 50
136.11413099999999
 51
179.65999899999991
  0
LINE
  5
186
  8
0
 62
     7
 10
150.25399999999991
 20
79.057900000000004
 30
0.0
 11
150.50399999999991
 21
79.057900000000004
 31
0.0
  0
ARC
  5
187
  8
0
 62
     7
 10
151.14843899999991
 20
89.440534999999997
 30
0.0
 40
0.8927790000000001
 50
136.23057600000001
 51
179.543555
  0
LINE
  5
188
  8
0
 62
     7
 10
150.25399999999991
 20
90.058099999999996
 30
0.0
 11
150.50399999999991
 21
90.058099999999996
 31
0.0
  0
LINE
  5
189
  8
0
 62
     7
 10
150.5089999999999
 20
91.447500000000005
 30
0.0
 11
148.63200000000001
 21
91.447500000000005
 31
0.0
  0
LINE
  5
18A
  8
0
 62
     7
 10
153.631
 20
91.447500000000005
 30
0.0
 11
152.0089999999999
 21
91.447500000000005
 31
0.0
  0
ARC
  5
18B
  8
0
 62
     7
 10
150.50052500000001
 20
61.644371
 30
0.0
 40
29.794553999999991
 50
89.993812000000005
 51
90.954490000000007
  0
ARC
  5
18C
  8
0
 62
     7
 10
149.99418099999991
 20
91.174673999999996
 30
0.0
 40
0.260309
 50
2.125891999999999
 51
87.795232999999996
  0
ARC
  5
18D
  8
0
 62
     7
 10
153.62123099999991
 20
91.188140999999987
 30
0.0
 40
0.259588
 50
2.1249889999999989
 51
87.795918
  0
ARC
  5
18E
  8
0
 62
     7
 10
148.64125300000001
 20
91.187099000000003
 30
0.0
 40
0.260615
 50
92.109307999999984
 51
177.654066
  0
ARC
  5
18F
  8
0
 62
     7
 10
152.89196599999991
 20
77.937747000000002
 30
0.0
 40
0.8648369999999999
 50
180.5407129999999
 51
185.78830500000001
  0
ARC
  5
190
  8
0
 62
     7
 10
144.1740409999999
 20
78.076153000000005
 30
0.0
 40
7.8607369999999994
 50
358.35520899999989
 51
0.159618
  0
ARC
  5
191
  8
0
 62
     7
 10
81.583031000000005
 20
78.411677999999995
 30
0.0
 40
70.452414000000005
 50
359.74494099999998
 51
0.02904
  0
ARC
  5
192
  8
0
 62
     7
 10
117.024756
 20
78.451421999999994
 30
0.0
 40
35.010680000000001
 50
359.99339700000002
 51
1.01675
  0
ARC
  5
193
  8
0
 62
     7
 10
152.33346399999991
 20
79.038286999999997
 30
0.0
 40
0.305482
 50
173.53637000000001
 51
182.736752
  0
ARC
  5
194
  8
0
 62
     7
 10
159.535403
 20
78.84309300000001
 30
0.0
 40
7.5092449999999991
 50
178.62179900000001
 51
179.060461
  0
LINE
  5
195
  8
0
 62
     7
 10
150.25399999999991
 20
76.695899999999995
 30
0.0
 11
150.25399999999991
 21
77.837599999999995
 31
0.0
  0
LINE
  5
196
  8
0
 62
     7
 10
150.25399999999991
 20
77.837599999999995
 30
0.0
 11
150.25399999999991
 21
78.022599999999997
 31
0.0
  0
ARC
  5
197
  8
0
 62
     7
 10
1028.386
 20
75.371268999999998
 30
0.0
 40
878.13592100000005
 50
179.799407
 51
179.826988
  0
LINE
  5
198
  8
0
 62
     7
 10
150.256
 20
78.445300000000003
 30
0.0
 11
150.256
 21
78.447400000000002
 31
0.0
  0
LINE
  5
199
  8
0
 62
     7
 10
150.256
 20
78.447400000000002
 30
0.0
 11
150.256
 21
78.4495
 31
0.0
  0
ARC
  5
19A
  8
0
 62
     7
 10
85.584215999999998
 20
78.451016999999993
 30
0.0
 40
64.671472999999992
 50
359.99861499999992
 51
0.374039
  0
LINE
  5
19B
  8
0
 62
     7
 10
150.25399999999991
 20
78.873199999999997
 30
0.0
 11
150.25399999999991
 21
79.057900000000004
 31
0.0
  0
LINE
  5
19C
  8
0
 62
     7
 10
150.25399999999991
 20
79.057900000000004
 30
0.0
 11
150.25399999999991
 21
88.837500000000006
 31
0.0
  0
LINE
  5
19D
  8
0
 62
     7
 10
150.25399999999991
 20
88.837500000000006
 30
0.0
 11
150.25399999999991
 21
89.022499999999994
 31
0.0
  0
ARC
  5
19E
  8
0
 62
     7
 10
1038.993999999999
 20
86.339134999999999
 30
0.0
 40
888.74335399999995
 50
179.79971299999991
 51
179.826987
  0
LINE
  5
19F
  8
0
 62
     7
 10
150.256
 20
89.445599999999999
 30
0.0
 11
150.256
 21
89.447599999999994
 31
0.0
  0
LINE
  5
1A0
  8
0
 62
     7
 10
150.256
 20
89.447599999999994
 30
0.0
 11
150.256
 21
89.449700000000007
 31
0.0
  0
ARC
  5
1A1
  8
0
 62
     7
 10
85.794321999999994
 20
89.451273999999998
 30
0.0
 40
64.46136700000001
 50
359.99861299999998
 51
0.374648
  0
LINE
  5
1A2
  8
0
 62
     7
 10
150.25399999999991
 20
89.872799999999998
 30
0.0
 11
150.25399999999991
 21
90.058099999999996
 31
0.0
  0
LINE
  5
1A3
  8
0
 62
     7
 10
150.25399999999991
 20
90.058099999999996
 30
0.0
 11
150.25399999999991
 21
91.184299999999993
 31
0.0
  0
LINE
  5
1A4
  8
0
 62
     7
 10
151.7579999999999
 20
76.445400000000006
 30
0.0
 11
150.50399999999991
 21
76.445400000000006
 31
0.0
  0
ARC
  5
1A5
  8
0
 62
     7
 10
150.51441
 20
76.705487000000005
 30
0.0
 40
0.260276
 50
182.11321100000001
 51
267.64989700000001
  0
ARC
  5
1A6
  8
0
 62
     7
 10
152.220955
 20
87.920858999999993
 30
0.0
 40
1.6280190000000001
 50
356.64858099999992
 51
358.29918599999991
  0
ARC
  5
1A7
  8
0
 62
     7
 10
153.939131
 20
87.844553000000005
 30
0.0
 40
0.094836
 50
174.397188
 51
191.47528
  0
ARC
  5
1A8
  8
0
 62
     7
 10
155.91088199999999
 20
87.909758999999994
 30
0.0
 40
2.0668919999999988
 50
180.64979
 51
181.551109
  0
ARC
  5
1A9
  8
0
 62
     7
 10
189.09291599999989
 20
88.534547999999987
 30
0.0
 40
35.254753000000001
 50
180.77246999999991
 51
181.05357499999991
  0
ARC
  5
1AA
  8
0
 62
     7
 10
244.62704099999999
 20
88.914749999999984
 30
0.0
 40
90.789704999999998
 50
180.37684299999989
 51
180.53990999999999
  0
LINE
  5
1AB
  8
0
 62
     7
 10
153.83899999999991
 20
88.317599999999999
 30
0.0
 11
153.83899999999991
 21
88.622500000000016
 31
0.0
  0
LINE
  5
1AC
  8
0
 62
     7
 10
153.83899999999991
 20
88.622500000000016
 30
0.0
 11
153.83899999999991
 21
88.927400000000006
 31
0.0
  0
ARC
  5
1AD
  8
0
 62
     7
 10
133.47109599999999
 20
89.219534999999979
 30
0.0
 40
20.370297999999998
 50
359.17837600000001
 51
359.9061319999999
  0
ARC
  5
1AE
  8
0
 62
     7
 10
166.76108099999999
 20
89.066181999999998
 30
0.0
 40
12.920271
 50
178.70240000000001
 51
179.46791099999999
  0
ARC
  5
1AF
  8
0
 62
     7
 10
155.379368
 20
89.337244999999996
 30
0.0
 40
1.5353950000000001
 50
176.920008
 51
179.19697999999991
  0
ARC
  5
1B0
  8
0
 62
     7
 10
153.67890800000001
 20
89.388770999999991
 30
0.0
 40
0.170125
 50
354.526475
 51
10.488928
  0
ARC
  5
1B1
  8
0
 62
     7
 10
152.22689799999989
 20
77.745788000000005
 30
0.0
 40
1.622072
 50
356.645554
 51
358.30221199999988
  0
ARC
  5
1B2
  8
0
 62
     7
 10
153.93625599999999
 20
77.669522000000001
 30
0.0
 40
0.091976
 50
174.2221899999999
 51
191.69663999999989
  0
ARC
  5
1B3
  8
0
 62
     7
 10
155.965656
 20
77.735615999999993
 30
0.0
 40
2.1216699999999991
 50
180.65102699999991
 51
181.53503399999991
  0
ARC
  5
1B4
  8
0
 62
     7
 10
187.220271
 20
78.329894999999993
 30
0.0
 40
33.381875999999991
 50
180.76458500000001
 51
181.06146100000001
  0
ARC
  5
1B5
  8
0
 62
     7
 10
244.62704099999999
 20
78.739941000000002
 30
0.0
 40
90.789704999999998
 50
180.37684299999989
 51
180.53990999999999
  0
LINE
  5
1B6
  8
0
 62
     7
 10
153.83899999999991
 20
78.142799999999994
 30
0.0
 11
153.83899999999991
 21
78.447400000000002
 31
0.0
  0
LINE
  5
1B7
  8
0
 62
     7
 10
153.83899999999991
 20
78.447400000000002
 30
0.0
 11
153.83899999999991
 21
78.752600000000001
 31
0.0
  0
ARC
  5
1B8
  8
0
 62
     7
 10
133.46398099999999
 20
79.044826999999984
 30
0.0
 40
20.377414000000002
 50
359.17837700000001
 51
359.90490999999997
  0
ARC
  5
1B9
  8
0
 62
     7
 10
166.8505659999999
 20
78.890185000000002
 30
0.0
 40
13.00976099999999
 50
178.70609599999989
 51
179.46785800000001
  0
ARC
  5
1BA
  8
0
 62
     7
 10
155.35492699999989
 20
79.162801000000002
 30
0.0
 40
1.5109520000000001
 50
176.89709500000001
 51
179.19784799999999
  0
ARC
  5
1BB
  8
0
 62
     7
 10
153.6780029999999
 20
79.213695000000001
 30
0.0
 40
0.171
 50
354.64421299999992
 51
10.40802
  0
LINE
  5
1BC
  8
0
 62
     7
 10
153.88099999999989
 20
89.372500000000002
 30
0.0
 11
153.88099999999989
 21
91.197800000000001
 31
0.0
  0
LINE
  5
1BD
  8
0
 62
     7
 10
153.88099999999989
 20
79.197699999999983
 30
0.0
 11
153.88099999999989
 21
87.872500000000002
 31
0.0
  0
LINE
  5
1BE
  8
0
 62
     7
 10
153.88099999999989
 20
72.947900000000004
 30
0.0
 11
153.88099999999989
 21
77.697699999999998
 31
0.0
  0
LINE
  5
1BF
  8
0
 62
     7
 10
148.381
 20
91.197800000000001
 30
0.0
 11
148.381
 21
72.947900000000004
 31
0.0
  0
ARC
  5
1C0
  8
0
 62
     7
 10
167.41280399999999
 20
74.855897999999996
 30
0.0
 40
19.127344999999998
 50
185.7247909999999
 51
186.77632500000001
  0
ARC
  5
1C1
  8
0
 62
     7
 10
151.898923
 20
73.029561999999999
 30
0.0
 40
3.506383
 50
187.05340000000001
 51
196.51904699999989
  0
ARC
  5
1C2
  8
0
 62
     7
 10
150.7680719999999
 20
72.761296000000002
 30
0.0
 40
2.346813
 50
198.090194
 51
214.7122159999999
  0
ARC
  5
1C3
  8
0
 62
     7
 10
151.18795600000001
 20
73.014259999999993
 30
0.0
 40
2.8361900000000002
 50
214.08267299999989
 51
219.086139
  0
ARC
  5
1C4
  8
0
 62
     7
 10
151.21517600000001
 20
73.044770999999983
 30
0.0
 40
2.876561999999999
 50
219.216016
 51
237.70493999999999
  0
ARC
  5
1C5
  8
0
 62
     7
 10
151.12463700000001
 20
72.929962000000003
 30
0.0
 40
2.7311830000000001
 50
238.02368100000001
 51
257.46749299999999
  0
ARC
  5
1C6
  8
0
 62
     7
 10
151.131361
 20
72.939216999999999
 30
0.0
 40
2.7416789999999991
 50
257.37228599999992
 51
276.77061400000002
  0
ARC
  5
1C7
  8
0
 62
     7
 10
151.12385800000001
 20
72.969464000000002
 30
0.0
 40
2.7726029999999988
 50
276.85089199999987
 51
296.03189900000001
  0
ARC
  5
1C8
  8
0
 62
     7
 10
151.13065
 20
72.948821999999993
 30
0.0
 40
2.751075999999999
 50
296.09346899999991
 51
315.40459700000002
  0
ARC
  5
1C9
  8
0
 62
     7
 10
151.12760700000001
 20
72.950190000000006
 30
0.0
 40
2.7542029999999991
 50
315.42877700000003
 51
334.72382599999992
  0
ARC
  5
1CA
  8
0
 62
     7
 10
151.173079
 20
72.935354000000004
 30
0.0
 40
2.7067559999999991
 50
334.59682199999997
 51
354.24054100000001
  0
ARC
  5
1CB
  8
0
 62
     7
 10
150.46327099999991
 20
72.979442000000006
 30
0.0
 40
3.4175149999999999
 50
354.69932599999993
 51
359.47195499999992
  0
ARC
  5
1CC
  8
0
 62
     7
 10
152.3726879999999
 20
72.939855000000009
 30
0.0
 40
1.450075999999999
 50
357.50116000000003
 51
0.061089
  0
ARC
  5
1CD
  8
0
 62
     7
 10
151.94424299999989
 20
72.949995999999999
 30
0.0
 40
1.8785759999999989
 50
337.69063299999999
 51
357.76188999999999
  0
ARC
  5
1CE
  8
0
 62
     7
 10
151.92120700000001
 20
72.963525000000004
 30
0.0
 40
1.905025999999999
 50
317.94186300000001
 51
337.57716199999999
  0
ARC
  5
1CF
  8
0
 62
     7
 10
151.52842799999991
 20
73.268629000000004
 30
0.0
 40
2.4013139999999988
 50
299.7779109999999
 51
318.81490400000001
  0
ARC
  5
1D0
  8
0
 62
     7
 10
151.04091299999999
 20
73.985256000000007
 30
0.0
 40
3.266127
 50
284.26944500000002
 51
300.95748500000002
  0
ARC
  5
1D1
  8
0
 62
     7
 10
151.06117199999991
 20
73.821134999999984
 30
0.0
 40
3.102145999999999
 50
275.59538199999992
 51
284.65397899999988
  0
ARC
  5
1D2
  8
0
 62
     7
 10
151.1258379999999
 20
73.401415
 30
0.0
 40
2.6782240000000002
 50
264.58409399999988
 51
275.09404000000001
  0
ARC
  5
1D3
  8
0
 62
     7
 10
151.15604400000001
 20
73.564449999999994
 30
0.0
 40
2.8434200000000001
 50
252.77963099999991
 51
264.28821499999992
  0
ARC
  5
1D4
  8
0
 62
     7
 10
151.32965399999989
 20
74.258484999999993
 30
0.0
 40
3.55796
 50
244.9097239999999
 51
253.417993
  0
ARC
  5
1D5
  8
0
 62
     7
 10
151.129164
 20
73.834885
 30
0.0
 40
3.089315
 50
235.15579299999999
 51
244.94581400000001
  0
ARC
  5
1D6
  8
0
 62
     7
 10
150.803955
 20
73.355331000000007
 30
0.0
 40
2.5099439999999991
 50
217.11796499999991
 51
234.99394699999999
  0
ARC
  5
1D7
  8
0
 62
     7
 10
150.38230200000001
 20
72.984290000000001
 30
0.0
 40
1.9502520000000001
 50
196.79269599999989
 51
215.90111099999999
  0
ARC
  5
1D8
  8
0
 62
     7
 10
150.264364
 20
72.941314000000006
 30
0.0
 40
1.824940999999999
 50
179.99725399999991
 51
196.57073299999999
  0
LINE
  5
1D9
  8
0
 62
     7
 10
150.49700000000001
 20
89.5124
 30
0.0
 11
150.5089999999999
 21
89.390499999999989
 31
0.0
  0
LINE
  5
1DA
  8
0
 62
     7
 10
150.5089999999999
 20
78.504599999999996
 30
0.0
 11
150.49700000000001
 21
78.382599999999996
 31
0.0
  0
LINE
  5
1DB
  8
0
 62
     7
 10
154.00899999999999
 20
89.055599999999984
 30
0.0
 11
154.00899999999999
 21
88.846800000000016
 31
0.0
  0
LINE
  5
1DC
  8
0
 62
     7
 10
154.00899999999999
 20
89.233999999999995
 30
0.0
 11
154.00899999999999
 21
89.055599999999984
 31
0.0
  0
LINE
  5
1DD
  8
0
 62
     7
 10
154.00899999999999
 20
88.846800000000016
 30
0.0
 11
154.00899999999999
 21
88.01100000000001
 31
0.0
  0
LINE
  5
1DE
  8
0
 62
     7
 10
154.00899999999999
 20
78.890100000000004
 30
0.0
 11
154.00899999999999
 21
78.684399999999997
 31
0.0
  0
LINE
  5
1DF
  8
0
 62
     7
 10
154.00899999999999
 20
79.059200000000004
 30
0.0
 11
154.00899999999999
 21
78.890100000000004
 31
0.0
  0
LINE
  5
1E0
  8
0
 62
     7
 10
154.00899999999999
 20
78.684399999999997
 30
0.0
 11
154.00899999999999
 21
77.836600000000004
 31
0.0
  0
LINE
  5
1E1
  8
0
 62
     7
 10
154.00899999999999
 20
89.233999999999995
 30
0.0
 11
153.929
 21
89.372500000000002
 31
0.0
  0
LINE
  5
1E2
  8
0
 62
     7
 10
153.929
 20
87.872500000000002
 30
0.0
 11
154.00899999999999
 21
88.01100000000001
 31
0.0
  0
LINE
  5
1E3
  8
0
 62
     7
 10
153.84399999999999
 20
87.872500000000002
 30
0.0
 11
153.929
 21
87.872500000000002
 31
0.0
  0
LINE
  5
1E4
  8
0
 62
     7
 10
153.929
 20
89.372500000000002
 30
0.0
 11
153.84399999999999
 21
89.372500000000002
 31
0.0
  0
LINE
  5
1E5
  8
0
 62
     7
 10
154.00899999999999
 20
79.059200000000004
 30
0.0
 11
153.929
 21
79.197699999999983
 31
0.0
  0
LINE
  5
1E6
  8
0
 62
     7
 10
153.929
 20
77.697699999999998
 30
0.0
 11
154.00899999999999
 21
77.836600000000004
 31
0.0
  0
LINE
  5
1E7
  8
0
 62
     7
 10
153.84399999999999
 20
77.697699999999998
 30
0.0
 11
153.929
 21
77.697699999999998
 31
0.0
  0
LINE
  5
1E8
  8
0
 62
     7
 10
153.929
 20
79.197699999999983
 30
0.0
 11
153.84399999999999
 21
79.197699999999983
 31
0.0
  0
ARC
  5
1E9
  8
0
 62
     7
 10
102.23635299999999
 20
212.64906199999999
 30
0.0
 40
1.299105999999999
 50
2.132641
 51
87.898925999999989
  0
LINE
  5
1EA
  8
0
 62
     7
 10
78.534400000000005
 20
91.434799999999996
 30
0.0
 11
78.534400000000005
 21
198.96000000000001
 31
0.0
  0
LINE
  5
1EB
  8
0
 62
     7
 10
103.5349999999999
 20
212.697
 30
0.0
 11
103.5349999999999
 21
77.697699999999998
 31
0.0
  0
LINE
  5
1EC
  8
0
 62
     7
 10
102.28399999999991
 20
76.447800000000001
 30
0.0
 11
83.655900000000003
 21
76.447800000000001
 31
0.0
  0
LINE
  5
1ED
  8
0
 62
     7
 10
148.381
 20
255.48500000000001
 30
0.0
 11
153.88099999999989
 21
255.48500000000001
 31
0.0
  0
LINE
  5
1EE
  8
0
 62
     7
 10
150.5089999999999
 20
235.98500000000001
 30
0.0
 11
152.0089999999999
 21
235.98500000000001
 31
0.0
  0
LINE
  5
1EF
  8
0
 62
     7
 10
148.381
 20
262.48500000000001
 30
0.0
 11
153.88099999999989
 21
262.48500000000001
 31
0.0
  0
LINE
  5
1F0
  8
0
 62
     7
 10
83.655900000000003
 20
213.947
 30
0.0
 11
102.28399999999991
 21
213.947
 31
0.0
  0
ARC
  5
1F1
  8
0
 62
     7
 10
102.28432599999999
 20
77.698074000000005
 30
0.0
 40
1.250232999999999
 50
269.98423199999991
 51
359.98420199999998
  0
ARC
  5
1F2
  8
0
 62
     7
 10
84.357690999999988
 20
76.40028199999999
 30
0.0
 40
0.69604
 50
183.261719
 51
187.04948799999991
  0
ARC
  5
1F3
  8
0
 62
     7
 10
83.529729000000003
 20
76.359639999999999
 30
0.0
 40
0.133053
 50
0.4475140000000001
 51
9.2404860000000006
  0
ARC
  5
1F4
  8
0
 62
     7
 10
78.258279000000002
 20
76.168731999999991
 30
0.0
 40
5.4022610000000002
 50
4.1696549999999997
 51
5.3576280000000001
  0
ARC
  5
1F5
  8
0
 62
     7
 10
107.67909899999989
 20
78.512903000000009
 30
0.0
 40
24.111948999999989
 50
184.64202800000001
 51
185.011729
  0
ARC
  5
1F6
  8
0
 62
     7
 10
78.723129999999998
 20
75.995418999999998
 30
0.0
 40
4.9532910000000001
 50
4.0890379999999986
 51
4.7605300000000002
  0
ARC
  5
1F7
  8
0
 62
     7
 10
82.774656999999976
 20
91.138300999999984
 30
0.0
 40
0.259561
 50
2.0999659999999989
 51
87.344144
  0
ARC
  5
1F8
  8
0
 62
     7
 10
264.46002700000003
 20
91.456077000000008
 30
0.0
 40
181.42624499999999
 50
180.09737200000001
 51
185.84810400000001
  0
LINE
  5
1F9
  8
0
 62
     7
 10
77.034400000000005
 20
91.197800000000001
 30
0.0
 11
77.034400000000005
 21
91.447500000000005
 31
0.0
  0
LINE
  5
1FA
  8
0
 62
     7
 10
77.034400000000005
 20
91.447500000000005
 30
0.0
 11
82.786699999999996
 21
91.397599999999997
 31
0.0
  0
ARC
  5
1FB
  8
0
 62
     7
 10
10.221055
 20
65.006767000000011
 30
0.0
 40
74.185620999999983
 50
5.8103020000000001
 51
6.1623799999999997
  0
ARC
  5
1FC
  8
0
 62
     7
 10
368.16642000000002
 20
102.2336939999999
 30
0.0
 40
285.69060000000002
 50
185.97056399999991
 51
186.07199900000001
  0
ARC
  5
1FD
  8
0
 62
     7
 10
358.338618
 20
102.00376300000001
 30
0.0
 40
275.89480400000002
 50
186.24040600000001
 51
186.34160800000001
  0
ARC
  5
1FE
  8
0
 62
     7
 10
-258.84901799999989
 20
33.513407000000001
 30
0.0
 40
345.08145599999989
 50
6.2842440000000011
 51
6.3248739999999994
  0
ARC
  5
1FF
  8
0
 62
     7
 10
27.682113000000001
 20
64.998981999999998
 30
0.0
 40
56.825662000000001
 50
6.1773309999999988
 51
6.3524050000000001
  0
LINE
  5
200
  8
0
 62
     7
 10
84.177800000000005
 20
71.113799999999998
 30
0.0
 11
84.189899999999994
 21
71.010099999999994
 31
0.0
  0
ARC
  5
201
  8
0
 62
     7
 10
84.190111000000002
 20
71.009551000000002
 30
0.0
 40
0.000566
 50
246.001893
 51
113.998107
  0
LINE
  5
202
  8
0
 62
     7
 10
77.034400000000005
 20
72.947900000000004
 30
0.0
 11
77.034400000000005
 21
72.032600000000002
 31
0.0
  0
LINE
  5
203
  8
0
 62
     7
 10
77.034400000000005
 20
72.032600000000002
 30
0.0
 11
77.034400000000005
 21
71.226100000000002
 31
0.0
  0
LINE
  5
204
  8
0
 62
     7
 10
77.034400000000005
 20
71.226100000000002
 30
0.0
 11
77.034400000000005
 21
70.613200000000006
 31
0.0
  0
LINE
  5
205
  8
0
 62
     7
 10
77.034400000000005
 20
70.613200000000006
 30
0.0
 11
77.034400000000005
 21
70.263900000000007
 31
0.0
  0
LINE
  5
206
  8
0
 62
     7
 10
77.034400000000005
 20
70.263900000000007
 30
0.0
 11
77.034400000000005
 21
70.233199999999997
 31
0.0
  0
LINE
  5
207
  8
0
 62
     7
 10
77.034400000000005
 20
91.197800000000001
 30
0.0
 11
77.034400000000005
 21
72.947900000000004
 31
0.0
  0
ARC
  5
208
  8
0
 62
     7
 10
83.719409999999996
 20
214.20772199999999
 30
0.0
 40
0.042186
 50
161.887708
 51
178.09629499999991
  0
ARC
  5
209
  8
0
 62
     7
 10
80.882714000000007
 20
214.389872
 30
0.0
 40
2.800373
 50
354.99855099999991
 51
356.29929399999992
  0
ARC
  5
20A
  8
0
 62
     7
 10
99.108243999999999
 20
212.75158699999989
 30
0.0
 40
15.498651000000001
 50
174.83909099999991
 51
175.25200799999999
  0
ARC
  5
20B
  8
0
 62
     7
 10
61.664983999999997
 20
215.76350600000001
 30
0.0
 40
22.065642
 50
355.12247100000002
 51
355.50572999999991
  0
ARC
  5
20C
  8
0
 62
     7
 10
161.039276
 20
207.381463
 30
0.0
 40
77.661543000000009
 50
175.19454999999991
 51
175.31747999999999
  0
ARC
  5
20D
  8
0
 62
     7
 10
82.775377000000006
 20
199.25577699999991
 30
0.0
 40
0.258816
 50
272.50398599999988
 51
358.05190399999992
  0
ARC
  5
20E
  8
0
 62
     7
 10
264.62616000000003
 20
198.92973599999999
 30
0.0
 40
181.5923929999999
 50
174.15452799999991
 51
179.89988399999999
  0
LINE
  5
20F
  8
0
 62
     7
 10
77.034400000000005
 20
198.947
 30
0.0
 11
77.034400000000005
 21
199.197
 31
0.0
  0
LINE
  5
210
  8
0
 62
     7
 10
82.786699999999996
 20
198.99700000000001
 30
0.0
 11
77.034400000000005
 21
198.947
 31
0.0
  0
LINE
  5
211
  8
0
 62
     7
 10
84.181299999999993
 20
219.31
 30
0.0
 11
84.181299999999993
 21
219.30799999999999
 31
0.0
  0
ARC
  5
212
  8
0
 62
     7
 10
-51.601027999999999
 20
234.39322300000001
 30
0.0
 40
136.61775
 50
353.51799099999999
 51
353.66033099999993
  0
ARC
  5
213
  8
0
 62
     7
 10
-29.060846999999988
 20
231.18506400000001
 30
0.0
 40
113.86130300000001
 50
353.61154499999998
 51
353.84158500000001
  0
ARC
  5
214
  8
0
 62
     7
 10
181.25356999999991
 20
207.78873200000001
 30
0.0
 40
97.750532000000007
 50
173.69965899999991
 51
173.981976
  0
ARC
  5
215
  8
0
 62
     7
 10
-253.72999599999989
 20
252.8524589999999
 30
0.0
 40
339.5612799999999
 50
354.01110799999998
 51
354.11508099999998
  0
LINE
  5
216
  8
0
 62
     7
 10
77.034400000000005
 20
220.16200000000001
 30
0.0
 11
77.034400000000005
 21
220.17799999999991
 31
0.0
  0
LINE
  5
217
  8
0
 62
     7
 10
77.034400000000005
 20
220.17799999999991
 30
0.0
 11
77.034400000000005
 21
219.917
 31
0.0
  0
LINE
  5
218
  8
0
 62
     7
 10
77.034400000000005
 20
219.917
 30
0.0
 11
77.034400000000005
 21
219.37700000000001
 31
0.0
  0
LINE
  5
219
  8
0
 62
     7
 10
77.034400000000005
 20
219.37700000000001
 30
0.0
 11
77.034400000000005
 21
218.6209999999999
 31
0.0
  0
LINE
  5
21A
  8
0
 62
     7
 10
77.034400000000005
 20
218.6209999999999
 30
0.0
 11
77.034400000000005
 21
217.73099999999991
 31
0.0
  0
LINE
  5
21B
  8
0
 62
     7
 10
77.034400000000005
 20
217.73099999999991
 30
0.0
 11
77.034400000000005
 21
217.44699999999989
 31
0.0
  0
LINE
  5
21C
  8
0
 62
     7
 10
77.034400000000005
 20
217.44699999999989
 30
0.0
 11
77.034400000000005
 21
199.197
 31
0.0
  0
ARC
  5
21D
  8
0
 62
     7
 10
83.865290999999999
 20
71.224009999999993
 30
0.0
 40
0.5108040000000002
 50
282.94613199999992
 51
292.78360499999991
  0
ARC
  5
21E
  8
0
 62
     7
 10
83.959780000000009
 20
70.948701
 30
0.0
 40
0.221246
 50
297.83930099999998
 51
316.76860699999997
  0
ARC
  5
21F
  8
0
 62
     7
 10
83.885876999999994
 20
71.016991000000004
 30
0.0
 40
0.321868
 50
316.92248599999988
 51
327.7822809999999
  0
ARC
  5
220
  8
0
 62
     7
 10
83.877261000000004
 20
71.001755000000003
 30
0.0
 40
0.321509
 50
330.89945499999988
 51
340.08573999999999
  0
ARC
  5
221
  8
0
 62
     7
 10
83.932032000000007
 20
70.972786999999997
 30
0.0
 40
0.260289
 50
341.97484700000001
 51
351.10778699999997
  0
ARC
  5
222
  8
0
 62
     7
 10
83.965485999999999
 20
70.970506
 30
0.0
 40
0.226902
 50
350.37102999999991
 51
358.33247599999987
  0
LINE
  5
223
  8
0
 62
     7
 10
84.192300000000003
 20
70.963899999999995
 30
0.0
 11
84.192300000000003
 21
70.983900000000006
 31
0.0
  0
ARC
  5
224
  8
0
 62
     7
 10
84.179114999999996
 20
70.985037000000005
 30
0.0
 40
0.013228
 50
355.00409400000001
 51
19.245936999999991
  0
LINE
  5
225
  8
0
 62
     7
 10
84.191599999999994
 20
70.989400000000003
 30
0.0
 11
84.191599999999994
 21
70.992199999999997
 31
0.0
  0
LINE
  5
226
  8
0
 62
     7
 10
84.191599999999994
 20
70.992199999999997
 30
0.0
 11
84.191599999999994
 21
70.994600000000005
 31
0.0
  0
LINE
  5
227
  8
0
 62
     7
 10
84.191599999999994
 20
70.994600000000005
 30
0.0
 11
84.191599999999994
 21
70.996600000000001
 31
0.0
  0
LINE
  5
228
  8
0
 62
     7
 10
84.191599999999994
 20
70.996600000000001
 30
0.0
 11
84.190899999999999
 21
70.998999999999995
 31
0.0
  0
ARC
  5
229
  8
0
 62
     7
 10
84.154435000000007
 20
71.00031899999999
 30
0.0
 40
0.036502
 50
357.99799000000002
 51
13.814291000000001
  0
ARC
  5
22A
  8
0
 62
     7
 10
74.950454000000008
 20
197.4064459999999
 30
0.0
 40
127.225804
 50
270.93853799999999
 51
271.505898
  0
ARC
  5
22B
  8
0
 62
     7
 10
76.842145000000002
 20
116.817718
 30
0.0
 40
46.615749000000001
 50
271.78466999999989
 51
273.73655600000001
  0
ARC
  5
22C
  8
0
 62
     7
 10
76.737684000000002
 20
120.535201
 30
0.0
 40
50.332326000000002
 50
273.57943599999987
 51
275.76142199999998
  0
ARC
  5
22D
  8
0
 62
     7
 10
77.428081000000006
 20
113.16741999999989
 30
0.0
 40
42.932488999999997
 50
275.83177199999989
 51
276.58131400000002
  0
ARC
  5
22E
  8
0
 62
     7
 10
72.287153000000004
 20
157.28518099999991
 30
0.0
 40
87.348755000000011
 50
276.61449199999993
 51
277.71898499999998
  0
LINE
  5
22F
  8
0
 62
     7
 10
84.181299999999993
 20
219.31
 30
0.0
 11
84.182000000000002
 21
219.315
 31
0.0
  0
ARC
  5
230
  8
0
 62
     7
 10
78.88788000000001
 20
219.9364569999999
 30
0.0
 40
5.3304529999999994
 50
353.30257399999999
 51
354.07751400000001
  0
ARC
  5
231
  8
0
 62
     7
 10
84.162784000000016
 20
219.39400099999989
 30
0.0
 40
0.02813
 50
344.42051800000002
 51
0.049151
  0
ARC
  5
232
  8
0
 62
     7
 10
84.295108999999997
 20
219.38379999999989
 30
0.0
 40
0.104695
 50
171.3547409999999
 51
174.39518799999999
  0
LINE
  5
233
  8
0
 62
     7
 10
84.191599999999994
 20
219.39999999999989
 30
0.0
 11
84.191599999999994
 21
219.40199999999999
 31
0.0
  0
LINE
  5
234
  8
0
 62
     7
 10
84.191599999999994
 20
219.40199999999999
 30
0.0
 11
84.191599999999994
 21
219.40599999999989
 31
0.0
  0
ARC
  5
235
  8
0
 62
     7
 10
84.17484300000001
 20
219.41067899999999
 30
0.0
 40
0.017474
 50
343.57561099999992
 51
3.004716999999999
  0
LINE
  5
236
  8
0
 62
     7
 10
84.192300000000003
 20
219.41200000000001
 30
0.0
 11
84.192300000000003
 21
219.43000000000001
 31
0.0
  0
ARC
  5
237
  8
0
 62
     7
 10
83.897685999999993
 20
219.41725899999989
 30
0.0
 40
0.294876
 50
2.44794
 51
11.699134000000001
  0
ARC
  5
238
  8
0
 62
     7
 10
83.948638000000017
 20
219.42542099999989
 30
0.0
 40
0.243339
 50
12.250106000000001
 51
35.470238999999999
  0
ARC
  5
239
  8
0
 62
     7
 10
83.943732999999995
 20
219.4221619999999
 30
0.0
 40
0.249224
 50
35.425944000000001
 51
53.875326000000008
  0
ARC
  5
23A
  8
0
 62
     7
 10
83.962295999999995
 20
219.462299
 30
0.0
 40
0.206043
 50
51.464056999999997
 51
76.205755000000011
  0
ARC
  5
23B
  8
0
 62
     7
 10
83.975837999999996
 20
219.49737999999999
 30
0.0
 40
0.168813
 50
77.830603999999994
 51
89.614780999999994
  0
ARC
  5
23C
  8
0
 62
     7
 10
49.658420999999997
 20
-54.643546000000001
 30
0.0
 40
276.45412299999992
 50
82.860142000000025
 51
83.149733999999995
  0
ARC
  5
23D
  8
0
 62
     7
 10
75.987426999999997
 20
163.98994400000001
 30
0.0
 40
56.241044999999993
 50
83.214490999999995
 51
85.584974999999986
  0
ARC
  5
23E
  8
0
 62
     7
 10
77.443584999999999
 20
180.08496199999999
 30
0.0
 40
40.082256000000001
 50
85.889217999999985
 51
87.722771999999992
  0
ARC
  5
23F
  8
0
 62
     7
 10
75.844909000000001
 20
143.48175900000001
 30
0.0
 40
76.720208999999997
 50
87.615975000000006
 51
88.363687999999996
  0
ARC
  5
240
  8
0
 62
     7
 10
70.744018000000011
 20
-37.397548
 30
0.0
 40
257.67142199999989
 50
88.378406999999996
 51
88.601129
  0
LINE
  5
241
  8
0
 62
     7
 10
72.471299999999999
 20
214.46499999999989
 30
0.0
 11
71.4636
 21
212.40999999999991
 31
0.0
  0
LINE
  5
242
  8
0
 62
     7
 10
71.4636
 20
212.40999999999991
 30
0.0
 11
71.309600000000003
 21
214.6929999999999
 31
0.0
  0
LINE
  5
243
  8
0
 62
     7
 10
71.309600000000003
 20
214.6929999999999
 30
0.0
 11
72.471299999999999
 21
214.46499999999989
 31
0.0
  0
LINE
  5
244
  8
0
 62
     7
 10
71.4636
 20
212.40999999999991
 30
0.0
 11
73.999600000000001
 21
226.167
 31
0.0
  0
LINE
  5
245
  8
0
 62
     7
 10
30.789899999999999
 20
226.167
 30
0.0
 11
73.999600000000001
 21
226.167
 31
0.0
  0
LINE
  5
246
  8
0
 62
     7
 10
122.855
 20
217.98699999999999
 30
0.0
 11
122.262
 21
220.197
 31
0.0
  0
LINE
  5
247
  8
0
 62
     7
 10
122.262
 20
220.197
 30
0.0
 11
121.67
 21
217.98699999999999
 31
0.0
  0
LINE
  5
248
  8
0
 62
     7
 10
121.67
 20
217.98699999999999
 30
0.0
 11
122.855
 21
217.98699999999999
 31
0.0
  0
LINE
  5
249
  8
0
 62
     7
 10
121.6809999999999
 20
72.408799999999999
 30
0.0
 11
122.273
 21
70.197699999999998
 31
0.0
  0
LINE
  5
24A
  8
0
 62
     7
 10
122.273
 20
70.197699999999998
 30
0.0
 11
122.866
 21
72.408799999999999
 31
0.0
  0
LINE
  5
24B
  8
0
 62
     7
 10
122.866
 20
72.408799999999999
 30
0.0
 11
121.6809999999999
 21
72.408799999999999
 31
0.0
  0
LINE
  5
24C
  8
0
 62
     7
 10
122.2679999999999
 20
220.197
 30
0.0
 11
122.2679999999999
 21
70.197699999999998
 31
0.0
  0
LINE
  5
24D
  8
0
 62
     7
 10
114.94799999999999
 20
211.73699999999999
 30
0.0
 11
114.355
 21
213.947
 31
0.0
  0
LINE
  5
24E
  8
0
 62
     7
 10
114.355
 20
213.947
 30
0.0
 11
113.76299999999991
 21
211.73699999999999
 31
0.0
  0
LINE
  5
24F
  8
0
 62
     7
 10
113.76299999999991
 20
211.73699999999999
 30
0.0
 11
114.94799999999999
 21
211.73699999999999
 31
0.0
  0
LINE
  5
250
  8
0
 62
     7
 10
113.7739999999999
 20
78.658900000000003
 30
0.0
 11
114.366
 21
76.447800000000001
 31
0.0
  0
LINE
  5
251
  8
0
 62
     7
 10
114.366
 20
76.447800000000001
 30
0.0
 11
114.959
 21
78.658900000000003
 31
0.0
  0
LINE
  5
252
  8
0
 62
     7
 10
114.959
 20
78.658900000000003
 30
0.0
 11
113.7739999999999
 21
78.658900000000003
 31
0.0
  0
LINE
  5
253
  8
0
 62
     7
 10
114.361
 20
213.947
 30
0.0
 11
114.361
 21
76.447800000000001
 31
0.0
  0
LINE
  5
254
  8
0
 62
     7
 10
82.284699999999987
 20
220.197
 30
0.0
 11
122.78700000000001
 21
220.197
 31
0.0
  0
LINE
  5
255
  8
0
 62
     7
 10
103.59699999999999
 20
213.947
 30
0.0
 11
114.89100000000001
 21
213.947
 31
0.0
  0
LINE
  5
256
  8
0
 62
     7
 10
82.284699999999987
 20
70.197699999999998
 30
0.0
 11
122.78700000000001
 21
70.197699999999998
 31
0.0
  0
LINE
  5
257
  8
0
 62
     7
 10
103.59699999999999
 20
76.447800000000001
 30
0.0
 11
114.89100000000001
 21
76.447800000000001
 31
0.0
  0
TEXT
  5
258
  8
_________2
 62
     7
 10
29.5259
 20
22.227900000000002
 30
0.0
 40
3.9357000000000002
  1
天板はガラス製
 41
0.5
  0
TEXT
  5
259
  8
_________2
 62
     7
 10
143.40538749999999
 20
30.627400000000002
 30
0.0
 40
3.9357000000000002
  1
GE4501
 41
0.5
 72
     1
 11
148.489
 21
30.627400000000002
 31
0.0
  0
TEXT
  5
25A
  8
_________2
 62
     7
 10
143.40538749999999
 20
20.6266
 30
0.0
 40
3.9357000000000002
  1
GE4501
 41
0.5
 72
     1
 11
148.489
 21
20.6266
 31
0.0
  0
LINE
  5
25B
  8
_________2
 62
     7
 10
210.24000000000001
 20
148.93100000000001
 30
0.0
 11
188.49000000000001
 21
148.93100000000001
 31
0.0
  0
LINE
  5
25C
  8
_________2
 62
     7
 10
105.2389999999999
 20
17.4282
 30
0.0
 11
105.2389999999999
 21
0.4482100000000001
 31
0.0
  0
LINE
  5
25D
  8
_________2
 62
     7
 10
105.2389999999999
 20
297.44999999999987
 30
0.0
 11
105.2389999999999
 21
280.42999999999989
 31
0.0
  0
LINE
  5
25E
  8
_________2
 62
     7
 10
21.988499999999991
 20
148.93100000000001
 30
0.0
 11
0.238058
 21
148.93100000000001
 31
0.0
  0
LINE
  5
25F
  8
_________2
 62
     7
 10
81.679900000000004
 20
51.323999999999998
 30
0.0
 11
79.493700000000004
 21
51.323999999999998
 31
0.0
  0
LINE
  5
260
  8
_________2
 62
     7
 10
82.172600000000017
 20
51.323999999999998
 30
0.0
 11
81.920400000000001
 21
51.323999999999998
 31
0.0
  0
LINE
  5
261
  8
_________2
 62
     7
 10
82.665199999999984
 20
51.323999999999998
 30
0.0
 11
85.590100000000007
 21
51.323999999999998
 31
0.0
  0
LINE
  5
262
  8
_________2
 62
     7
 10
82.172600000000017
 20
51.323999999999998
 30
0.0
 11
82.424800000000005
 21
51.323999999999998
 31
0.0
  0
LINE
  5
263
  8
_________2
 62
     7
 10
75.776399999999995
 20
51.323999999999998
 30
0.0
 11
73.589399999999998
 21
51.323999999999998
 31
0.0
  0
LINE
  5
264
  8
_________2
 62
     7
 10
76.2684
 20
51.323999999999998
 30
0.0
 11
76.016900000000007
 21
51.323999999999998
 31
0.0
  0
LINE
  5
265
  8
_________2
 62
     7
 10
76.2684
 20
51.816600000000001
 30
0.0
 11
76.2684
 21
54.003599999999999
 31
0.0
  0
LINE
  5
266
  8
_________2
 62
     7
 10
76.2684
 20
51.323999999999998
 30
0.0
 11
76.2684
 21
51.576500000000003
 31
0.0
  0
LINE
  5
267
  8
_________2
 62
     7
 10
76.76100000000001
 20
51.323999999999998
 30
0.0
 11
78.947999999999993
 21
51.323999999999998
 31
0.0
  0
LINE
  5
268
  8
_________2
 62
     7
 10
76.2684
 20
51.323999999999998
 30
0.0
 11
76.520499999999998
 21
51.323999999999998
 31
0.0
  0
LINE
  5
269
  8
_________2
 62
     7
 10
76.2684
 20
50.832000000000001
 30
0.0
 11
76.2684
 21
48.645400000000002
 31
0.0
  0
LINE
  5
26A
  8
_________2
 62
     7
 10
76.2684
 20
51.323999999999998
 30
0.0
 11
76.2684
 21
51.072499999999998
 31
0.0
  0
LINE
  5
26B
  8
_________2
 62
     7
 10
79.979399999999984
 20
50.104399999999998
 30
0.0
 11
85.157399999999996
 21
49.239699999999999
 31
0.0
  0
LINE
  5
26C
  8
_________2
 62
     7
 10
79.979399999999984
 20
52.543900000000001
 30
0.0
 11
85.157399999999996
 21
53.409300000000002
 31
0.0
  0
LINE
  5
26D
  8
_________2
 62
     7
 10
85.157399999999996
 20
49.239699999999999
 30
0.0
 11
85.157399999999996
 21
53.409300000000002
 31
0.0
  0
LINE
  5
26E
  8
_________2
 62
     7
 10
79.979399999999984
 20
50.104399999999998
 30
0.0
 11
79.979399999999984
 21
52.543900000000001
 31
0.0
  0
ARC
  5
26F
  8
_________2
 62
     7
 10
76.221766000000002
 20
51.277037
 30
0.0
 40
1.267714
 50
2.1220840000000001
 51
87.894083999999992
  0
ARC
  5
270
  8
_________2
 62
     7
 10
76.315297000000001
 20
51.277389999999997
 30
0.0
 40
1.267374999999999
 50
92.122849999999985
 51
177.893304
  0
ARC
  5
271
  8
_________2
 62
     7
 10
76.315273000000005
 20
51.370902000000001
 30
0.0
 40
1.267363
 50
182.12181499999991
 51
267.87821400000001
  0
ARC
  5
272
  8
_________2
 62
     7
 10
76.221461000000005
 20
51.371583999999999
 30
0.0
 40
1.2680439999999991
 50
272.11916400000001
 51
357.84848499999993
  0
ARC
  5
273
  8
_________2
 62
     7
 10
76.187981999999991
 20
51.243968000000002
 30
0.0
 40
2.1668310000000002
 50
2.1161439999999989
 51
87.874379000000005
  0
ARC
  5
274
  8
_________2
 62
     7
 10
76.348411999999996
 20
51.244990000000001
 30
0.0
 40
2.1657980000000001
 50
92.118487999999999
 51
177.90988599999989
  0
ARC
  5
275
  8
_________2
 62
     7
 10
76.348354
 20
51.403983000000011
 30
0.0
 40
2.1657779999999991
 50
182.11700400000001
 51
267.88302499999992
  0
ARC
  5
276
  8
_________2
 62
     7
 10
76.188378999999983
 20
51.404665999999992
 30
0.0
 40
2.1664590000000001
 50
272.11546800000002
 51
357.86560400000002
  0
TEXT
  5
277
  8
_________2
 62
     7
 10
109.5439999999999
 20
23.198699999999992
 30
0.0
 40
3.0923400000000001
  1
図番
 41
0.5
  0
LINE
  5
278
  8
_________2
 62
     7
 10
108.4889999999999
 20
27.428000000000001
 30
0.0
 11
188.49000000000001
 21
27.428000000000001
 31
0.0
  0
TEXT
  5
279
  8
_________2
 62
     7
 10
109.5439999999999
 20
33.198500000000003
 30
0.0
 40
3.0923400000000001
  1
品番
 41
0.5
  0
TEXT
  5
27A
  8
_________2
 62
     7
 10
109.5439999999999
 20
53.337699999999998
 30
0.0
 40
3.0923400000000001
  1
名称
 41
0.5
  0
TEXT
  5
27B
  8
_________2
 62
     7
 10
96.784158333333338
 20
48.341500000000011
 30
0.0
 40
3.6545800000000002
  1
mm
 41
0.5
 72
     1
 11
98.306899999999999
 21
48.341500000000011
 31
0.0
  0
TEXT
  5
27C
  8
_________2
 62
     7
 10
90.582099999999997
 20
53.337699999999998
 30
0.0
 40
3.0923400000000001
  1
単位
 41
0.5
  0
TEXT
  5
27D
  8
_________2
 62
     7
 10
90.582099999999997
 20
40.930100000000003
 30
0.0
 40
3.0923400000000001
  1
尺度
 41
0.5
  0
TEXT
  5
27E
  8
_________2
 62
     7
 10
95.487858666666668
 20
34.73749999999999
 30
0.0
 40
3.6545800000000002
  1
1 ： 4
 41
0.5
 72
     1
 11
98.898799999999994
 21
34.73749999999999
 31
0.0
  0
TEXT
  5
27F
  8
_________2
 62
     7
 10
114.11799999999999
 20
45.7453
 30
0.0
 40
3.9357000000000002
  1
ウィンク　シェルフ
 41
0.5
  0
TEXT
  5
280
  8
_________2
 62
     7
 10
44.364200333333329
 20
35.122599999999991
 30
0.0
 40
3.6545800000000002
  1
早川
 41
0.5
 72
     1
 11
46.252400000000002
 21
35.122599999999991
 31
0.0
  0
TEXT
  5
281
  8
_________2
 62
     7
 10
25.729290666666671
 20
35.122599999999991
 30
0.0
 40
3.6545800000000002
  1
菅原
 41
0.5
 72
     1
 11
27.6784
 21
35.122599999999991
 31
0.0
  0
TEXT
  5
282
  8
_________2
 62
     7
 10
72.724699999999999
 20
34.73749999999999
 30
0.0
 40
3.6545800000000002
  1
13.12.09
 41
0.5
  0
TEXT
  5
283
  8
_________2
 62
     7
 10
71.531999999999996
 20
40.930100000000003
 30
0.0
 40
3.0923400000000001
  1
日付
 41
0.5
  0
TEXT
  5
284
  8
_________2
 62
     7
 10
34.578299999999992
 20
40.930100000000003
 30
0.0
 40
3.0923400000000001
  1
検図
 41
0.5
  0
TEXT
  5
285
  8
_________2
 62
     7
 10
22.960000000000001
 20
26.730699999999999
 30
0.0
 40
3.0923400000000001
  1
備考
 41
0.5
  0
TEXT
  5
286
  8
_________2
 62
     7
 10
22.960000000000001
 20
40.930100000000003
 30
0.0
 40
3.0923400000000001
  1
製図
 41
0.5
  0
TEXT
  5
287
  8
_________2
 62
     7
 10
28.727365333333339
 20
49.456000000000003
 30
0.0
 40
4.4979399999999989
  1
セラトレーディング株式会社
 41
0.5
 72
     1
 11
46.119399999999992
 21
49.456000000000003
 31
0.0
  0
LINE
  5
288
  8
_________2
 62
     7
 10
188.49000000000001
 20
17.4282
 30
0.0
 11
21.988499999999991
 21
17.4282
 31
0.0
  0
LINE
  5
289
  8
_________2
 62
     7
 10
21.988499999999991
 20
17.4282
 30
0.0
 11
21.988499999999991
 21
280.42999999999989
 31
0.0
  0
LINE
  5
28A
  8
_________2
 62
     7
 10
21.988499999999991
 20
280.42999999999989
 30
0.0
 11
188.49000000000001
 21
280.42999999999989
 31
0.0
  0
LINE
  5
28B
  8
_________2
 62
     7
 10
188.49000000000001
 20
280.42999999999989
 30
0.0
 11
188.49000000000001
 21
17.4282
 31
0.0
  0
LINE
  5
28C
  8
_________2
 62
     7
 10
70.488799999999998
 20
30.9285
 30
0.0
 11
70.488799999999998
 21
57.428400000000011
 31
0.0
  0
LINE
  5
28D
  8
_________2
 62
     7
 10
89.488600000000005
 20
30.9285
 30
0.0
 11
89.488600000000005
 21
57.428400000000011
 31
0.0
  0
LINE
  5
28E
  8
_________2
 62
     7
 10
108.4889999999999
 20
17.4282
 30
0.0
 11
108.4889999999999
 21
57.428400000000011
 31
0.0
  0
LINE
  5
28F
  8
_________2
 62
     7
 10
33.488300000000002
 20
30.9285
 30
0.0
 11
33.488300000000002
 21
44.928499999999993
 31
0.0
  0
LINE
  5
290
  8
_________2
 62
     7
 10
21.988499999999991
 20
30.9285
 30
0.0
 11
108.4889999999999
 21
30.9285
 31
0.0
  0
LINE
  5
291
  8
_________2
 62
     7
 10
21.988499999999991
 20
44.928499999999993
 30
0.0
 11
108.4889999999999
 21
44.928499999999993
 31
0.0
  0
LINE
  5
292
  8
_________2
 62
     7
 10
108.4889999999999
 20
37.427799999999991
 30
0.0
 11
188.49000000000001
 21
37.427799999999991
 31
0.0
  0
LINE
  5
293
  8
_________2
 62
     7
 10
21.988499999999991
 20
57.428400000000011
 30
0.0
 11
188.49000000000001
 21
57.428400000000011
 31
0.0
  0
ENDSEC
  0
EOF
