  0
SECTION
  2
HEADER
  9
$ACADVER
  1
AC1009
  9
$INSBASE
 10
0.0
 20
0.0
 30
0.0
  9
$EXTMIN
 10
0.238058
 20
0.4482100000000001
 30
0.0
  9
$EXTMAX
 10
210.24000000000001
 20
297.44999999999987
 30
0.0
  9
$LIMMIN
 10
0.0
 20
0.0
  9
$LIMMAX
 10
12.0
 20
9.0
  9
$ORTHOMODE
 70
     0
  9
$REGENMODE
 70
     1
  9
$FILLMODE
 70
     1
  9
$QTEXTMODE
 70
     0
  9
$MIRRTEXT
 70
     1
  9
$DRAGMODE
 70
     2
  9
$LTSCALE
 40
1.0
  9
$OSMODE
 70
    37
  9
$ATTMODE
 70
     1
  9
$TEXTSIZE
 40
0.0
  9
$TRACEWID
 40
0.05
  9
$TEXTSTYLE
  7
STANDARD
  9
$CLAYER
  8
0
  9
$CELTYPE
  6
CONTINUOUS
  9
$CECOLOR
 62
   256
  9
$DIMSCALE
 40
1.0
  9
$DIMASZ
 40
0.18
  9
$DIMEXO
 40
0.0625
  9
$DIMDLI
 40
0.38
  9
$DIMRND
 40
0.0
  9
$DIMDLE
 40
0.0
  9
$DIMEXE
 40
0.18
  9
$DIMTP
 40
0.0
  9
$DIMTM
 40
0.0
  9
$DIMTXT
 40
0.18
  9
$DIMCEN
 40
0.09
  9
$DIMTSZ
 40
0.0
  9
$DIMTOL
 70
     0
  9
$DIMLIM
 70
     0
  9
$DIMTIH
 70
     1
  9
$DIMTOH
 70
     1
  9
$DIMSE1
 70
     0
  9
$DIMSE2
 70
     0
  9
$DIMTAD
 70
     0
  9
$DIMZIN
 70
     0
  9
$DIMBLK
  1

  9
$DIMASO
 70
     1
  9
$DIMSHO
 70
     1
  9
$DIMPOST
  1

  9
$DIMAPOST
  1

  9
$DIMALT
 70
     0
  9
$DIMALTD
 70
     2
  9
$DIMALTF
 40
25.399999999999999
  9
$DIMLFAC
 40
1.0
  9
$DIMTOFL
 70
     0
  9
$DIMTVP
 40
0.0
  9
$DIMTIX
 70
     0
  9
$DIMSOXD
 70
     0
  9
$DIMSAH
 70
     0
  9
$DIMBLK1
  1

  9
$DIMBLK2
  1

  9
$DIMSTYLE
  2
STANDARD
  9
$DIMCLRD
 70
     0
  9
$DIMCLRE
 70
     0
  9
$DIMCLRT
 70
     0
  9
$DIMTFAC
 40
1.0
  9
$DIMGAP
 40
0.09
  9
$LUNITS
 70
     2
  9
$LUPREC
 70
     4
  9
$SKETCHINC
 40
0.1
  9
$FILLETRAD
 40
0.0
  9
$AUNITS
 70
     0
  9
$AUPREC
 70
     0
  9
$MENU
  1
.
  9
$ELEVATION
 40
0.0
  9
$PELEVATION
 40
0.0
  9
$THICKNESS
 40
0.0
  9
$LIMCHECK
 70
     0
  9
$BLIPMODE
 70
     0
  9
$CHAMFERA
 40
0.0
  9
$CHAMFERB
 40
0.0
  9
$SKPOLY
 70
     0
  9
$TDCREATE
 40
2444972.375
  9
$TDUPDATE
 40
2456744.2492911918
  9
$TDINDWG
 40
0.0000060301
  9
$TDUSRTIMER
 40
0.0000060301
  9
$USRTIMER
 70
     1
  9
$ANGBASE
 50
0.0
  9
$ANGDIR
 70
     0
  9
$PDMODE
 70
     0
  9
$PDSIZE
 40
0.0
  9
$PLINEWID
 40
0.0
  9
$COORDS
 70
     1
  9
$SPLFRAME
 70
     0
  9
$SPLINETYPE
 70
     6
  9
$SPLINESEGS
 70
     8
  9
$ATTDIA
 70
     0
  9
$ATTREQ
 70
     1
  9
$HANDLING
 70
     1
  9
$HANDSEED
  5
266
  9
$SURFTAB1
 70
     6
  9
$SURFTAB2
 70
     6
  9
$SURFTYPE
 70
     6
  9
$SURFU
 70
     6
  9
$SURFV
 70
     6
  9
$UCSNAME
  2

  9
$UCSORG
 10
0.0
 20
0.0
 30
0.0
  9
$UCSXDIR
 10
1.0
 20
0.0
 30
0.0
  9
$UCSYDIR
 10
0.0
 20
1.0
 30
0.0
  9
$PUCSNAME
  2

  9
$PUCSORG
 10
0.0
 20
0.0
 30
0.0
  9
$PUCSXDIR
 10
1.0
 20
0.0
 30
0.0
  9
$PUCSYDIR
 10
0.0
 20
1.0
 30
0.0
  9
$USERI1
 70
     0
  9
$USERI2
 70
     0
  9
$USERI3
 70
     0
  9
$USERI4
 70
     0
  9
$USERI5
 70
     0
  9
$USERR1
 40
0.0
  9
$USERR2
 40
0.0
  9
$USERR3
 40
0.0
  9
$USERR4
 40
0.0
  9
$USERR5
 40
0.0
  9
$WORLDVIEW
 70
     1
  9
$SHADEDGE
 70
     3
  9
$SHADEDIF
 70
    70
  9
$TILEMODE
 70
     1
  9
$MAXACTVP
 70
    48
  9
$PLIMCHECK
 70
     0
  9
$PEXTMIN
 10
1.0000000000000000E+020
 20
1.0000000000000000E+020
 30
1.0000000000000000E+020
  9
$PEXTMAX
 10
-1.0000000000000000E+020
 20
-1.0000000000000000E+020
 30
-1.0000000000000000E+020
  9
$PLIMMIN
 10
0.0
 20
0.0
  9
$PLIMMAX
 10
12.0
 20
9.0
  9
$UNITMODE
 70
     0
  9
$VISRETAIN
 70
     1
  9
$PLINEGEN
 70
     0
  9
$PSLTSCALE
 70
     1
  0
ENDSEC
  0
SECTION
  2
TABLES
  0
TABLE
  2
VPORT
 70
     2
  0
VPORT
  2
*ACTIVE
 70
     0
 10
0.0
 20
0.0
 11
1.0
 21
1.0
 12
206.97982146115791
 22
148.72499999999991
 13
0.0
 23
0.0
 14
1.0
 24
1.0
 15
0.0
 25
0.0
 16
0.0
 26
0.0
 36
1.0
 17
0.0
 27
0.0
 37
0.0
 40
299.90488308115528
 41
2.2894736842105261
 42
50.0
 43
0.0
 44
0.0
 50
0.0
 51
0.0
 71
     0
 72
   100
 73
     1
 74
     1
 75
     0
 76
     0
 77
     0
 78
     0
  0
ENDTAB
  0
TABLE
  2
LTYPE
 70
     3
  0
LTYPE
  2
CONTINUOUS
 70
     0
  3
Solid line
 72
    65
 73
     0
 40
0.0
  0
LTYPE
  2
AIGENLINE001
 70
     0
  3
generate AI->DXF Converter
 72
    65
 73
     2
 40
1.5522299999999991
 49
0.776115
 49
-0.776115
  0
LTYPE
  2
AIGENLINE002
 70
     0
  3
generate AI->DXF Converter
 72
    65
 73
     4
 40
5.8561449999999988
 49
3.5278
 49
-0.776115
 49
0.776115
 49
-0.776115
  0
ENDTAB
  0
TABLE
  2
LAYER
 70
     2
  0
LAYER
  2
0
 70
     0
 62
     7
  6
CONTINUOUS
  0
LAYER
  2
_________2
 70
     0
 62
     7
  6
CONTINUOUS
  0
ENDTAB
  0
TABLE
  2
STYLE
 70
     1
  0
STYLE
  2
STANDARD
 70
     0
 40
0.0
 41
0.0
 50
0.0
 71
     0
 42
0.0
  3
TXT
  4
EXTFONT.SHX
  0
ENDTAB
  0
TABLE
  2
VIEW
 70
     0
  0
ENDTAB
  0
TABLE
  2
UCS
 70
     0
  0
ENDTAB
  0
TABLE
  2
APPID
 70
     1
  0
APPID
  2
ACAD
 70
     0
  0
ENDTAB
  0
TABLE
  2
DIMSTYLE
 70
     1
  0
DIMSTYLE
  2
STANDARD
 70
     0
  3

  4

  5

  6

  7

 40
1.0
 41
0.18
 42
0.0625
 43
0.38
 44
0.18
 45
0.0
 46
0.0
 47
0.0
 48
0.0
140
0.18
141
0.09
142
0.0
143
25.399999999999999
144
1.0
145
0.0
146
1.0
147
0.09
 71
     0
 72
     0
 73
     1
 74
     1
 75
     0
 76
     0
 77
     0
 78
     0
170
     0
171
     2
172
     0
173
     0
174
     0
175
     0
176
     0
177
     0
178
     0
  0
ENDTAB
  0
ENDSEC
  0
SECTION
  2
BLOCKS
  0
BLOCK
  8
0
  2
$MODEL_SPACE
 70
     0
 10
0.0
 20
0.0
 30
0.0
  3
$MODEL_SPACE
  1

  0
ENDBLK
  5
1A
  8
0
  0
BLOCK
 67
     1
  8
0
  2
$PAPER_SPACE
 70
     0
 10
0.0
 20
0.0
 30
0.0
  3
$PAPER_SPACE
  1

  0
ENDBLK
  5
17
 67
     1
  8
0
  0
ENDSEC
  0
SECTION
  2
ENTITIES
  0
TEXT
  5
23
  8
0
 62
     7
 10
40.507499999999993
 20
211.06700000000001
 30
0.0
 40
3.0923400000000001
  1
（%%c6×35樹脂プラグ付）
 41
0.5
  0
TEXT
  5
24
  8
0
 62
     7
 10
40.507499999999993
 20
216.934
 30
0.0
 40
3.0923400000000001
  1
%%c4.2×45 SUS 十字穴付丸頭タッピングネジ
 41
0.5
  0
TEXT
  5
25
  8
0
 62
     7
 10
58.568399999999997
 20
138.9321349999999
 30
0.0
 40
3.0923400000000001
  1
241
 50
90.0
 41
0.5
 72
     1
 11
58.568399999999997
 21
140.7359999999999
 31
0.0
  0
TEXT
  5
26
  8
0
 62
     7
 10
58.568399999999997
 20
94.437872499999983
 30
0.0
 40
3.0923400000000001
  1
30
 50
90.0
 41
0.5
 72
     1
 11
58.568399999999997
 21
95.597499999999997
 31
0.0
  0
TEXT
  5
27
  8
0
 62
     7
 10
58.568399999999997
 20
184.71637249999989
 30
0.0
 40
3.0923400000000001
  1
30
 50
90.0
 41
0.5
 72
     1
 11
58.568399999999997
 21
185.87599999999989
 31
0.0
  0
TEXT
  5
28
  8
0
 62
     7
 10
66.001400000000004
 20
94.309025000000005
 30
0.0
 40
3.0923400000000001
  1
45
 50
90.0
 41
0.5
 72
     1
 11
66.001400000000004
 21
95.597499999999997
 31
0.0
  0
TEXT
  5
29
  8
0
 62
     7
 10
49.7592
 20
138.9321349999999
 30
0.0
 40
3.0923400000000001
  1
317
 50
90.0
 41
0.5
 72
     1
 11
49.7592
 21
140.7359999999999
 31
0.0
  0
TEXT
  5
2A
  8
0
 62
     7
 10
149.32821999999999
 20
202.179
 30
0.0
 40
3.0923400000000001
  1
31
 41
0.5
 72
     1
 11
150.35900000000001
 21
202.179
 31
0.0
  0
TEXT
  5
2B
  8
0
 62
     7
 10
96.969372499999992
 20
202.19900000000001
 30
0.0
 40
3.0923400000000001
  1
90
 41
0.5
 72
     1
 11
98.128999999999991
 21
202.19900000000001
 31
0.0
  0
LINE
  5
2C
  8
0
 62
     7
 10
67.293999999999997
 20
90.113200000000006
 30
0.0
 11
66.701400000000007
 21
87.902900000000002
 31
0.0
  0
LINE
  5
2D
  8
0
 62
     7
 10
66.701400000000007
 20
87.902900000000002
 30
0.0
 11
66.108900000000006
 21
90.113200000000006
 31
0.0
  0
LINE
  5
2E
  8
0
 62
     7
 10
66.108900000000006
 20
90.113200000000006
 30
0.0
 11
67.293999999999997
 21
90.113200000000006
 31
0.0
  0
LINE
  5
2F
  8
0
 62
     7
 10
66.116500000000002
 20
101.0809999999999
 30
0.0
 11
66.708299999999994
 21
103.292
 31
0.0
  0
LINE
  5
30
  8
0
 62
     7
 10
66.708299999999994
 20
103.292
 30
0.0
 11
67.300899999999999
 21
101.0809999999999
 31
0.0
  0
LINE
  5
31
  8
0
 62
     7
 10
67.300899999999999
 20
101.0809999999999
 30
0.0
 11
66.116500000000002
 21
101.0809999999999
 31
0.0
  0
LINE
  5
32
  8
0
 62
     7
 10
82.431700000000006
 20
103.292
 30
0.0
 11
66.008300000000006
 21
103.292
 31
0.0
  0
LINE
  5
33
  8
0
 62
     7
 10
66.701400000000007
 20
87.902900000000002
 30
0.0
 11
66.701400000000007
 21
103.292
 31
0.0
  0
LINE
  5
34
  8
0
 62
     7
 10
70.440600000000003
 20
101.297
 30
0.0
 11
71.004900000000006
 21
99.897400000000005
 31
0.0
  0
LINE
  5
35
  8
0
 62
     7
 10
71.238100000000003
 20
101.297
 30
0.0
 11
71.802099999999996
 21
99.897400000000005
 31
0.0
  0
LINE
  5
36
  8
0
 62
     7
 10
72.0364
 20
101.297
 30
0.0
 11
72.599599999999995
 21
99.897400000000005
 31
0.0
  0
LINE
  5
37
  8
0
 62
     7
 10
72.8339
 20
101.297
 30
0.0
 11
73.397900000000007
 21
99.897400000000005
 31
0.0
  0
LINE
  5
38
  8
0
 62
     7
 10
73.631500000000003
 20
101.297
 30
0.0
 11
74.195400000000006
 21
99.897400000000005
 31
0.0
  0
LINE
  5
39
  8
0
 62
     7
 10
74.428700000000006
 20
101.297
 30
0.0
 11
74.992999999999995
 21
99.897400000000005
 31
0.0
  0
LINE
  5
3A
  8
0
 62
     7
 10
75.227199999999996
 20
101.297
 30
0.0
 11
75.790199999999984
 21
99.897400000000005
 31
0.0
  0
LINE
  5
3B
  8
0
 62
     7
 10
76.0244
 20
101.297
 30
0.0
 11
76.588700000000003
 21
99.897400000000005
 31
0.0
  0
LINE
  5
3C
  8
0
 62
     7
 10
82.404799999999994
 20
101.297
 30
0.0
 11
82.969099999999997
 21
99.897400000000005
 31
0.0
  0
LINE
  5
3D
  8
0
 62
     7
 10
81.606899999999996
 20
101.297
 30
0.0
 11
82.171599999999984
 21
99.897400000000005
 31
0.0
  0
LINE
  5
3E
  8
0
 62
     7
 10
80.809700000000007
 20
101.297
 30
0.0
 11
81.373699999999999
 21
99.897400000000005
 31
0.0
  0
LINE
  5
3F
  8
0
 62
     7
 10
80.012200000000007
 20
101.297
 30
0.0
 11
80.576099999999997
 21
99.897400000000005
 31
0.0
  0
LINE
  5
40
  8
0
 62
     7
 10
79.214600000000004
 20
101.297
 30
0.0
 11
79.778899999999993
 21
99.897400000000005
 31
0.0
  0
LINE
  5
41
  8
0
 62
     7
 10
78.417400000000001
 20
101.297
 30
0.0
 11
78.981399999999994
 21
99.897400000000005
 31
0.0
  0
LINE
  5
42
  8
0
 62
     7
 10
76.822000000000003
 20
101.297
 30
0.0
 11
77.385900000000007
 21
99.897400000000005
 31
0.0
  0
LINE
  5
43
  8
0
 62
     7
 10
77.619500000000002
 20
101.297
 30
0.0
 11
78.183499999999995
 21
99.897400000000005
 31
0.0
  0
LINE
  5
44
  8
0
 62
     7
 10
70.618399999999994
 20
100.9319999999999
 30
0.0
 11
69.797700000000006
 21
100.59699999999999
 31
0.0
  0
LINE
  5
45
  8
0
 62
     7
 10
70.618399999999994
 20
100.26299999999991
 30
0.0
 11
69.797700000000006
 21
100.59699999999999
 31
0.0
  0
LINE
  5
46
  8
0
 62
     7
 10
70.618399999999994
 20
100.26299999999991
 30
0.0
 11
83.131699999999995
 21
100.26299999999991
 31
0.0
  0
LINE
  5
47
  8
0
 62
     7
 10
70.618399999999994
 20
100.9319999999999
 30
0.0
 11
83.131699999999995
 21
100.9319999999999
 31
0.0
  0
LINE
  5
48
  8
0
  6
AIGENLINE002
 62
     7
 10
68.406599999999983
 20
100.59699999999999
 30
0.0
 11
84.870800000000003
 21
100.59699999999999
 31
0.0
  0
LINE
  5
49
  8
0
 62
     7
 10
70.440600000000003
 20
91.297700000000006
 30
0.0
 11
71.004900000000006
 21
89.897599999999997
 31
0.0
  0
LINE
  5
4A
  8
0
 62
     7
 10
71.238100000000003
 20
91.297700000000006
 30
0.0
 11
71.802099999999996
 21
89.897599999999997
 31
0.0
  0
LINE
  5
4B
  8
0
 62
     7
 10
72.0364
 20
91.297700000000006
 30
0.0
 11
72.599599999999995
 21
89.897599999999997
 31
0.0
  0
LINE
  5
4C
  8
0
 62
     7
 10
72.8339
 20
91.297700000000006
 30
0.0
 11
73.397900000000007
 21
89.897599999999997
 31
0.0
  0
LINE
  5
4D
  8
0
 62
     7
 10
73.631500000000003
 20
91.297700000000006
 30
0.0
 11
74.195400000000006
 21
89.897599999999997
 31
0.0
  0
LINE
  5
4E
  8
0
 62
     7
 10
74.428700000000006
 20
91.297700000000006
 30
0.0
 11
74.992999999999995
 21
89.897599999999997
 31
0.0
  0
LINE
  5
4F
  8
0
 62
     7
 10
75.227199999999996
 20
91.297700000000006
 30
0.0
 11
75.790199999999984
 21
89.897599999999997
 31
0.0
  0
LINE
  5
50
  8
0
 62
     7
 10
76.0244
 20
91.297700000000006
 30
0.0
 11
76.588700000000003
 21
89.897599999999997
 31
0.0
  0
LINE
  5
51
  8
0
 62
     7
 10
82.404799999999994
 20
91.297700000000006
 30
0.0
 11
82.969099999999997
 21
89.897599999999997
 31
0.0
  0
LINE
  5
52
  8
0
 62
     7
 10
81.606899999999996
 20
91.297700000000006
 30
0.0
 11
82.171599999999984
 21
89.897599999999997
 31
0.0
  0
LINE
  5
53
  8
0
 62
     7
 10
80.809700000000007
 20
91.297700000000006
 30
0.0
 11
81.373699999999999
 21
89.897599999999997
 31
0.0
  0
LINE
  5
54
  8
0
 62
     7
 10
80.012200000000007
 20
91.297700000000006
 30
0.0
 11
80.576099999999997
 21
89.897599999999997
 31
0.0
  0
LINE
  5
55
  8
0
 62
     7
 10
79.214600000000004
 20
91.297700000000006
 30
0.0
 11
79.778899999999993
 21
89.897599999999997
 31
0.0
  0
LINE
  5
56
  8
0
 62
     7
 10
78.417400000000001
 20
91.297700000000006
 30
0.0
 11
78.981399999999994
 21
89.897599999999997
 31
0.0
  0
LINE
  5
57
  8
0
 62
     7
 10
76.822000000000003
 20
91.297700000000006
 30
0.0
 11
77.385900000000007
 21
89.897599999999997
 31
0.0
  0
LINE
  5
58
  8
0
 62
     7
 10
77.619500000000002
 20
91.297700000000006
 30
0.0
 11
78.183499999999995
 21
89.897599999999997
 31
0.0
  0
LINE
  5
59
  8
0
 62
     7
 10
70.618399999999994
 20
90.931799999999996
 30
0.0
 11
69.797700000000006
 21
90.5976
 31
0.0
  0
LINE
  5
5A
  8
0
 62
     7
 10
70.618399999999994
 20
90.262799999999984
 30
0.0
 11
69.797700000000006
 21
90.5976
 31
0.0
  0
LINE
  5
5B
  8
0
 62
     7
 10
70.618399999999994
 20
90.262799999999984
 30
0.0
 11
83.131699999999995
 21
90.262799999999984
 31
0.0
  0
LINE
  5
5C
  8
0
 62
     7
 10
70.618399999999994
 20
90.931799999999996
 30
0.0
 11
83.131699999999995
 21
90.931799999999996
 31
0.0
  0
LINE
  5
5D
  8
0
  6
AIGENLINE002
 62
     7
 10
68.406599999999983
 20
90.5976
 30
0.0
 11
84.870800000000003
 21
90.5976
 31
0.0
  0
LINE
  5
5E
  8
0
 62
     7
 10
104.952
 20
98.099699999999984
 30
0.0
 11
104.95999999999989
 21
98.134900000000016
 31
0.0
  0
LINE
  5
5F
  8
0
 62
     7
 10
104.95999999999989
 20
98.134900000000016
 30
0.0
 11
104.976
 21
98.167900000000003
 31
0.0
  0
LINE
  5
60
  8
0
 62
     7
 10
104.976
 20
98.167900000000003
 30
0.0
 11
105.014
 21
98.2286
 31
0.0
  0
LINE
  5
61
  8
0
 62
     7
 10
105.014
 20
98.2286
 30
0.0
 11
105.10299999999989
 21
98.342900000000014
 31
0.0
  0
LINE
  5
62
  8
0
 62
     7
 10
105.10299999999989
 20
98.342900000000014
 30
0.0
 11
105.289
 21
98.563400000000016
 31
0.0
  0
LINE
  5
63
  8
0
 62
     7
 10
105.289
 20
98.563400000000016
 30
0.0
 11
105.655
 21
99.009900000000002
 31
0.0
  0
LINE
  5
64
  8
0
 62
     7
 10
105.655
 20
99.009900000000002
 30
0.0
 11
106.31099999999989
 21
99.955299999999994
 31
0.0
  0
LINE
  5
65
  8
0
 62
     7
 10
106.31099999999989
 20
99.955299999999994
 30
0.0
 11
106.851
 21
100.97199999999999
 31
0.0
  0
LINE
  5
66
  8
0
 62
     7
 10
106.851
 20
100.97199999999999
 30
0.0
 11
107.282
 21
102.02799999999991
 31
0.0
  0
LINE
  5
67
  8
0
 62
     7
 10
107.282
 20
102.02799999999991
 30
0.0
 11
107.905
 21
104.2239999999999
 31
0.0
  0
LINE
  5
68
  8
0
 62
     7
 10
107.905
 20
104.2239999999999
 30
0.0
 11
108.23999999999999
 21
106.4759999999999
 31
0.0
  0
LINE
  5
69
  8
0
 62
     7
 10
108.23999999999999
 20
106.4759999999999
 30
0.0
 11
108.288
 21
107.834
 31
0.0
  0
LINE
  5
6A
  8
0
 62
     7
 10
108.288
 20
107.834
 30
0.0
 11
108.288
 21
108.691
 31
0.0
  0
LINE
  5
6B
  8
0
 62
     7
 10
111.6239999999999
 20
165.62700000000001
 30
0.0
 11
111.19
 21
165.62700000000001
 31
0.0
  0
LINE
  5
6C
  8
0
 62
     7
 10
111.6239999999999
 20
115.846
 30
0.0
 11
111.19
 21
115.846
 31
0.0
  0
LINE
  5
6D
  8
0
 62
     7
 10
111.6239999999999
 20
115.846
 30
0.0
 11
111.6239999999999
 21
165.62700000000001
 31
0.0
  0
LINE
  5
6E
  8
0
 62
     7
 10
111.19
 20
165.62700000000001
 30
0.0
 11
108.72199999999999
 21
165.62700000000001
 31
0.0
  0
LINE
  5
6F
  8
0
 62
     7
 10
111.19
 20
115.846
 30
0.0
 11
108.72199999999999
 21
115.846
 31
0.0
  0
LINE
  5
70
  8
0
 62
     7
 10
108.72199999999999
 20
165.62700000000001
 30
0.0
 11
108.288
 21
165.62700000000001
 31
0.0
  0
LINE
  5
71
  8
0
 62
     7
 10
108.288
 20
115.846
 30
0.0
 11
108.288
 21
165.62700000000001
 31
0.0
  0
LINE
  5
72
  8
0
 62
     7
 10
108.72199999999999
 20
115.846
 30
0.0
 11
108.288
 21
115.846
 31
0.0
  0
LINE
  5
73
  8
0
 62
     7
 10
83.131699999999995
 20
103.292
 30
0.0
 11
83.131699999999995
 21
87.902900000000002
 31
0.0
  0
LINE
  5
74
  8
0
 62
     7
 10
104.71899999999999
 20
103.10299999999989
 30
0.0
 11
104.71899999999999
 21
88.092299999999994
 31
0.0
  0
LINE
  5
75
  8
0
 62
     7
 10
100.84999999999989
 20
103.136
 30
0.0
 11
100.8589999999999
 21
103.13499999999991
 31
0.0
  0
LINE
  5
76
  8
0
 62
     7
 10
100.8589999999999
 20
103.13499999999991
 30
0.0
 11
100.89399999999991
 21
103.12899999999991
 31
0.0
  0
LINE
  5
77
  8
0
 62
     7
 10
100.89399999999991
 20
103.12899999999991
 30
0.0
 11
100.95
 21
103.12
 31
0.0
  0
LINE
  5
78
  8
0
 62
     7
 10
100.95
 20
103.12
 30
0.0
 11
101.02799999999991
 21
103.1079999999999
 31
0.0
  0
LINE
  5
79
  8
0
 62
     7
 10
101.02799999999991
 20
103.1079999999999
 30
0.0
 11
101.1239999999999
 21
103.09399999999989
 31
0.0
  0
LINE
  5
7A
  8
0
 62
     7
 10
101.1239999999999
 20
103.09399999999989
 30
0.0
 11
101.2399999999999
 21
103.081
 31
0.0
  0
LINE
  5
7B
  8
0
 62
     7
 10
101.2399999999999
 20
103.081
 30
0.0
 11
101.367
 21
103.06999999999989
 31
0.0
  0
LINE
  5
7C
  8
0
 62
     7
 10
101.367
 20
103.06999999999989
 30
0.0
 11
101.5079999999999
 21
103.0599999999999
 31
0.0
  0
LINE
  5
7D
  8
0
 62
     7
 10
101.5079999999999
 20
103.0599999999999
 30
0.0
 11
101.65000000000001
 21
103.05500000000001
 31
0.0
  0
LINE
  5
7E
  8
0
 62
     7
 10
101.65000000000001
 20
103.05500000000001
 30
0.0
 11
101.7979999999999
 21
103.054
 31
0.0
  0
LINE
  5
7F
  8
0
 62
     7
 10
101.7979999999999
 20
103.054
 30
0.0
 11
101.9379999999999
 21
103.0569999999999
 31
0.0
  0
LINE
  5
80
  8
0
 62
     7
 10
101.9379999999999
 20
103.0569999999999
 30
0.0
 11
102.07599999999999
 21
103.0629999999999
 31
0.0
  0
LINE
  5
81
  8
0
 62
     7
 10
102.07599999999999
 20
103.0629999999999
 30
0.0
 11
102.2
 21
103.0739999999999
 31
0.0
  0
LINE
  5
82
  8
0
 62
     7
 10
102.2
 20
103.0739999999999
 30
0.0
 11
102.31399999999989
 21
103.0839999999999
 31
0.0
  0
LINE
  5
83
  8
0
 62
     7
 10
102.31399999999989
 20
103.0839999999999
 30
0.0
 11
102.411
 21
103.09699999999999
 31
0.0
  0
LINE
  5
84
  8
0
 62
     7
 10
102.411
 20
103.09699999999999
 30
0.0
 11
102.488
 21
103.107
 31
0.0
  0
LINE
  5
85
  8
0
 62
     7
 10
102.488
 20
103.107
 30
0.0
 11
102.5439999999999
 21
103.11499999999999
 31
0.0
  0
LINE
  5
86
  8
0
 62
     7
 10
102.5439999999999
 20
103.11499999999999
 30
0.0
 11
102.57599999999999
 21
103.121
 31
0.0
  0
LINE
  5
87
  8
0
 62
     7
 10
102.57599999999999
 20
103.121
 30
0.0
 11
102.584
 21
103.121
 31
0.0
  0
LINE
  5
88
  8
0
 62
     7
 10
102.584
 20
103.121
 30
0.0
 11
102.574
 21
103.12
 31
0.0
  0
LINE
  5
89
  8
0
 62
     7
 10
155.52600000000001
 20
222.7109999999999
 30
0.0
 11
155.1929999999999
 21
214.53099999999989
 31
0.0
  0
LINE
  5
8A
  8
0
 62
     7
 10
145.1929999999999
 20
222.7109999999999
 30
0.0
 11
145.52600000000001
 21
214.53099999999989
 31
0.0
  0
LINE
  5
8B
  8
0
 62
     7
 10
155.1929999999999
 20
214.53099999999989
 30
0.0
 11
145.52600000000001
 21
214.53099999999989
 31
0.0
  0
LINE
  5
8C
  8
0
 62
     7
 10
155.52600000000001
 20
244.53099999999989
 30
0.0
 11
145.1929999999999
 21
244.53099999999989
 31
0.0
  0
LINE
  5
8D
  8
0
 62
     7
 10
155.52600000000001
 20
222.7109999999999
 30
0.0
 11
145.1929999999999
 21
222.7109999999999
 31
0.0
  0
LINE
  5
8E
  8
0
 62
     7
 10
155.52600000000001
 20
222.94399999999999
 30
0.0
 11
145.1929999999999
 21
222.94399999999999
 31
0.0
  0
LINE
  5
8F
  8
0
 62
     7
 10
155.52600000000001
 20
244.53099999999989
 30
0.0
 11
155.52600000000001
 21
222.94399999999999
 31
0.0
  0
LINE
  5
90
  8
0
 62
     7
 10
155.19
 20
222.94399999999999
 30
0.0
 11
155.191
 21
222.87599999999989
 31
0.0
  0
ARC
  5
91
  8
0
 62
     7
 10
155.364564
 20
222.88418399999989
 30
0.0
 40
0.173514
 50
182.07564600000001
 51
267.68762500000003
  0
LINE
  5
92
  8
0
 62
     7
 10
155.191
 20
222.8779999999999
 30
0.0
 11
155.191
 21
222.8779999999999
 31
0.0
  0
LINE
  5
93
  8
0
 62
     7
 10
145.1929999999999
 20
244.53099999999989
 30
0.0
 11
145.1929999999999
 21
222.94399999999999
 31
0.0
  0
LINE
  5
94
  8
0
 62
     7
 10
145.52899999999991
 20
222.94399999999999
 30
0.0
 11
145.52799999999991
 21
222.87599999999989
 31
0.0
  0
ARC
  5
95
  8
0
 62
     7
 10
145.35455400000001
 20
222.88418399999989
 30
0.0
 40
0.173514
 50
272.31241199999999
 51
357.92435699999999
  0
LINE
  5
96
  8
0
 62
     7
 10
145.52799999999991
 20
222.8779999999999
 30
0.0
 11
145.52799999999991
 21
222.8779999999999
 31
0.0
  0
LINE
  5
97
  8
0
 62
     7
 10
151.059
 20
257.22199999999992
 30
0.0
 11
149.65899999999991
 21
256.65800000000002
 31
0.0
  0
LINE
  5
98
  8
0
 62
     7
 10
151.059
 20
256.42500000000001
 30
0.0
 11
149.65899999999991
 21
255.8609999999999
 31
0.0
  0
LINE
  5
99
  8
0
 62
     7
 10
151.059
 20
255.62599999999989
 30
0.0
 11
149.65899999999991
 21
255.0629999999999
 31
0.0
  0
LINE
  5
9A
  8
0
 62
     7
 10
151.059
 20
254.82900000000001
 30
0.0
 11
149.65899999999991
 21
254.26499999999999
 31
0.0
  0
LINE
  5
9B
  8
0
 62
     7
 10
151.059
 20
254.03099999999989
 30
0.0
 11
149.65899999999991
 21
253.46700000000001
 31
0.0
  0
LINE
  5
9C
  8
0
 62
     7
 10
151.059
 20
253.23400000000001
 30
0.0
 11
149.65899999999991
 21
252.6699999999999
 31
0.0
  0
LINE
  5
9D
  8
0
 62
     7
 10
151.059
 20
252.43599999999989
 30
0.0
 11
149.65899999999991
 21
251.87299999999999
 31
0.0
  0
LINE
  5
9E
  8
0
 62
     7
 10
151.059
 20
251.63800000000001
 30
0.0
 11
149.65899999999991
 21
251.07400000000001
 31
0.0
  0
LINE
  5
9F
  8
0
 62
     7
 10
151.059
 20
245.2579999999999
 30
0.0
 11
149.65899999999991
 21
244.69399999999999
 31
0.0
  0
LINE
  5
A0
  8
0
 62
     7
 10
151.059
 20
246.05600000000001
 30
0.0
 11
149.65899999999991
 21
245.4909999999999
 31
0.0
  0
LINE
  5
A1
  8
0
 62
     7
 10
151.059
 20
246.85299999999989
 30
0.0
 11
149.65899999999991
 21
246.28899999999999
 31
0.0
  0
LINE
  5
A2
  8
0
 62
     7
 10
151.059
 20
247.6509999999999
 30
0.0
 11
149.65899999999991
 21
247.08699999999999
 31
0.0
  0
LINE
  5
A3
  8
0
 62
     7
 10
151.059
 20
248.44800000000001
 30
0.0
 11
149.65899999999991
 21
247.88399999999999
 31
0.0
  0
LINE
  5
A4
  8
0
 62
     7
 10
151.059
 20
249.245
 30
0.0
 11
149.65899999999991
 21
248.6809999999999
 31
0.0
  0
LINE
  5
A5
  8
0
 62
     7
 10
151.059
 20
250.84100000000001
 30
0.0
 11
149.65899999999991
 21
250.27699999999999
 31
0.0
  0
LINE
  5
A6
  8
0
 62
     7
 10
151.059
 20
250.04300000000001
 30
0.0
 11
149.65899999999991
 21
249.47900000000001
 31
0.0
  0
LINE
  5
A7
  8
0
 62
     7
 10
150.6939999999999
 20
257.04399999999998
 30
0.0
 11
150.35900000000001
 21
257.86500000000001
 31
0.0
  0
LINE
  5
A8
  8
0
 62
     7
 10
150.02500000000001
 20
257.04399999999998
 30
0.0
 11
150.35900000000001
 21
257.86500000000001
 31
0.0
  0
LINE
  5
A9
  8
0
 62
     7
 10
150.02500000000001
 20
257.04399999999998
 30
0.0
 11
150.02500000000001
 21
244.53099999999989
 31
0.0
  0
LINE
  5
AA
  8
0
 62
     7
 10
150.6939999999999
 20
257.04399999999998
 30
0.0
 11
150.6939999999999
 21
244.53099999999989
 31
0.0
  0
LINE
  5
AB
  8
0
  6
AIGENLINE002
 62
     7
 10
150.35900000000001
 20
259.25599999999991
 30
0.0
 11
150.35900000000001
 21
242.79199999999989
 31
0.0
  0
LINE
  5
AC
  8
0
 62
     7
 10
83.131699999999995
 20
193.56999999999991
 30
0.0
 11
83.131699999999995
 21
178.1809999999999
 31
0.0
  0
LINE
  5
AD
  8
0
 62
     7
 10
104.71899999999999
 20
193.38300000000001
 30
0.0
 11
104.71899999999999
 21
178.37
 31
0.0
  0
LINE
  5
AE
  8
0
 62
     7
 10
102.58199999999999
 20
178.352
 30
0.0
 11
102.584
 21
178.35099999999991
 31
0.0
  0
LINE
  5
AF
  8
0
 62
     7
 10
102.584
 20
178.35099999999991
 30
0.0
 11
102.56699999999999
 21
178.35400000000001
 31
0.0
  0
LINE
  5
B0
  8
0
 62
     7
 10
102.56699999999999
 20
178.35400000000001
 30
0.0
 11
102.527
 21
178.3609999999999
 31
0.0
  0
LINE
  5
B1
  8
0
 62
     7
 10
102.527
 20
178.3609999999999
 30
0.0
 11
102.4639999999999
 21
178.37
 31
0.0
  0
LINE
  5
B2
  8
0
 62
     7
 10
102.4639999999999
 20
178.37
 30
0.0
 11
102.38200000000001
 21
178.38099999999989
 31
0.0
  0
LINE
  5
B3
  8
0
 62
     7
 10
102.38200000000001
 20
178.38099999999989
 30
0.0
 11
102.2769999999999
 21
178.39299999999989
 31
0.0
  0
LINE
  5
B4
  8
0
 62
     7
 10
102.2769999999999
 20
178.39299999999989
 30
0.0
 11
102.16
 21
178.40299999999999
 31
0.0
  0
LINE
  5
B5
  8
0
 62
     7
 10
102.16
 20
178.40299999999999
 30
0.0
 11
102.026
 21
178.41200000000001
 31
0.0
  0
LINE
  5
B6
  8
0
 62
     7
 10
102.026
 20
178.41200000000001
 30
0.0
 11
101.81999999999989
 21
178.41900000000001
 31
0.0
  0
LINE
  5
B7
  8
0
 62
     7
 10
101.81999999999989
 20
178.41900000000001
 30
0.0
 11
101.67700000000001
 21
178.41800000000001
 31
0.0
  0
LINE
  5
B8
  8
0
 62
     7
 10
101.67700000000001
 20
178.41800000000001
 30
0.0
 11
101.5329999999999
 21
178.41399999999999
 31
0.0
  0
LINE
  5
B9
  8
0
 62
     7
 10
101.5329999999999
 20
178.41399999999999
 30
0.0
 11
101.39700000000001
 21
178.40599999999989
 31
0.0
  0
LINE
  5
BA
  8
0
 62
     7
 10
101.39700000000001
 20
178.40599999999989
 30
0.0
 11
101.26600000000001
 21
178.39500000000001
 31
0.0
  0
LINE
  5
BB
  8
0
 62
     7
 10
101.26600000000001
 20
178.39500000000001
 30
0.0
 11
101.15000000000001
 21
178.38200000000001
 31
0.0
  0
LINE
  5
BC
  8
0
 62
     7
 10
101.15000000000001
 20
178.38200000000001
 30
0.0
 11
101.047
 21
178.36799999999991
 31
0.0
  0
LINE
  5
BD
  8
0
 62
     7
 10
101.047
 20
178.36799999999991
 30
0.0
 11
100.965
 21
178.35599999999999
 31
0.0
  0
LINE
  5
BE
  8
0
 62
     7
 10
100.965
 20
178.35599999999999
 30
0.0
 11
100.902
 21
178.345
 31
0.0
  0
LINE
  5
BF
  8
0
 62
     7
 10
100.902
 20
178.345
 30
0.0
 11
100.8639999999999
 21
178.339
 31
0.0
  0
LINE
  5
C0
  8
0
 62
     7
 10
100.8639999999999
 20
178.339
 30
0.0
 11
100.84999999999989
 21
178.3359999999999
 31
0.0
  0
LINE
  5
C1
  8
0
 62
     7
 10
100.84999999999989
 20
178.3359999999999
 30
0.0
 11
100.84999999999989
 21
178.3359999999999
 31
0.0
  0
LINE
  5
C2
  8
0
 62
     7
 10
111.491
 20
165.8609999999999
 30
0.0
 11
111.48699999999999
 21
165.62700000000001
 31
0.0
  0
LINE
  5
C3
  8
0
 62
     7
 10
108.426
 20
165.62700000000001
 30
0.0
 11
108.422
 21
165.8609999999999
 31
0.0
  0
LINE
  5
C4
  8
0
 62
     7
 10
108.6929999999999
 20
165.8609999999999
 30
0.0
 11
108.288
 21
165.8609999999999
 31
0.0
  0
LINE
  5
C5
  8
0
 62
     7
 10
111.6239999999999
 20
165.8609999999999
 30
0.0
 11
111.229
 21
165.8609999999999
 31
0.0
  0
ARC
  5
C6
  8
0
 62
     7
 10
339.70652799999999
 20
165.84830500000001
 30
0.0
 40
228.0830059999999
 50
174.339718
 51
179.99673899999999
  0
LINE
  5
C7
  8
0
 62
     7
 10
104.952
 20
193.38099999999989
 30
0.0
 11
104.952
 21
178.37
 31
0.0
  0
LINE
  5
C8
  8
0
 62
     7
 10
108.288
 20
165.8609999999999
 30
0.0
 11
108.288
 21
173.7649999999999
 31
0.0
  0
LINE
  5
C9
  8
0
 62
     7
 10
108.288
 20
173.7649999999999
 30
0.0
 11
108.282
 21
174.19
 31
0.0
  0
LINE
  5
CA
  8
0
 62
     7
 10
108.282
 20
174.19
 30
0.0
 11
108.026
 21
176.654
 31
0.0
  0
LINE
  5
CB
  8
0
 62
     7
 10
108.026
 20
176.654
 30
0.0
 11
107.41799999999991
 21
179.06599999999989
 31
0.0
  0
LINE
  5
CC
  8
0
 62
     7
 10
107.41799999999991
 20
179.06599999999989
 30
0.0
 11
106.92399999999989
 21
180.35299999999989
 31
0.0
  0
LINE
  5
CD
  8
0
 62
     7
 10
106.92399999999989
 20
180.35299999999989
 30
0.0
 11
106.2729999999999
 21
181.58199999999999
 31
0.0
  0
LINE
  5
CE
  8
0
 62
     7
 10
106.2729999999999
 20
181.58199999999999
 30
0.0
 11
105.562
 21
182.58000000000001
 31
0.0
  0
LINE
  5
CF
  8
0
 62
     7
 10
105.562
 20
182.58000000000001
 30
0.0
 11
105.215
 21
182.9959999999999
 31
0.0
  0
LINE
  5
D0
  8
0
 62
     7
 10
105.215
 20
182.9959999999999
 30
0.0
 11
105.06399999999999
 21
183.17899999999989
 31
0.0
  0
LINE
  5
D1
  8
0
 62
     7
 10
105.06399999999999
 20
183.17899999999989
 30
0.0
 11
104.9609999999999
 21
183.33500000000001
 31
0.0
  0
LINE
  5
D2
  8
0
 62
     7
 10
104.9609999999999
 20
183.33500000000001
 30
0.0
 11
104.952
 21
183.374
 31
0.0
  0
LINE
  5
D3
  8
0
 62
     7
 10
111.229
 20
165.8609999999999
 30
0.0
 11
108.6929999999999
 21
165.8609999999999
 31
0.0
  0
LINE
  5
D4
  8
0
 62
     7
 10
113.127
 20
192.13900000000001
 30
0.0
 11
113.13200000000001
 21
192.03099999999989
 31
0.0
  0
LINE
  5
D5
  8
0
 62
     7
 10
113.13200000000001
 20
192.03099999999989
 30
0.0
 11
113.122
 21
191.94999999999999
 31
0.0
  0
LINE
  5
D6
  8
0
 62
     7
 10
113.122
 20
191.94999999999999
 30
0.0
 11
113.0989999999999
 21
191.749
 31
0.0
  0
LINE
  5
D7
  8
0
 62
     7
 10
113.0989999999999
 20
191.749
 30
0.0
 11
113.026
 21
191.09299999999999
 31
0.0
  0
LINE
  5
D8
  8
0
 62
     7
 10
113.026
 20
191.09299999999999
 30
0.0
 11
112.93299999999989
 21
190.249
 31
0.0
  0
LINE
  5
D9
  8
0
 62
     7
 10
112.93299999999989
 20
190.249
 30
0.0
 11
112.83799999999989
 21
189.35299999999989
 31
0.0
  0
LINE
  5
DA
  8
0
 62
     7
 10
112.83799999999989
 20
189.35299999999989
 30
0.0
 11
112.736
 21
188.34399999999999
 31
0.0
  0
LINE
  5
DB
  8
0
 62
     7
 10
111.48699999999999
 20
115.846
 30
0.0
 11
111.491
 21
115.613
 31
0.0
  0
LINE
  5
DC
  8
0
 62
     7
 10
108.422
 20
115.613
 30
0.0
 11
108.426
 21
115.846
 31
0.0
  0
LINE
  5
DD
  8
0
 62
     7
 10
111.229
 20
115.613
 30
0.0
 11
111.6239999999999
 21
115.613
 31
0.0
  0
ARC
  5
DE
  8
0
 62
     7
 10
339.43012900000002
 20
115.6104779999999
 30
0.0
 40
227.8066069999999
 50
179.99944099999999
 51
185.66371699999991
  0
LINE
  5
DF
  8
0
 62
     7
 10
108.288
 20
115.613
 30
0.0
 11
108.6929999999999
 21
115.613
 31
0.0
  0
LINE
  5
E0
  8
0
 62
     7
 10
108.288
 20
108.691
 30
0.0
 11
108.288
 21
115.613
 31
0.0
  0
LINE
  5
E1
  8
0
 62
     7
 10
104.952
 20
103.10299999999989
 30
0.0
 11
104.952
 21
88.092299999999994
 31
0.0
  0
LINE
  5
E2
  8
0
 62
     7
 10
108.6929999999999
 20
115.613
 30
0.0
 11
111.229
 21
115.613
 31
0.0
  0
ARC
  5
E3
  8
0
 62
     7
 10
1130.4200000000001
 20
194.3875239999999
 30
0.0
 40
1022.7089999999999
 50
185.68222099999991
 51
185.826334
  0
ARC
  5
E4
  8
0
 62
     7
 10
232.01208500000001
 20
103.062614
 30
0.0
 40
119.672511
 50
185.99251899999999
 51
186.58774299999999
  0
LINE
  5
E5
  8
0
 62
     7
 10
101.4379999999999
 20
178.40899999999999
 30
0.0
 11
102.0839999999999
 21
178.40899999999999
 31
0.0
  0
LINE
  5
E6
  8
0
 62
     7
 10
102.4019999999999
 20
178.37
 30
0.0
 11
101.04899999999989
 21
178.37
 31
0.0
  0
LINE
  5
E7
  8
0
 62
     7
 10
101.0599999999999
 20
103.10299999999989
 30
0.0
 11
102.0979999999999
 21
103.10299999999989
 31
0.0
  0
LINE
  5
E8
  8
0
 62
     7
 10
102.0979999999999
 20
103.10299999999989
 30
0.0
 11
102.4019999999999
 21
103.10299999999989
 31
0.0
  0
LINE
  5
E9
  8
0
 62
     7
 10
102.07899999999989
 20
103.06399999999999
 30
0.0
 11
101.4399999999999
 21
103.06399999999999
 31
0.0
  0
LINE
  5
EA
  8
0
 62
     7
 10
83.131699999999995
 20
87.902900000000002
 30
0.0
 11
104.71899999999999
 21
88.092299999999994
 31
0.0
  0
LINE
  5
EB
  8
0
 62
     7
 10
104.71899999999999
 20
103.10299999999989
 30
0.0
 11
102.58199999999999
 21
103.121
 31
0.0
  0
LINE
  5
EC
  8
0
 62
     7
 10
100.84999999999989
 20
103.136
 30
0.0
 11
83.131699999999995
 21
103.292
 31
0.0
  0
LINE
  5
ED
  8
0
 62
     7
 10
83.131699999999995
 20
178.1809999999999
 30
0.0
 11
100.84999999999989
 21
178.3359999999999
 31
0.0
  0
LINE
  5
EE
  8
0
 62
     7
 10
102.58199999999999
 20
178.35099999999991
 30
0.0
 11
104.71899999999999
 21
178.37
 31
0.0
  0
LINE
  5
EF
  8
0
 62
     7
 10
104.71899999999999
 20
193.38099999999989
 30
0.0
 11
83.131699999999995
 21
193.56999999999991
 31
0.0
  0
LINE
  5
F0
  8
0
 62
     7
 10
104.78700000000001
 20
193.04599999999999
 30
0.0
 11
104.71899999999999
 21
193.04599999999999
 31
0.0
  0
LINE
  5
F1
  8
0
 62
     7
 10
104.71899999999999
 20
178.7059999999999
 30
0.0
 11
104.78700000000001
 21
178.70500000000001
 31
0.0
  0
LINE
  5
F2
  8
0
 62
     7
 10
104.952
 20
178.37
 30
0.0
 11
105.3749999999999
 21
178.32299999999989
 31
0.0
  0
LINE
  5
F3
  8
0
 62
     7
 10
105.3749999999999
 20
178.32299999999989
 30
0.0
 11
105.761
 21
178.18599999999989
 31
0.0
  0
LINE
  5
F4
  8
0
 62
     7
 10
105.761
 20
178.18599999999989
 30
0.0
 11
106.42700000000001
 21
177.68899999999999
 31
0.0
  0
LINE
  5
F5
  8
0
 62
     7
 10
106.42700000000001
 20
177.68899999999999
 30
0.0
 11
106.9639999999999
 21
176.95500000000001
 31
0.0
  0
LINE
  5
F6
  8
0
 62
     7
 10
106.9639999999999
 20
176.95500000000001
 30
0.0
 11
107.39
 21
176.05199999999999
 31
0.0
  0
LINE
  5
F7
  8
0
 62
     7
 10
107.39
 20
176.05199999999999
 30
0.0
 11
107.81999999999999
 21
174.649
 31
0.0
  0
LINE
  5
F8
  8
0
 62
     7
 10
107.81999999999999
 20
174.649
 30
0.0
 11
108.10299999999989
 21
173.15599999999989
 31
0.0
  0
LINE
  5
F9
  8
0
 62
     7
 10
108.10299999999989
 20
173.15599999999989
 30
0.0
 11
108.251
 21
171.7759999999999
 31
0.0
  0
LINE
  5
FA
  8
0
 62
     7
 10
108.251
 20
171.7759999999999
 30
0.0
 11
108.277
 21
171.33799999999991
 31
0.0
  0
LINE
  5
FB
  8
0
 62
     7
 10
108.277
 20
171.33799999999991
 30
0.0
 11
108.28699999999991
 21
170.98699999999999
 31
0.0
  0
LINE
  5
FC
  8
0
 62
     7
 10
108.28699999999991
 20
170.98699999999999
 30
0.0
 11
108.288
 21
170.7359999999999
 31
0.0
  0
LINE
  5
FD
  8
0
 62
     7
 10
108.288
 20
170.7359999999999
 30
0.0
 11
108.288
 21
170.53299999999999
 31
0.0
  0
LINE
  5
FE
  8
0
 62
     7
 10
108.288
 20
170.53299999999999
 30
0.0
 11
108.288
 21
170.37299999999999
 31
0.0
  0
ARC
  5
FF
  8
0
 62
     7
 10
104.413178
 20
154.23400699999999
 30
0.0
 40
39.151024
 50
77.529156000000015
 51
89.211347000000004
  0
ARC
  5
100
  8
0
 62
     7
 10
104.7791439999999
 20
193.21864500000001
 30
0.0
 40
0.173011
 50
273.41278999999992
 51
358.025532
  0
ARC
  5
101
  8
0
 62
     7
 10
104.779634
 20
178.53267500000001
 30
0.0
 40
0.17253
 50
2.0663669999999992
 51
88.229725000000002
  0
LINE
  5
102
  8
0
 62
     7
 10
104.7849999999999
 20
178.70500000000001
 30
0.0
 11
104.78399999999991
 21
178.70500000000001
 31
0.0
  0
ARC
  5
103
  8
0
 62
     7
 10
112.7615379999999
 20
192.10417100000001
 30
0.0
 40
0.366763
 50
5.4781959999999987
 51
80.880746000000002
  0
LINE
  5
104
  8
0
 62
     7
 10
104.71899999999999
 20
88.427899999999994
 30
0.0
 11
104.78700000000001
 21
88.427899999999994
 31
0.0
  0
LINE
  5
105
  8
0
 62
     7
 10
104.78700000000001
 20
102.7679999999999
 30
0.0
 11
104.71899999999999
 21
102.7679999999999
 31
0.0
  0
LINE
  5
106
  8
0
 62
     7
 10
108.288
 20
111.33199999999999
 30
0.0
 11
108.288
 21
110.887
 31
0.0
  0
LINE
  5
107
  8
0
 62
     7
 10
108.288
 20
110.887
 30
0.0
 11
108.285
 21
110.3599999999999
 31
0.0
  0
LINE
  5
108
  8
0
 62
     7
 10
108.285
 20
110.3599999999999
 30
0.0
 11
108.246
 21
109.62
 31
0.0
  0
LINE
  5
109
  8
0
 62
     7
 10
108.246
 20
109.62
 30
0.0
 11
108.15299999999991
 21
108.6929999999999
 31
0.0
  0
LINE
  5
10A
  8
0
 62
     7
 10
108.15299999999991
 20
108.6929999999999
 30
0.0
 11
107.994
 21
107.65299999999991
 31
0.0
  0
LINE
  5
10B
  8
0
 62
     7
 10
107.994
 20
107.65299999999991
 30
0.0
 11
107.745
 21
106.529
 31
0.0
  0
LINE
  5
10C
  8
0
 62
     7
 10
107.745
 20
106.529
 30
0.0
 11
107.366
 21
105.361
 31
0.0
  0
LINE
  5
10D
  8
0
 62
     7
 10
107.366
 20
105.361
 30
0.0
 11
106.8129999999999
 21
104.27500000000001
 31
0.0
  0
LINE
  5
10E
  8
0
 62
     7
 10
106.8129999999999
 20
104.27500000000001
 30
0.0
 11
106.45399999999999
 21
103.81399999999989
 31
0.0
  0
LINE
  5
10F
  8
0
 62
     7
 10
106.45399999999999
 20
103.81399999999989
 30
0.0
 11
106.03100000000001
 21
103.4429999999999
 31
0.0
  0
LINE
  5
110
  8
0
 62
     7
 10
106.03100000000001
 20
103.4429999999999
 30
0.0
 11
105.5329999999999
 21
103.19499999999989
 31
0.0
  0
LINE
  5
111
  8
0
 62
     7
 10
105.5329999999999
 20
103.19499999999989
 30
0.0
 11
104.952
 21
103.10299999999989
 31
0.0
  0
ARC
  5
112
  8
0
 62
     7
 10
104.41248399999991
 20
127.25278299999999
 30
0.0
 40
39.164161999999997
 50
270.78940399999988
 51
282.46763299999998
  0
ARC
  5
113
  8
0
 62
     7
 10
104.7791289999999
 20
88.254981000000001
 30
0.0
 40
0.173033
 50
2.0423990000000001
 51
87.839089000000001
  0
LINE
  5
114
  8
0
 62
     7
 10
104.786
 20
88.427899999999994
 30
0.0
 11
104.7849999999999
 21
88.427899999999994
 31
0.0
  0
ARC
  5
115
  8
0
 62
     7
 10
104.77929
 20
102.940344
 30
0.0
 40
0.172858
 50
273.71037699999999
 51
358.09312799999992
  0
ARC
  5
116
  8
0
 62
     7
 10
112.75312700000001
 20
89.376541000000003
 30
0.0
 40
0.379078
 50
280.003692
 51
353.44534399999998
  0
LINE
  5
117
  8
0
 62
     7
 10
155.32799999999989
 20
182.46299999999991
 30
0.0
 11
155.32599999999991
 21
182.34
 31
0.0
  0
LINE
  5
118
  8
0
 62
     7
 10
155.33699999999999
 20
165.62700000000001
 30
0.0
 11
154.90600000000001
 21
165.62700000000001
 31
0.0
  0
LINE
  5
119
  8
0
 62
     7
 10
155.33699999999999
 20
115.846
 30
0.0
 11
154.90600000000001
 21
115.846
 31
0.0
  0
LINE
  5
11A
  8
0
 62
     7
 10
155.33699999999999
 20
115.846
 30
0.0
 11
155.33699999999999
 21
165.62700000000001
 31
0.0
  0
LINE
  5
11B
  8
0
 62
     7
 10
154.90600000000001
 20
165.62700000000001
 30
0.0
 11
145.81200000000001
 21
165.62700000000001
 31
0.0
  0
LINE
  5
11C
  8
0
 62
     7
 10
154.90600000000001
 20
115.846
 30
0.0
 11
145.81200000000001
 21
115.846
 31
0.0
  0
LINE
  5
11D
  8
0
 62
     7
 10
145.81200000000001
 20
165.62700000000001
 30
0.0
 11
145.381
 21
165.62700000000001
 31
0.0
  0
LINE
  5
11E
  8
0
 62
     7
 10
145.381
 20
115.846
 30
0.0
 11
145.381
 21
165.62700000000001
 31
0.0
  0
LINE
  5
11F
  8
0
 62
     7
 10
145.81200000000001
 20
115.846
 30
0.0
 11
145.381
 21
115.846
 31
0.0
  0
ARC
  5
120
  8
0
 62
     7
 10
150.58340000000001
 20
93.292762999999994
 30
0.0
 40
5.394588999999999
 50
182.09002599999999
 51
267.61275999999998
  0
ARC
  5
121
  8
0
 62
     7
 10
150.15867800000001
 20
93.269276000000005
 30
0.0
 40
5.3701470000000002
 50
272.13457799999992
 51
358.15121499999998
  0
LINE
  5
122
  8
0
 62
     7
 10
145.19200000000001
 20
98.099699999999984
 30
0.0
 11
145.19200000000001
 21
93.096000000000004
 31
0.0
  0
LINE
  5
123
  8
0
 62
     7
 10
145.34200000000001
 20
99.341300000000004
 30
0.0
 11
145.256
 21
98.9114
 31
0.0
  0
LINE
  5
124
  8
0
 62
     7
 10
145.256
 20
98.9114
 30
0.0
 11
145.19200000000001
 21
98.099699999999984
 31
0.0
  0
LINE
  5
125
  8
0
 62
     7
 10
155.52600000000001
 20
98.099699999999984
 30
0.0
 11
155.46299999999991
 21
98.9114
 31
0.0
  0
LINE
  5
126
  8
0
 62
     7
 10
155.46299999999991
 20
98.9114
 30
0.0
 11
155.35099999999991
 21
99.439899999999994
 31
0.0
  0
LINE
  5
127
  8
0
 62
     7
 10
155.52600000000001
 20
93.096000000000004
 30
0.0
 11
155.52600000000001
 21
98.099699999999984
 31
0.0
  0
ARC
  5
128
  8
0
 62
     7
 10
150.1356889999999
 20
188.18079399999991
 30
0.0
 40
5.3939329999999996
 50
2.0913490000000001
 51
87.630460000000014
  0
ARC
  5
129
  8
0
 62
     7
 10
150.5591169999999
 20
188.20434299999991
 30
0.0
 40
5.3695139999999988
 50
92.139070000000004
 51
178.150542
  0
LINE
  5
12A
  8
0
 62
     7
 10
145.19200000000001
 20
188.3779999999999
 30
0.0
 11
145.19200000000001
 21
183.374
 31
0.0
  0
LINE
  5
12B
  8
0
 62
     7
 10
155.316
 20
181.90999999999991
 30
0.0
 11
155.46299999999991
 21
182.56099999999989
 31
0.0
  0
LINE
  5
12C
  8
0
 62
     7
 10
155.46299999999991
 20
182.56099999999989
 30
0.0
 11
155.52600000000001
 21
183.374
 31
0.0
  0
LINE
  5
12D
  8
0
 62
     7
 10
145.19200000000001
 20
183.374
 30
0.0
 11
145.256
 21
182.56099999999989
 31
0.0
  0
LINE
  5
12E
  8
0
 62
     7
 10
145.256
 20
182.56099999999989
 30
0.0
 11
145.36699999999999
 21
182.03399999999999
 31
0.0
  0
LINE
  5
12F
  8
0
 62
     7
 10
155.52600000000001
 20
183.374
 30
0.0
 11
155.52600000000001
 21
188.3779999999999
 31
0.0
  0
LINE
  5
130
  8
0
 62
     7
 10
145.518
 20
165.62700000000001
 30
0.0
 11
145.51300000000001
 21
165.8609999999999
 31
0.0
  0
LINE
  5
131
  8
0
 62
     7
 10
155.20500000000001
 20
165.8609999999999
 30
0.0
 11
155.20099999999991
 21
165.62700000000001
 31
0.0
  0
LINE
  5
132
  8
0
 62
     7
 10
145.38499999999991
 20
182.947
 30
0.0
 11
145.387
 21
182.6459999999999
 31
0.0
  0
LINE
  5
133
  8
0
 62
     7
 10
145.387
 20
182.6459999999999
 30
0.0
 11
145.39199999999991
 21
182.11500000000001
 31
0.0
  0
LINE
  5
134
  8
0
 62
     7
 10
145.39199999999991
 20
182.11500000000001
 30
0.0
 11
145.40100000000001
 21
181.102
 31
0.0
  0
LINE
  5
135
  8
0
 62
     7
 10
145.40100000000001
 20
181.102
 30
0.0
 11
145.40700000000001
 21
180.13799999999989
 31
0.0
  0
LINE
  5
136
  8
0
 62
     7
 10
145.40700000000001
 20
180.13799999999989
 30
0.0
 11
145.4129999999999
 21
179.14099999999991
 31
0.0
  0
LINE
  5
137
  8
0
 62
     7
 10
145.4129999999999
 20
179.14099999999991
 30
0.0
 11
145.4199999999999
 21
177.53899999999999
 31
0.0
  0
LINE
  5
138
  8
0
 62
     7
 10
145.4199999999999
 20
177.53899999999999
 30
0.0
 11
145.423
 21
176.40700000000001
 31
0.0
  0
LINE
  5
139
  8
0
 62
     7
 10
145.423
 20
176.40700000000001
 30
0.0
 11
145.42500000000001
 21
175.88099999999989
 31
0.0
  0
LINE
  5
13A
  8
0
 62
     7
 10
145.42500000000001
 20
175.88099999999989
 30
0.0
 11
145.42599999999999
 21
174.20099999999999
 31
0.0
  0
LINE
  5
13B
  8
0
 62
     7
 10
145.42599999999999
 20
174.20099999999999
 30
0.0
 11
145.42599999999999
 21
173.041
 31
0.0
  0
LINE
  5
13C
  8
0
 62
     7
 10
145.42599999999999
 20
173.041
 30
0.0
 11
145.42599999999999
 21
169.85099999999991
 31
0.0
  0
LINE
  5
13D
  8
0
 62
     7
 10
145.42599999999999
 20
169.85099999999991
 30
0.0
 11
145.42599999999999
 21
165.8609999999999
 31
0.0
  0
LINE
  5
13E
  8
0
 62
     7
 10
155.292
 20
165.8609999999999
 30
0.0
 11
155.292
 21
172.26599999999991
 31
0.0
  0
LINE
  5
13F
  8
0
 62
     7
 10
155.292
 20
172.26599999999991
 30
0.0
 11
155.292
 21
172.4959999999999
 31
0.0
  0
LINE
  5
140
  8
0
 62
     7
 10
155.292
 20
172.4959999999999
 30
0.0
 11
155.292
 21
172.72399999999999
 31
0.0
  0
LINE
  5
141
  8
0
 62
     7
 10
155.292
 20
172.72399999999999
 30
0.0
 11
155.292
 21
173.119
 31
0.0
  0
LINE
  5
142
  8
0
 62
     7
 10
155.292
 20
173.119
 30
0.0
 11
155.292
 21
173.5559999999999
 31
0.0
  0
LINE
  5
143
  8
0
 62
     7
 10
155.292
 20
173.5559999999999
 30
0.0
 11
155.292
 21
173.839
 31
0.0
  0
LINE
  5
144
  8
0
 62
     7
 10
155.292
 20
173.839
 30
0.0
 11
155.292
 21
174.1629999999999
 31
0.0
  0
LINE
  5
145
  8
0
 62
     7
 10
155.292
 20
174.1629999999999
 30
0.0
 11
155.292
 21
174.59999999999991
 31
0.0
  0
LINE
  5
146
  8
0
 62
     7
 10
155.292
 20
174.59999999999991
 30
0.0
 11
155.29300000000001
 21
175.029
 31
0.0
  0
LINE
  5
147
  8
0
 62
     7
 10
155.29300000000001
 20
175.029
 30
0.0
 11
155.29799999999989
 21
177.3309999999999
 31
0.0
  0
LINE
  5
148
  8
0
 62
     7
 10
155.29799999999989
 20
177.3309999999999
 30
0.0
 11
155.30699999999999
 21
179.52000000000001
 31
0.0
  0
LINE
  5
149
  8
0
 62
     7
 10
155.30699999999999
 20
179.52000000000001
 30
0.0
 11
155.3129999999999
 21
180.55199999999999
 31
0.0
  0
LINE
  5
14A
  8
0
 62
     7
 10
155.3129999999999
 20
180.55199999999999
 30
0.0
 11
155.32099999999991
 21
181.54099999999991
 31
0.0
  0
LINE
  5
14B
  8
0
 62
     7
 10
155.32099999999991
 20
181.54099999999991
 30
0.0
 11
155.32499999999999
 21
182.012
 31
0.0
  0
LINE
  5
14C
  8
0
 62
     7
 10
155.32499999999999
 20
182.012
 30
0.0
 11
155.32799999999989
 21
182.333
 31
0.0
  0
LINE
  5
14D
  8
0
 62
     7
 10
155.32799999999989
 20
182.333
 30
0.0
 11
155.32900000000001
 21
182.46899999999999
 31
0.0
  0
LINE
  5
14E
  8
0
 62
     7
 10
155.32900000000001
 20
182.46899999999999
 30
0.0
 11
155.33099999999999
 21
182.67400000000001
 31
0.0
  0
LINE
  5
14F
  8
0
 62
     7
 10
155.33099999999999
 20
182.67400000000001
 30
0.0
 11
155.333
 21
182.91099999999989
 31
0.0
  0
LINE
  5
150
  8
0
 62
     7
 10
155.333
 20
182.91099999999989
 30
0.0
 11
155.33500000000001
 21
183.0449999999999
 31
0.0
  0
LINE
  5
151
  8
0
 62
     7
 10
155.33500000000001
 20
183.0449999999999
 30
0.0
 11
155.33600000000001
 21
183.13099999999989
 31
0.0
  0
LINE
  5
152
  8
0
 62
     7
 10
155.33600000000001
 20
183.13099999999989
 30
0.0
 11
155.33600000000001
 21
183.1929999999999
 31
0.0
  0
LINE
  5
153
  8
0
 62
     7
 10
145.8549999999999
 20
165.8609999999999
 30
0.0
 11
145.45699999999991
 21
165.8609999999999
 31
0.0
  0
ARC
  5
154
  8
0
 62
     7
 10
20302.720000000001
 20
164.78281000000001
 30
0.0
 40
20157.259999999991
 50
179.9329129999999
 51
179.996915
  0
LINE
  5
155
  8
0
 62
     7
 10
155.261
 20
165.8609999999999
 30
0.0
 11
154.86299999999989
 21
165.8609999999999
 31
0.0
  0
ARC
  5
156
  8
0
 62
     7
 10
-18101.110000000001
 20
165.94618500000001
 30
0.0
 40
18256.380000000001
 50
359.99973299999988
 51
0.070399
  0
LINE
  5
157
  8
0
 62
     7
 10
145.471
 20
188.38499999999991
 30
0.0
 11
145.68399999999991
 21
189.53200000000001
 31
0.0
  0
LINE
  5
158
  8
0
 62
     7
 10
145.68399999999991
 20
189.53200000000001
 30
0.0
 11
146.2299999999999
 21
190.52799999999991
 31
0.0
  0
LINE
  5
159
  8
0
 62
     7
 10
146.2299999999999
 20
190.52799999999991
 30
0.0
 11
147.16
 21
191.453
 31
0.0
  0
LINE
  5
15A
  8
0
 62
     7
 10
147.16
 20
191.453
 30
0.0
 11
147.80299999999991
 21
191.85900000000001
 31
0.0
  0
LINE
  5
15B
  8
0
 62
     7
 10
147.80299999999991
 20
191.85900000000001
 30
0.0
 11
148.50200000000001
 21
192.16499999999991
 31
0.0
  0
LINE
  5
15C
  8
0
 62
     7
 10
148.50200000000001
 20
192.16499999999991
 30
0.0
 11
149.31100000000001
 21
192.3779999999999
 31
0.0
  0
LINE
  5
15D
  8
0
 62
     7
 10
149.31100000000001
 20
192.3779999999999
 30
0.0
 11
150.143
 21
192.46799999999999
 31
0.0
  0
LINE
  5
15E
  8
0
 62
     7
 10
150.143
 20
192.46799999999999
 30
0.0
 11
151.06700000000001
 21
192.43000000000001
 31
0.0
  0
LINE
  5
15F
  8
0
 62
     7
 10
151.06700000000001
 20
192.43000000000001
 30
0.0
 11
151.971
 21
192.244
 31
0.0
  0
LINE
  5
160
  8
0
 62
     7
 10
151.971
 20
192.244
 30
0.0
 11
152.87299999999991
 21
191.88099999999989
 31
0.0
  0
LINE
  5
161
  8
0
 62
     7
 10
152.87299999999991
 20
191.88099999999989
 30
0.0
 11
153.68899999999991
 21
191.35299999999989
 31
0.0
  0
LINE
  5
162
  8
0
 62
     7
 10
153.68899999999991
 20
191.35299999999989
 30
0.0
 11
154.30799999999991
 21
190.7529999999999
 31
0.0
  0
LINE
  5
163
  8
0
 62
     7
 10
154.30799999999991
 20
190.7529999999999
 30
0.0
 11
154.80000000000001
 21
190.04499999999999
 31
0.0
  0
LINE
  5
164
  8
0
 62
     7
 10
154.80000000000001
 20
190.04499999999999
 30
0.0
 11
155.1989999999999
 21
188.92299999999989
 31
0.0
  0
LINE
  5
165
  8
0
 62
     7
 10
155.1989999999999
 20
188.92299999999989
 30
0.0
 11
155.24799999999991
 21
188.38499999999991
 31
0.0
  0
LINE
  5
166
  8
0
 62
     7
 10
145.8549999999999
 20
165.8609999999999
 30
0.0
 11
154.86299999999989
 21
165.8609999999999
 31
0.0
  0
LINE
  5
167
  8
0
 62
     7
 10
155.20099999999991
 20
115.846
 30
0.0
 11
155.20500000000001
 21
115.613
 31
0.0
  0
LINE
  5
168
  8
0
 62
     7
 10
145.51300000000001
 20
115.613
 30
0.0
 11
145.518
 21
115.846
 31
0.0
  0
LINE
  5
169
  8
0
 62
     7
 10
155.33600000000001
 20
98.361500000000007
 30
0.0
 11
155.33500000000001
 21
98.439400000000006
 31
0.0
  0
LINE
  5
16A
  8
0
 62
     7
 10
155.33500000000001
 20
98.439400000000006
 30
0.0
 11
155.334
 21
98.526200000000017
 31
0.0
  0
LINE
  5
16B
  8
0
 62
     7
 10
155.334
 20
98.526200000000017
 30
0.0
 11
155.33000000000001
 21
98.827299999999994
 31
0.0
  0
LINE
  5
16C
  8
0
 62
     7
 10
155.33000000000001
 20
98.827299999999994
 30
0.0
 11
155.32599999999991
 21
99.357200000000006
 31
0.0
  0
LINE
  5
16D
  8
0
 62
     7
 10
155.32599999999991
 20
99.357200000000006
 30
0.0
 11
155.31700000000001
 21
100.371
 31
0.0
  0
LINE
  5
16E
  8
0
 62
     7
 10
155.31700000000001
 20
100.371
 30
0.0
 11
155.31100000000001
 21
101.336
 31
0.0
  0
LINE
  5
16F
  8
0
 62
     7
 10
155.31100000000001
 20
101.336
 30
0.0
 11
155.30600000000001
 21
102.33199999999999
 31
0.0
  0
LINE
  5
170
  8
0
 62
     7
 10
155.30600000000001
 20
102.33199999999999
 30
0.0
 11
155.29799999999989
 21
103.9339999999999
 31
0.0
  0
LINE
  5
171
  8
0
 62
     7
 10
155.29799999999989
 20
103.9339999999999
 30
0.0
 11
155.29599999999991
 21
105.066
 31
0.0
  0
LINE
  5
172
  8
0
 62
     7
 10
155.29599999999991
 20
105.066
 30
0.0
 11
155.29300000000001
 21
105.5929999999999
 31
0.0
  0
LINE
  5
173
  8
0
 62
     7
 10
155.29300000000001
 20
105.5929999999999
 30
0.0
 11
155.292
 21
107.27200000000001
 31
0.0
  0
LINE
  5
174
  8
0
 62
     7
 10
155.292
 20
107.27200000000001
 30
0.0
 11
155.292
 21
108.4319999999999
 31
0.0
  0
LINE
  5
175
  8
0
 62
     7
 10
155.292
 20
108.4319999999999
 30
0.0
 11
155.292
 21
111.622
 31
0.0
  0
LINE
  5
176
  8
0
 62
     7
 10
155.292
 20
111.622
 30
0.0
 11
155.292
 21
115.613
 31
0.0
  0
LINE
  5
177
  8
0
 62
     7
 10
145.42599999999999
 20
115.613
 30
0.0
 11
145.42599999999999
 21
109.20699999999999
 31
0.0
  0
LINE
  5
178
  8
0
 62
     7
 10
145.42599999999999
 20
109.20699999999999
 30
0.0
 11
145.42599999999999
 21
108.97799999999989
 31
0.0
  0
LINE
  5
179
  8
0
 62
     7
 10
145.42599999999999
 20
108.97799999999989
 30
0.0
 11
145.42599999999999
 21
108.749
 31
0.0
  0
LINE
  5
17A
  8
0
 62
     7
 10
145.42599999999999
 20
108.749
 30
0.0
 11
145.42599999999999
 21
108.3539999999999
 31
0.0
  0
LINE
  5
17B
  8
0
 62
     7
 10
145.42599999999999
 20
108.3539999999999
 30
0.0
 11
145.42599999999999
 21
107.9169999999999
 31
0.0
  0
LINE
  5
17C
  8
0
 62
     7
 10
145.42599999999999
 20
107.9169999999999
 30
0.0
 11
145.42599999999999
 21
107.634
 31
0.0
  0
LINE
  5
17D
  8
0
 62
     7
 10
145.42599999999999
 20
107.634
 30
0.0
 11
145.42599999999999
 21
107.3099999999999
 31
0.0
  0
LINE
  5
17E
  8
0
 62
     7
 10
145.42599999999999
 20
107.3099999999999
 30
0.0
 11
145.42599999999999
 21
106.87299999999991
 31
0.0
  0
LINE
  5
17F
  8
0
 62
     7
 10
145.42599999999999
 20
106.87299999999991
 30
0.0
 11
145.42599999999999
 21
106.444
 31
0.0
  0
LINE
  5
180
  8
0
 62
     7
 10
145.42599999999999
 20
106.444
 30
0.0
 11
145.4199999999999
 21
104.142
 31
0.0
  0
LINE
  5
181
  8
0
 62
     7
 10
145.4199999999999
 20
104.142
 30
0.0
 11
145.411
 21
101.9529999999999
 31
0.0
  0
LINE
  5
182
  8
0
 62
     7
 10
145.411
 20
101.9529999999999
 30
0.0
 11
145.405
 21
100.922
 31
0.0
  0
LINE
  5
183
  8
0
 62
     7
 10
145.405
 20
100.922
 30
0.0
 11
145.398
 21
99.931799999999996
 31
0.0
  0
LINE
  5
184
  8
0
 62
     7
 10
145.398
 20
99.931799999999996
 30
0.0
 11
145.39400000000001
 21
99.460499999999996
 31
0.0
  0
LINE
  5
185
  8
0
 62
     7
 10
145.39400000000001
 20
99.460499999999996
 30
0.0
 11
145.38900000000001
 21
99.003699999999995
 31
0.0
  0
LINE
  5
186
  8
0
 62
     7
 10
145.38900000000001
 20
99.003699999999995
 30
0.0
 11
145.387
 21
98.799099999999996
 31
0.0
  0
LINE
  5
187
  8
0
 62
     7
 10
145.387
 20
98.799099999999996
 30
0.0
 11
145.38499999999991
 21
98.562000000000012
 31
0.0
  0
LINE
  5
188
  8
0
 62
     7
 10
154.86299999999989
 20
115.613
 30
0.0
 11
155.261
 21
115.613
 31
0.0
  0
ARC
  5
189
  8
0
 62
     7
 10
-17989.57
 20
115.459211
 30
0.0
 40
18144.84
 50
359.92938399999991
 51
0.000484
  0
LINE
  5
18A
  8
0
 62
     7
 10
145.45699999999991
 20
115.613
 30
0.0
 11
145.8549999999999
 21
115.613
 31
0.0
  0
ARC
  5
18B
  8
0
 62
     7
 10
18391.860000000001
 20
115.52137399999989
 30
0.0
 40
18246.41
 50
179.99969399999989
 51
180.07043799999991
  0
LINE
  5
18C
  8
0
 62
     7
 10
154.86299999999989
 20
115.613
 30
0.0
 11
145.8549999999999
 21
115.613
 31
0.0
  0
LINE
  5
18D
  8
0
 62
     7
 10
155.24799999999991
 20
93.087100000000007
 30
0.0
 11
155.03399999999999
 21
91.9405
 31
0.0
  0
LINE
  5
18E
  8
0
 62
     7
 10
155.03399999999999
 20
91.9405
 30
0.0
 11
154.489
 21
90.944900000000004
 31
0.0
  0
LINE
  5
18F
  8
0
 62
     7
 10
154.489
 20
90.944900000000004
 30
0.0
 11
153.559
 21
90.020199999999988
 31
0.0
  0
LINE
  5
190
  8
0
 62
     7
 10
153.559
 20
90.020199999999988
 30
0.0
 11
152.9139999999999
 21
89.612999999999985
 31
0.0
  0
LINE
  5
191
  8
0
 62
     7
 10
152.9139999999999
 20
89.612999999999985
 30
0.0
 11
152.21600000000001
 21
89.308499999999995
 31
0.0
  0
LINE
  5
192
  8
0
 62
     7
 10
152.21600000000001
 20
89.308499999999995
 30
0.0
 11
151.40700000000001
 21
89.094899999999996
 31
0.0
  0
LINE
  5
193
  8
0
 62
     7
 10
151.40700000000001
 20
89.094899999999996
 30
0.0
 11
150.5749999999999
 21
89.005300000000005
 31
0.0
  0
LINE
  5
194
  8
0
 62
     7
 10
150.5749999999999
 20
89.005300000000005
 30
0.0
 11
149.65100000000001
 21
89.043199999999999
 31
0.0
  0
LINE
  5
195
  8
0
 62
     7
 10
149.65100000000001
 20
89.043199999999999
 30
0.0
 11
148.74700000000001
 21
89.228499999999997
 31
0.0
  0
LINE
  5
196
  8
0
 62
     7
 10
148.74700000000001
 20
89.228499999999997
 30
0.0
 11
147.845
 21
89.592299999999994
 31
0.0
  0
LINE
  5
197
  8
0
 62
     7
 10
147.845
 20
89.592299999999994
 30
0.0
 11
147.02999999999989
 21
90.120099999999994
 31
0.0
  0
LINE
  5
198
  8
0
 62
     7
 10
147.02999999999989
 20
90.120099999999994
 30
0.0
 11
146.41
 21
90.7196
 31
0.0
  0
LINE
  5
199
  8
0
 62
     7
 10
146.41
 20
90.7196
 30
0.0
 11
145.91800000000001
 21
91.427899999999994
 31
0.0
  0
LINE
  5
19A
  8
0
 62
     7
 10
145.91800000000001
 20
91.427899999999994
 30
0.0
 11
145.51899999999989
 21
92.549599999999998
 31
0.0
  0
LINE
  5
19B
  8
0
 62
     7
 10
145.51899999999989
 20
92.549599999999998
 30
0.0
 11
145.471
 21
93.087100000000007
 31
0.0
  0
LINE
  5
19C
  8
0
 62
     7
 10
155.32900000000001
 20
182.46899999999999
 30
0.0
 11
155.32299999999989
 21
181.89399999999989
 31
0.0
  0
ARC
  5
19D
  8
0
  6
AIGENLINE001
 62
     7
 10
150.31805800000001
 20
190.8341879999999
 30
0.0
 40
1.125232999999999
 50
2.104884999999999
 51
87.895105000000001
  0
ARC
  5
19E
  8
0
  6
AIGENLINE001
 62
     7
 10
150.31771000000001
 20
190.91683599999999
 30
0.0
 40
1.1255809999999991
 50
272.1220009999999
 51
357.89623
  0
ARC
  5
19F
  8
0
  6
AIGENLINE001
 62
     7
 10
150.4007389999999
 20
190.91651100000001
 30
0.0
 40
1.1252439999999999
 50
182.08788499999989
 51
267.89392400000003
  0
ARC
  5
1A0
  8
0
  6
AIGENLINE001
 62
     7
 10
150.4006949999999
 20
190.83420799999999
 30
0.0
 40
1.1252120000000001
 50
92.103888999999981
 51
177.89608100000001
  0
ARC
  5
1A1
  8
0
  6
AIGENLINE001
 62
     7
 10
150.31805800000001
 20
180.83421799999991
 30
0.0
 40
1.125232999999999
 50
2.104884999999999
 51
87.895105000000001
  0
ARC
  5
1A2
  8
0
  6
AIGENLINE001
 62
     7
 10
150.31755499999991
 20
180.91684199999989
 30
0.0
 40
1.125734
 50
272.12958300000003
 51
357.89775600000002
  0
ARC
  5
1A3
  8
0
  6
AIGENLINE001
 62
     7
 10
150.40075200000001
 20
180.9163749999999
 30
0.0
 40
1.125251
 50
182.079386
 51
267.89331499999992
  0
ARC
  5
1A4
  8
0
  6
AIGENLINE001
 62
     7
 10
150.4006949999999
 20
180.834238
 30
0.0
 40
1.1252120000000001
 50
92.103888999999981
 51
177.89608100000001
  0
LINE
  5
1A5
  8
0
  6
AIGENLINE002
 62
     7
 10
150.35900000000001
 20
189.34899999999999
 30
0.0
 11
150.35900000000001
 21
192.40199999999999
 31
0.0
  0
LINE
  5
1A6
  8
0
  6
AIGENLINE002
 62
     7
 10
148.83299999999991
 20
190.87599999999989
 30
0.0
 11
151.886
 21
190.87599999999989
 31
0.0
  0
LINE
  5
1A7
  8
0
  6
AIGENLINE002
 62
     7
 10
150.35900000000001
 20
179.34899999999999
 30
0.0
 11
150.35900000000001
 21
182.40199999999999
 31
0.0
  0
LINE
  5
1A8
  8
0
  6
AIGENLINE002
 62
     7
 10
148.83299999999991
 20
180.87599999999989
 30
0.0
 11
151.886
 21
180.87599999999989
 31
0.0
  0
ARC
  5
1A9
  8
0
  6
AIGENLINE001
 62
     7
 10
150.31805800000001
 20
100.5560959999999
 30
0.0
 40
1.125232999999999
 50
2.104884999999999
 51
87.895105000000001
  0
ARC
  5
1AA
  8
0
  6
AIGENLINE001
 62
     7
 10
150.31805800000001
 20
100.63875299999999
 30
0.0
 40
1.125232999999999
 50
272.104895
 51
357.89511499999992
  0
ARC
  5
1AB
  8
0
  6
AIGENLINE001
 62
     7
 10
150.40071499999991
 20
100.638752
 30
0.0
 40
1.125232
 50
182.1048879999999
 51
267.89514199999991
  0
ARC
  5
1AC
  8
0
  6
AIGENLINE001
 62
     7
 10
150.40071499999991
 20
100.5560959999999
 30
0.0
 40
1.125232
 50
92.104857999999993
 51
177.89511200000001
  0
ARC
  5
1AD
  8
0
  6
AIGENLINE001
 62
     7
 10
150.31805800000001
 20
90.556297999999998
 30
0.0
 40
1.125232999999999
 50
2.104884999999999
 51
87.895105000000001
  0
ARC
  5
1AE
  8
0
  6
AIGENLINE001
 62
     7
 10
150.31805800000001
 20
90.638954999999996
 30
0.0
 40
1.125232999999999
 50
272.104895
 51
357.89511499999992
  0
ARC
  5
1AF
  8
0
  6
AIGENLINE001
 62
     7
 10
150.40071499999991
 20
90.638954999999996
 30
0.0
 40
1.125232
 50
182.1048879999999
 51
267.89514199999991
  0
ARC
  5
1B0
  8
0
  6
AIGENLINE001
 62
     7
 10
150.40071499999991
 20
90.556298999999996
 30
0.0
 40
1.125232
 50
92.104857999999993
 51
177.89511200000001
  0
LINE
  5
1B1
  8
0
  6
AIGENLINE002
 62
     7
 10
150.35900000000001
 20
99.070499999999996
 30
0.0
 11
150.35900000000001
 21
102.1239999999999
 31
0.0
  0
LINE
  5
1B2
  8
0
  6
AIGENLINE002
 62
     7
 10
148.83299999999991
 20
100.59699999999999
 30
0.0
 11
151.886
 21
100.59699999999999
 31
0.0
  0
LINE
  5
1B3
  8
0
  6
AIGENLINE002
 62
     7
 10
150.35900000000001
 20
89.070800000000006
 30
0.0
 11
150.35900000000001
 21
92.124499999999998
 31
0.0
  0
LINE
  5
1B4
  8
0
  6
AIGENLINE002
 62
     7
 10
148.83299999999991
 20
90.5976
 30
0.0
 11
151.886
 21
90.5976
 31
0.0
  0
LINE
  5
1B5
  8
0
 62
     7
 10
70.440600000000003
 20
191.57599999999991
 30
0.0
 11
71.004900000000006
 21
190.17500000000001
 31
0.0
  0
LINE
  5
1B6
  8
0
 62
     7
 10
71.238100000000003
 20
191.57599999999991
 30
0.0
 11
71.802099999999996
 21
190.17500000000001
 31
0.0
  0
LINE
  5
1B7
  8
0
 62
     7
 10
72.0364
 20
191.57599999999991
 30
0.0
 11
72.599599999999995
 21
190.17500000000001
 31
0.0
  0
LINE
  5
1B8
  8
0
 62
     7
 10
72.8339
 20
191.57599999999991
 30
0.0
 11
73.397900000000007
 21
190.17500000000001
 31
0.0
  0
LINE
  5
1B9
  8
0
 62
     7
 10
73.631500000000003
 20
191.57599999999991
 30
0.0
 11
74.195400000000006
 21
190.17500000000001
 31
0.0
  0
LINE
  5
1BA
  8
0
 62
     7
 10
74.428700000000006
 20
191.57599999999991
 30
0.0
 11
74.992999999999995
 21
190.17500000000001
 31
0.0
  0
LINE
  5
1BB
  8
0
 62
     7
 10
75.227199999999996
 20
191.57599999999991
 30
0.0
 11
75.790199999999984
 21
190.17500000000001
 31
0.0
  0
LINE
  5
1BC
  8
0
 62
     7
 10
76.0244
 20
191.57599999999991
 30
0.0
 11
76.588700000000003
 21
190.17500000000001
 31
0.0
  0
LINE
  5
1BD
  8
0
 62
     7
 10
82.404799999999994
 20
191.57599999999991
 30
0.0
 11
82.969099999999997
 21
190.17500000000001
 31
0.0
  0
LINE
  5
1BE
  8
0
 62
     7
 10
81.606899999999996
 20
191.57599999999991
 30
0.0
 11
82.171599999999984
 21
190.17500000000001
 31
0.0
  0
LINE
  5
1BF
  8
0
 62
     7
 10
80.809700000000007
 20
191.57599999999991
 30
0.0
 11
81.373699999999999
 21
190.17500000000001
 31
0.0
  0
LINE
  5
1C0
  8
0
 62
     7
 10
80.012200000000007
 20
191.57599999999991
 30
0.0
 11
80.576099999999997
 21
190.17500000000001
 31
0.0
  0
LINE
  5
1C1
  8
0
 62
     7
 10
79.214600000000004
 20
191.57599999999991
 30
0.0
 11
79.778899999999993
 21
190.17500000000001
 31
0.0
  0
LINE
  5
1C2
  8
0
 62
     7
 10
78.417400000000001
 20
191.57599999999991
 30
0.0
 11
78.981399999999994
 21
190.17500000000001
 31
0.0
  0
LINE
  5
1C3
  8
0
 62
     7
 10
76.822000000000003
 20
191.57599999999991
 30
0.0
 11
77.385900000000007
 21
190.17500000000001
 31
0.0
  0
LINE
  5
1C4
  8
0
 62
     7
 10
77.619500000000002
 20
191.57599999999991
 30
0.0
 11
78.183499999999995
 21
190.17500000000001
 31
0.0
  0
LINE
  5
1C5
  8
0
 62
     7
 10
70.618399999999994
 20
191.21000000000001
 30
0.0
 11
69.797700000000006
 21
190.87599999999989
 31
0.0
  0
LINE
  5
1C6
  8
0
 62
     7
 10
70.618399999999994
 20
190.541
 30
0.0
 11
69.797700000000006
 21
190.87599999999989
 31
0.0
  0
LINE
  5
1C7
  8
0
 62
     7
 10
70.618399999999994
 20
190.541
 30
0.0
 11
83.131699999999995
 21
190.541
 31
0.0
  0
LINE
  5
1C8
  8
0
 62
     7
 10
70.618399999999994
 20
191.21000000000001
 30
0.0
 11
83.131699999999995
 21
191.21000000000001
 31
0.0
  0
LINE
  5
1C9
  8
0
  6
AIGENLINE002
 62
     7
 10
68.406599999999983
 20
190.87599999999989
 30
0.0
 11
84.870800000000003
 21
190.87599999999989
 31
0.0
  0
LINE
  5
1CA
  8
0
 62
     7
 10
70.440600000000003
 20
181.57599999999999
 30
0.0
 11
71.004900000000006
 21
180.17500000000001
 31
0.0
  0
LINE
  5
1CB
  8
0
 62
     7
 10
71.238100000000003
 20
181.57599999999999
 30
0.0
 11
71.802099999999996
 21
180.17500000000001
 31
0.0
  0
LINE
  5
1CC
  8
0
 62
     7
 10
72.0364
 20
181.57599999999999
 30
0.0
 11
72.599599999999995
 21
180.17500000000001
 31
0.0
  0
LINE
  5
1CD
  8
0
 62
     7
 10
72.8339
 20
181.57599999999999
 30
0.0
 11
73.397900000000007
 21
180.17500000000001
 31
0.0
  0
LINE
  5
1CE
  8
0
 62
     7
 10
73.631500000000003
 20
181.57599999999999
 30
0.0
 11
74.195400000000006
 21
180.17500000000001
 31
0.0
  0
LINE
  5
1CF
  8
0
 62
     7
 10
74.428700000000006
 20
181.57599999999999
 30
0.0
 11
74.992999999999995
 21
180.17500000000001
 31
0.0
  0
LINE
  5
1D0
  8
0
 62
     7
 10
75.227199999999996
 20
181.57599999999999
 30
0.0
 11
75.790199999999984
 21
180.17500000000001
 31
0.0
  0
LINE
  5
1D1
  8
0
 62
     7
 10
76.0244
 20
181.57599999999999
 30
0.0
 11
76.588700000000003
 21
180.17500000000001
 31
0.0
  0
LINE
  5
1D2
  8
0
 62
     7
 10
82.404799999999994
 20
181.57599999999999
 30
0.0
 11
82.969099999999997
 21
180.17500000000001
 31
0.0
  0
LINE
  5
1D3
  8
0
 62
     7
 10
81.606899999999996
 20
181.57599999999999
 30
0.0
 11
82.171599999999984
 21
180.17500000000001
 31
0.0
  0
LINE
  5
1D4
  8
0
 62
     7
 10
80.809700000000007
 20
181.57599999999999
 30
0.0
 11
81.373699999999999
 21
180.17500000000001
 31
0.0
  0
LINE
  5
1D5
  8
0
 62
     7
 10
80.012200000000007
 20
181.57599999999999
 30
0.0
 11
80.576099999999997
 21
180.17500000000001
 31
0.0
  0
LINE
  5
1D6
  8
0
 62
     7
 10
79.214600000000004
 20
181.57599999999999
 30
0.0
 11
79.778899999999993
 21
180.17500000000001
 31
0.0
  0
LINE
  5
1D7
  8
0
 62
     7
 10
78.417400000000001
 20
181.57599999999999
 30
0.0
 11
78.981399999999994
 21
180.17500000000001
 31
0.0
  0
LINE
  5
1D8
  8
0
 62
     7
 10
76.822000000000003
 20
181.57599999999999
 30
0.0
 11
77.385900000000007
 21
180.17500000000001
 31
0.0
  0
LINE
  5
1D9
  8
0
 62
     7
 10
77.619500000000002
 20
181.57599999999999
 30
0.0
 11
78.183499999999995
 21
180.17500000000001
 31
0.0
  0
LINE
  5
1DA
  8
0
 62
     7
 10
70.618399999999994
 20
181.21000000000001
 30
0.0
 11
69.797700000000006
 21
180.87599999999989
 31
0.0
  0
LINE
  5
1DB
  8
0
 62
     7
 10
70.618399999999994
 20
180.541
 30
0.0
 11
69.797700000000006
 21
180.87599999999989
 31
0.0
  0
LINE
  5
1DC
  8
0
 62
     7
 10
70.618399999999994
 20
180.541
 30
0.0
 11
83.131699999999995
 21
180.541
 31
0.0
  0
LINE
  5
1DD
  8
0
 62
     7
 10
70.618399999999994
 20
181.21000000000001
 30
0.0
 11
83.131699999999995
 21
181.21000000000001
 31
0.0
  0
LINE
  5
1DE
  8
0
  6
AIGENLINE002
 62
     7
 10
68.406599999999983
 20
180.87599999999989
 30
0.0
 11
84.870800000000003
 21
180.87599999999989
 31
0.0
  0
LINE
  5
1DF
  8
0
 62
     7
 10
75.116
 20
193.44599999999991
 30
0.0
 11
73.794799999999995
 21
191.57599999999991
 31
0.0
  0
LINE
  5
1E0
  8
0
 62
     7
 10
73.794799999999995
 20
191.57599999999991
 30
0.0
 11
74.004199999999997
 21
193.85499999999999
 31
0.0
  0
LINE
  5
1E1
  8
0
 62
     7
 10
74.004199999999997
 20
193.85499999999999
 30
0.0
 11
75.116
 21
193.44599999999991
 31
0.0
  0
LINE
  5
1E2
  8
0
 62
     7
 10
73.794799999999995
 20
191.57599999999991
 30
0.0
 11
82.127099999999984
 21
215.0259999999999
 31
0.0
  0
LINE
  5
1E3
  8
0
 62
     7
 10
40.507499999999993
 20
215.0259999999999
 30
0.0
 11
82.127099999999984
 21
215.0259999999999
 31
0.0
  0
LINE
  5
1E4
  8
0
 62
     7
 10
59.8703
 20
102.8089999999999
 30
0.0
 11
59.277700000000003
 21
100.59699999999999
 31
0.0
  0
LINE
  5
1E5
  8
0
 62
     7
 10
59.277700000000003
 20
100.59699999999999
 30
0.0
 11
58.684800000000003
 21
102.8089999999999
 31
0.0
  0
LINE
  5
1E6
  8
0
 62
     7
 10
58.684800000000003
 20
102.8089999999999
 30
0.0
 11
59.8703
 21
102.8089999999999
 31
0.0
  0
LINE
  5
1E7
  8
0
 62
     7
 10
59.850999999999999
 20
92.808700000000002
 30
0.0
 11
59.258400000000002
 21
90.5976
 31
0.0
  0
LINE
  5
1E8
  8
0
 62
     7
 10
59.258400000000002
 20
90.5976
 30
0.0
 11
58.665500000000002
 21
92.808700000000002
 31
0.0
  0
LINE
  5
1E9
  8
0
 62
     7
 10
58.665500000000002
 20
92.808700000000002
 30
0.0
 11
59.850999999999999
 21
92.808700000000002
 31
0.0
  0
LINE
  5
1EA
  8
0
 62
     7
 10
58.685699999999997
 20
98.3857
 30
0.0
 11
59.277700000000003
 21
100.59699999999999
 31
0.0
  0
LINE
  5
1EB
  8
0
 62
     7
 10
59.277700000000003
 20
100.59699999999999
 30
0.0
 11
59.870499999999993
 21
98.3857
 31
0.0
  0
LINE
  5
1EC
  8
0
 62
     7
 10
59.870499999999993
 20
98.3857
 30
0.0
 11
58.685699999999997
 21
98.3857
 31
0.0
  0
LINE
  5
1ED
  8
0
 62
     7
 10
67.473299999999995
 20
90.5976
 30
0.0
 11
58.344099999999997
 21
90.5976
 31
0.0
  0
LINE
  5
1EE
  8
0
 62
     7
 10
67.473299999999995
 20
100.59699999999999
 30
0.0
 11
58.344099999999997
 21
100.59699999999999
 31
0.0
  0
LINE
  5
1EF
  8
0
 62
     7
 10
59.850999999999999
 20
183.08699999999999
 30
0.0
 11
59.258400000000002
 21
180.87599999999989
 31
0.0
  0
LINE
  5
1F0
  8
0
 62
     7
 10
59.258400000000002
 20
180.87599999999989
 30
0.0
 11
58.665500000000002
 21
183.08699999999999
 31
0.0
  0
LINE
  5
1F1
  8
0
 62
     7
 10
58.665500000000002
 20
183.08699999999999
 30
0.0
 11
59.850999999999999
 21
183.08699999999999
 31
0.0
  0
LINE
  5
1F2
  8
0
 62
     7
 10
58.666400000000003
 20
178.66399999999999
 30
0.0
 11
59.258400000000002
 21
180.87599999999989
 31
0.0
  0
LINE
  5
1F3
  8
0
 62
     7
 10
59.258400000000002
 20
180.87599999999989
 30
0.0
 11
59.851199999999999
 21
178.66399999999999
 31
0.0
  0
LINE
  5
1F4
  8
0
 62
     7
 10
59.851199999999999
 20
178.66399999999999
 30
0.0
 11
58.666400000000003
 21
178.66399999999999
 31
0.0
  0
LINE
  5
1F5
  8
0
 62
     7
 10
58.685699999999997
 20
188.66399999999999
 30
0.0
 11
59.277700000000003
 21
190.87599999999989
 31
0.0
  0
LINE
  5
1F6
  8
0
 62
     7
 10
59.277700000000003
 20
190.87599999999989
 30
0.0
 11
59.870499999999993
 21
188.66399999999999
 31
0.0
  0
LINE
  5
1F7
  8
0
 62
     7
 10
59.870499999999993
 20
188.66399999999999
 30
0.0
 11
58.685699999999997
 21
188.66399999999999
 31
0.0
  0
LINE
  5
1F8
  8
0
 62
     7
 10
59.2684
 20
90.5976
 30
0.0
 11
59.2684
 21
190.87599999999989
 31
0.0
  0
LINE
  5
1F9
  8
0
 62
     7
 10
50.109900000000003
 20
191.35900000000001
 30
0.0
 11
50.702500000000001
 21
193.56999999999991
 31
0.0
  0
LINE
  5
1FA
  8
0
 62
     7
 10
50.702500000000001
 20
193.56999999999991
 30
0.0
 11
51.295400000000001
 21
191.35900000000001
 31
0.0
  0
LINE
  5
1FB
  8
0
 62
     7
 10
51.295400000000001
 20
191.35900000000001
 30
0.0
 11
50.109900000000003
 21
191.35900000000001
 31
0.0
  0
LINE
  5
1FC
  8
0
 62
     7
 10
51.275199999999998
 20
90.114599999999996
 30
0.0
 11
50.683199999999992
 21
87.902900000000002
 31
0.0
  0
LINE
  5
1FD
  8
0
 62
     7
 10
50.683199999999992
 20
87.902900000000002
 30
0.0
 11
50.090499999999999
 21
90.114599999999996
 31
0.0
  0
LINE
  5
1FE
  8
0
 62
     7
 10
50.090499999999999
 20
90.114599999999996
 30
0.0
 11
51.275199999999998
 21
90.114599999999996
 31
0.0
  0
LINE
  5
1FF
  8
0
 62
     7
 10
50.692500000000003
 20
193.56999999999991
 30
0.0
 11
50.692500000000003
 21
87.902900000000002
 31
0.0
  0
LINE
  5
200
  8
0
 62
     7
 10
82.198099999999997
 20
193.56999999999991
 30
0.0
 11
49.749899999999997
 21
193.56999999999991
 31
0.0
  0
LINE
  5
201
  8
0
 62
     7
 10
82.198099999999997
 20
87.902900000000002
 30
0.0
 11
49.749899999999997
 21
87.902900000000002
 31
0.0
  0
LINE
  5
202
  8
0
 62
     7
 10
67.473299999999995
 20
180.87599999999989
 30
0.0
 11
58.344099999999997
 21
180.87599999999989
 31
0.0
  0
LINE
  5
203
  8
0
 62
     7
 10
67.473299999999995
 20
190.87599999999989
 30
0.0
 11
58.344099999999997
 21
190.87599999999989
 31
0.0
  0
LINE
  5
204
  8
0
 62
     7
 10
153.315
 20
200.6629999999999
 30
0.0
 11
155.52600000000001
 21
201.25599999999989
 31
0.0
  0
LINE
  5
205
  8
0
 62
     7
 10
155.52600000000001
 20
201.25599999999989
 30
0.0
 11
153.315
 21
201.84899999999999
 31
0.0
  0
LINE
  5
206
  8
0
 62
     7
 10
153.315
 20
201.84899999999999
 30
0.0
 11
153.315
 21
200.6629999999999
 31
0.0
  0
LINE
  5
207
  8
0
 62
     7
 10
147.405
 20
201.82899999999989
 30
0.0
 11
145.19200000000001
 21
201.23699999999991
 31
0.0
  0
LINE
  5
208
  8
0
 62
     7
 10
145.19200000000001
 20
201.23699999999991
 30
0.0
 11
147.405
 21
200.64400000000001
 31
0.0
  0
LINE
  5
209
  8
0
 62
     7
 10
147.405
 20
200.64400000000001
 30
0.0
 11
147.405
 21
201.82899999999989
 31
0.0
  0
LINE
  5
20A
  8
0
 62
     7
 10
155.52600000000001
 20
201.2459999999999
 30
0.0
 11
145.19200000000001
 21
201.2459999999999
 31
0.0
  0
LINE
  5
20B
  8
0
 62
     7
 10
145.19200000000001
 20
202.18899999999999
 30
0.0
 11
145.19200000000001
 21
190.7109999999999
 31
0.0
  0
LINE
  5
20C
  8
0
 62
     7
 10
155.52600000000001
 20
202.18899999999999
 30
0.0
 11
155.52600000000001
 21
190.7109999999999
 31
0.0
  0
LINE
  5
20D
  8
0
 62
     7
 10
85.342600000000004
 20
200.68199999999999
 30
0.0
 11
83.131699999999995
 21
201.27500000000001
 31
0.0
  0
LINE
  5
20E
  8
0
 62
     7
 10
83.131699999999995
 20
201.27500000000001
 30
0.0
 11
85.342600000000004
 21
201.86799999999991
 31
0.0
  0
LINE
  5
20F
  8
0
 62
     7
 10
85.342600000000004
 20
201.86799999999991
 30
0.0
 11
85.342600000000004
 21
200.68199999999999
 31
0.0
  0
LINE
  5
210
  8
0
 62
     7
 10
110.91500000000001
 20
201.8479999999999
 30
0.0
 11
113.127
 21
201.25599999999989
 31
0.0
  0
LINE
  5
211
  8
0
 62
     7
 10
113.127
 20
201.25599999999989
 30
0.0
 11
110.91500000000001
 21
200.6629999999999
 31
0.0
  0
LINE
  5
212
  8
0
 62
     7
 10
110.91500000000001
 20
200.6629999999999
 30
0.0
 11
110.91500000000001
 21
201.8479999999999
 31
0.0
  0
LINE
  5
213
  8
0
 62
     7
 10
83.131699999999995
 20
201.2649999999999
 30
0.0
 11
113.127
 21
201.2649999999999
 31
0.0
  0
LINE
  5
214
  8
0
 62
     7
 10
83.131699999999995
 20
202.18899999999999
 30
0.0
 11
83.131699999999995
 21
194.50399999999999
 31
0.0
  0
LINE
  5
215
  8
0
 62
     7
 10
113.127
 20
202.18899999999999
 30
0.0
 11
113.127
 21
193.423
 31
0.0
  0
LINE
  5
216
  8
_________2
 62
     7
 10
105.2389999999999
 20
297.44999999999987
 30
0.0
 11
105.2389999999999
 21
280.42999999999989
 31
0.0
  0
TEXT
  5
217
  8
_________2
 62
     7
 10
143.07741250000001
 20
30.627400000000002
 30
0.0
 40
3.9357000000000002
  1
GE4506
 41
0.5
 72
     1
 11
148.489
 21
30.627400000000002
 31
0.0
  0
TEXT
  5
218
  8
_________2
 62
     7
 10
143.07741250000001
 20
20.6266
 30
0.0
 40
3.9357000000000002
  1
GE4506
 41
0.5
 72
     1
 11
148.489
 21
20.6266
 31
0.0
  0
LINE
  5
219
  8
_________2
 62
     7
 10
210.24000000000001
 20
148.93100000000001
 30
0.0
 11
188.49000000000001
 21
148.93100000000001
 31
0.0
  0
LINE
  5
21A
  8
_________2
 62
     7
 10
105.2389999999999
 20
17.4282
 30
0.0
 11
105.2389999999999
 21
0.4482100000000001
 31
0.0
  0
LINE
  5
21B
  8
_________2
 62
     7
 10
105.2389999999999
 20
297.44999999999987
 30
0.0
 11
105.2389999999999
 21
280.42999999999989
 31
0.0
  0
LINE
  5
21C
  8
_________2
 62
     7
 10
21.988499999999991
 20
148.93100000000001
 30
0.0
 11
0.238058
 21
148.93100000000001
 31
0.0
  0
LINE
  5
21D
  8
_________2
 62
     7
 10
81.679900000000004
 20
51.323999999999998
 30
0.0
 11
79.493700000000004
 21
51.323999999999998
 31
0.0
  0
LINE
  5
21E
  8
_________2
 62
     7
 10
82.172600000000017
 20
51.323999999999998
 30
0.0
 11
81.920400000000001
 21
51.323999999999998
 31
0.0
  0
LINE
  5
21F
  8
_________2
 62
     7
 10
82.665199999999984
 20
51.323999999999998
 30
0.0
 11
85.590100000000007
 21
51.323999999999998
 31
0.0
  0
LINE
  5
220
  8
_________2
 62
     7
 10
82.172600000000017
 20
51.323999999999998
 30
0.0
 11
82.424800000000005
 21
51.323999999999998
 31
0.0
  0
LINE
  5
221
  8
_________2
 62
     7
 10
75.776399999999995
 20
51.323999999999998
 30
0.0
 11
73.589399999999998
 21
51.323999999999998
 31
0.0
  0
LINE
  5
222
  8
_________2
 62
     7
 10
76.2684
 20
51.323999999999998
 30
0.0
 11
76.016900000000007
 21
51.323999999999998
 31
0.0
  0
LINE
  5
223
  8
_________2
 62
     7
 10
76.2684
 20
51.816600000000001
 30
0.0
 11
76.2684
 21
54.003599999999999
 31
0.0
  0
LINE
  5
224
  8
_________2
 62
     7
 10
76.2684
 20
51.323999999999998
 30
0.0
 11
76.2684
 21
51.576500000000003
 31
0.0
  0
LINE
  5
225
  8
_________2
 62
     7
 10
76.76100000000001
 20
51.323999999999998
 30
0.0
 11
78.947999999999993
 21
51.323999999999998
 31
0.0
  0
LINE
  5
226
  8
_________2
 62
     7
 10
76.2684
 20
51.323999999999998
 30
0.0
 11
76.520499999999998
 21
51.323999999999998
 31
0.0
  0
LINE
  5
227
  8
_________2
 62
     7
 10
76.2684
 20
50.832000000000001
 30
0.0
 11
76.2684
 21
48.645400000000002
 31
0.0
  0
LINE
  5
228
  8
_________2
 62
     7
 10
76.2684
 20
51.323999999999998
 30
0.0
 11
76.2684
 21
51.072499999999998
 31
0.0
  0
LINE
  5
229
  8
_________2
 62
     7
 10
79.979399999999984
 20
50.104399999999998
 30
0.0
 11
85.157399999999996
 21
49.239699999999999
 31
0.0
  0
LINE
  5
22A
  8
_________2
 62
     7
 10
79.979399999999984
 20
52.543900000000001
 30
0.0
 11
85.157399999999996
 21
53.409300000000002
 31
0.0
  0
LINE
  5
22B
  8
_________2
 62
     7
 10
85.157399999999996
 20
49.239699999999999
 30
0.0
 11
85.157399999999996
 21
53.409300000000002
 31
0.0
  0
LINE
  5
22C
  8
_________2
 62
     7
 10
79.979399999999984
 20
50.104399999999998
 30
0.0
 11
79.979399999999984
 21
52.543900000000001
 31
0.0
  0
ARC
  5
22D
  8
_________2
 62
     7
 10
76.221766000000002
 20
51.277037
 30
0.0
 40
1.267714
 50
2.1220840000000001
 51
87.894083999999992
  0
ARC
  5
22E
  8
_________2
 62
     7
 10
76.315297000000001
 20
51.277389999999997
 30
0.0
 40
1.267374999999999
 50
92.122849999999985
 51
177.893304
  0
ARC
  5
22F
  8
_________2
 62
     7
 10
76.315273000000005
 20
51.370902000000001
 30
0.0
 40
1.267363
 50
182.12181499999991
 51
267.87821400000001
  0
ARC
  5
230
  8
_________2
 62
     7
 10
76.221461000000005
 20
51.371583999999999
 30
0.0
 40
1.2680439999999991
 50
272.11916400000001
 51
357.84848499999993
  0
ARC
  5
231
  8
_________2
 62
     7
 10
76.187981999999991
 20
51.243968000000002
 30
0.0
 40
2.1668310000000002
 50
2.1161439999999989
 51
87.874379000000005
  0
ARC
  5
232
  8
_________2
 62
     7
 10
76.348411999999996
 20
51.244990000000001
 30
0.0
 40
2.1657980000000001
 50
92.118487999999999
 51
177.90988599999989
  0
ARC
  5
233
  8
_________2
 62
     7
 10
76.348354
 20
51.403983000000011
 30
0.0
 40
2.1657779999999991
 50
182.11700400000001
 51
267.88302499999992
  0
ARC
  5
234
  8
_________2
 62
     7
 10
76.188378999999983
 20
51.404665999999992
 30
0.0
 40
2.1664590000000001
 50
272.11546800000002
 51
357.86560400000002
  0
TEXT
  5
235
  8
_________2
 62
     7
 10
109.5439999999999
 20
23.198699999999992
 30
0.0
 40
3.0923400000000001
  1
図番
 41
0.5
  0
LINE
  5
236
  8
_________2
 62
     7
 10
108.4889999999999
 20
27.428000000000001
 30
0.0
 11
188.49000000000001
 21
27.428000000000001
 31
0.0
  0
TEXT
  5
237
  8
_________2
 62
     7
 10
109.5439999999999
 20
33.198500000000003
 30
0.0
 40
3.0923400000000001
  1
品番
 41
0.5
  0
TEXT
  5
238
  8
_________2
 62
     7
 10
109.5439999999999
 20
53.337699999999998
 30
0.0
 40
3.0923400000000001
  1
名称
 41
0.5
  0
TEXT
  5
239
  8
_________2
 62
     7
 10
96.784158333333338
 20
48.341500000000011
 30
0.0
 40
3.6545800000000002
  1
mm
 41
0.5
 72
     1
 11
98.306899999999999
 21
48.341500000000011
 31
0.0
  0
TEXT
  5
23A
  8
_________2
 62
     7
 10
90.582099999999997
 20
53.337699999999998
 30
0.0
 40
3.0923400000000001
  1
単位
 41
0.5
  0
TEXT
  5
23B
  8
_________2
 62
     7
 10
90.582099999999997
 20
40.930100000000003
 30
0.0
 40
3.0923400000000001
  1
尺度
 41
0.5
  0
TEXT
  5
23C
  8
_________2
 62
     7
 10
95.487858666666668
 20
34.73749999999999
 30
0.0
 40
3.6545800000000002
  1
1 ： 3
 41
0.5
 72
     1
 11
98.898799999999994
 21
34.73749999999999
 31
0.0
  0
TEXT
  5
23D
  8
_________2
 62
     7
 10
114.11799999999999
 20
45.7453
 30
0.0
 40
3.9357000000000002
  1
ウィンク　タオルバー
 41
0.5
  0
TEXT
  5
23E
  8
_________2
 62
     7
 10
44.364200333333329
 20
35.122599999999991
 30
0.0
 40
3.6545800000000002
  1
早川
 41
0.5
 72
     1
 11
46.252400000000002
 21
35.122599999999991
 31
0.0
  0
TEXT
  5
23F
  8
_________2
 62
     7
 10
25.729290666666671
 20
35.122599999999991
 30
0.0
 40
3.6545800000000002
  1
菅原
 41
0.5
 72
     1
 11
27.6784
 21
35.122599999999991
 31
0.0
  0
TEXT
  5
240
  8
_________2
 62
     7
 10
72.724699999999999
 20
34.73749999999999
 30
0.0
 40
3.6545800000000002
  1
13.12.09
 41
0.5
  0
TEXT
  5
241
  8
_________2
 62
     7
 10
71.531999999999996
 20
40.930100000000003
 30
0.0
 40
3.0923400000000001
  1
日付
 41
0.5
  0
TEXT
  5
242
  8
_________2
 62
     7
 10
34.578299999999992
 20
40.930100000000003
 30
0.0
 40
3.0923400000000001
  1
検図
 41
0.5
  0
TEXT
  5
243
  8
_________2
 62
     7
 10
22.960000000000001
 20
26.730699999999999
 30
0.0
 40
3.0923400000000001
  1
備考
 41
0.5
  0
TEXT
  5
244
  8
_________2
 62
     7
 10
22.960000000000001
 20
40.930100000000003
 30
0.0
 40
3.0923400000000001
  1
製図
 41
0.5
  0
TEXT
  5
245
  8
_________2
 62
     7
 10
28.727365333333339
 20
49.456000000000003
 30
0.0
 40
4.4979399999999989
  1
セラトレーディング株式会社
 41
0.5
 72
     1
 11
46.119399999999992
 21
49.456000000000003
 31
0.0
  0
LINE
  5
246
  8
_________2
 62
     7
 10
188.49000000000001
 20
17.4282
 30
0.0
 11
21.988499999999991
 21
17.4282
 31
0.0
  0
LINE
  5
247
  8
_________2
 62
     7
 10
21.988499999999991
 20
17.4282
 30
0.0
 11
21.988499999999991
 21
280.42999999999989
 31
0.0
  0
LINE
  5
248
  8
_________2
 62
     7
 10
21.988499999999991
 20
280.42999999999989
 30
0.0
 11
188.49000000000001
 21
280.42999999999989
 31
0.0
  0
LINE
  5
249
  8
_________2
 62
     7
 10
188.49000000000001
 20
280.42999999999989
 30
0.0
 11
188.49000000000001
 21
17.4282
 31
0.0
  0
LINE
  5
24A
  8
_________2
 62
     7
 10
70.488799999999998
 20
30.9285
 30
0.0
 11
70.488799999999998
 21
57.428400000000011
 31
0.0
  0
LINE
  5
24B
  8
_________2
 62
     7
 10
89.488600000000005
 20
30.9285
 30
0.0
 11
89.488600000000005
 21
57.428400000000011
 31
0.0
  0
LINE
  5
24C
  8
_________2
 62
     7
 10
108.4889999999999
 20
17.4282
 30
0.0
 11
108.4889999999999
 21
57.428400000000011
 31
0.0
  0
LINE
  5
24D
  8
_________2
 62
     7
 10
33.488300000000002
 20
30.9285
 30
0.0
 11
33.488300000000002
 21
44.928499999999993
 31
0.0
  0
LINE
  5
24E
  8
_________2
 62
     7
 10
21.988499999999991
 20
30.9285
 30
0.0
 11
108.4889999999999
 21
30.9285
 31
0.0
  0
LINE
  5
24F
  8
_________2
 62
     7
 10
21.988499999999991
 20
44.928499999999993
 30
0.0
 11
108.4889999999999
 21
44.928499999999993
 31
0.0
  0
LINE
  5
250
  8
_________2
 62
     7
 10
108.4889999999999
 20
37.427799999999991
 30
0.0
 11
188.49000000000001
 21
37.427799999999991
 31
0.0
  0
LINE
  5
251
  8
_________2
 62
     7
 10
21.988499999999991
 20
57.428400000000011
 30
0.0
 11
188.49000000000001
 21
57.428400000000011
 31
0.0
  0
ENDSEC
  0
EOF
