  0
SECTION
  2
HEADER
  9
$ACADVER
  1
AC1009
  9
$INSBASE
 10
0.0
 20
0.0
 30
0.0
  9
$EXTMIN
 10
0.238058
 20
0.4482100000000001
 30
0.0
  9
$EXTMAX
 10
210.24000000000001
 20
297.44999999999999
 30
0.0
  9
$LIMMIN
 10
0.0
 20
0.0
  9
$LIMMAX
 10
12.0
 20
9.0
  9
$ORTHOMODE
 70
     0
  9
$REGENMODE
 70
     1
  9
$FILLMODE
 70
     1
  9
$QTEXTMODE
 70
     0
  9
$MIRRTEXT
 70
     1
  9
$DRAGMODE
 70
     2
  9
$LTSCALE
 40
1.0
  9
$OSMODE
 70
    37
  9
$ATTMODE
 70
     1
  9
$TEXTSIZE
 40
0.0
  9
$TRACEWID
 40
0.05
  9
$TEXTSTYLE
  7
STANDARD
  9
$CLAYER
  8
0
  9
$CELTYPE
  6
CONTINUOUS
  9
$CECOLOR
 62
   256
  9
$DIMSCALE
 40
1.0
  9
$DIMASZ
 40
0.18
  9
$DIMEXO
 40
0.0625
  9
$DIMDLI
 40
0.38
  9
$DIMRND
 40
0.0
  9
$DIMDLE
 40
0.0
  9
$DIMEXE
 40
0.18
  9
$DIMTP
 40
0.0
  9
$DIMTM
 40
0.0
  9
$DIMTXT
 40
0.18
  9
$DIMCEN
 40
0.09
  9
$DIMTSZ
 40
0.0
  9
$DIMTOL
 70
     0
  9
$DIMLIM
 70
     0
  9
$DIMTIH
 70
     1
  9
$DIMTOH
 70
     1
  9
$DIMSE1
 70
     0
  9
$DIMSE2
 70
     0
  9
$DIMTAD
 70
     0
  9
$DIMZIN
 70
     0
  9
$DIMBLK
  1

  9
$DIMASO
 70
     1
  9
$DIMSHO
 70
     1
  9
$DIMPOST
  1

  9
$DIMAPOST
  1

  9
$DIMALT
 70
     0
  9
$DIMALTD
 70
     2
  9
$DIMALTF
 40
25.399999999999999
  9
$DIMLFAC
 40
1.0
  9
$DIMTOFL
 70
     0
  9
$DIMTVP
 40
0.0
  9
$DIMTIX
 70
     0
  9
$DIMSOXD
 70
     0
  9
$DIMSAH
 70
     0
  9
$DIMBLK1
  1

  9
$DIMBLK2
  1

  9
$DIMSTYLE
  2
STANDARD
  9
$DIMCLRD
 70
     0
  9
$DIMCLRE
 70
     0
  9
$DIMCLRT
 70
     0
  9
$DIMTFAC
 40
1.0
  9
$DIMGAP
 40
0.09
  9
$LUNITS
 70
     2
  9
$LUPREC
 70
     4
  9
$SKETCHINC
 40
0.1
  9
$FILLETRAD
 40
0.0
  9
$AUNITS
 70
     0
  9
$AUPREC
 70
     0
  9
$MENU
  1
.
  9
$ELEVATION
 40
0.0
  9
$PELEVATION
 40
0.0
  9
$THICKNESS
 40
0.0
  9
$LIMCHECK
 70
     0
  9
$BLIPMODE
 70
     0
  9
$CHAMFERA
 40
0.0
  9
$CHAMFERB
 40
0.0
  9
$SKPOLY
 70
     0
  9
$TDCREATE
 40
2444972.375
  9
$TDUPDATE
 40
2458192.2495582062
  9
$TDINDWG
 40
0.0000265509
  9
$TDUSRTIMER
 40
0.0000265509
  9
$USRTIMER
 70
     1
  9
$ANGBASE
 50
0.0
  9
$ANGDIR
 70
     0
  9
$PDMODE
 70
     0
  9
$PDSIZE
 40
0.0
  9
$PLINEWID
 40
0.0
  9
$COORDS
 70
     1
  9
$SPLFRAME
 70
     0
  9
$SPLINETYPE
 70
     6
  9
$SPLINESEGS
 70
     8
  9
$ATTDIA
 70
     1
  9
$ATTREQ
 70
     1
  9
$HANDLING
 70
     1
  9
$HANDSEED
  5
2FF
  9
$SURFTAB1
 70
     6
  9
$SURFTAB2
 70
     6
  9
$SURFTYPE
 70
     6
  9
$SURFU
 70
     6
  9
$SURFV
 70
     6
  9
$UCSNAME
  2

  9
$UCSORG
 10
0.0
 20
0.0
 30
0.0
  9
$UCSXDIR
 10
1.0
 20
0.0
 30
0.0
  9
$UCSYDIR
 10
0.0
 20
1.0
 30
0.0
  9
$PUCSNAME
  2

  9
$PUCSORG
 10
0.0
 20
0.0
 30
0.0
  9
$PUCSXDIR
 10
1.0
 20
0.0
 30
0.0
  9
$PUCSYDIR
 10
0.0
 20
1.0
 30
0.0
  9
$USERI1
 70
     0
  9
$USERI2
 70
     0
  9
$USERI3
 70
     0
  9
$USERI4
 70
     0
  9
$USERI5
 70
     0
  9
$USERR1
 40
0.0
  9
$USERR2
 40
0.0
  9
$USERR3
 40
0.0
  9
$USERR4
 40
0.0
  9
$USERR5
 40
0.0
  9
$WORLDVIEW
 70
     1
  9
$SHADEDGE
 70
     3
  9
$SHADEDIF
 70
    70
  9
$TILEMODE
 70
     1
  9
$MAXACTVP
 70
    48
  9
$PLIMCHECK
 70
     0
  9
$PEXTMIN
 10
1.0000000000000000E+020
 20
1.0000000000000000E+020
 30
1.0000000000000000E+020
  9
$PEXTMAX
 10
-1.0000000000000000E+020
 20
-1.0000000000000000E+020
 30
-1.0000000000000000E+020
  9
$PLIMMIN
 10
0.0
 20
0.0
  9
$PLIMMAX
 10
12.0
 20
9.0
  9
$UNITMODE
 70
     0
  9
$VISRETAIN
 70
     1
  9
$PLINEGEN
 70
     0
  9
$PSLTSCALE
 70
     1
  0
ENDSEC
  0
SECTION
  2
TABLES
  0
TABLE
  2
VPORT
 70
     1
  0
VPORT
  2
*ACTIVE
 70
     0
 10
0.0
 20
0.0
 11
1.0
 21
1.0
 12
195.83816741455661
 22
148.72499999999991
 13
0.0
 23
0.0
 14
1.0
 24
1.0
 15
0.0
 25
0.0
 16
0.0
 26
0.0
 36
1.0
 17
0.0
 27
0.0
 37
0.0
 40
281.37269451488049
 41
2.298642533936651
 42
50.0
 43
0.0
 44
0.0
 50
0.0
 51
0.0
 71
     0
 72
   100
 73
     1
 74
     1
 75
     0
 76
     0
 77
     0
 78
     0
  0
ENDTAB
  0
TABLE
  2
LTYPE
 70
     3
  0
LTYPE
  2
CONTINUOUS
 70
     0
  3
Solid line
 72
    65
 73
     0
 40
0.0
  0
LTYPE
  2
AIGENLINE001
 70
     0
  3
generate AI->DXF Converter
 72
    65
 73
     2
 40
1.5522299999999991
 49
0.776115
 49
-0.776115
  0
LTYPE
  2
AIGENLINE002
 70
     0
  3
generate AI->DXF Converter
 72
    65
 73
     2
 40
1.5522299999999991
 49
0.776115
 49
-0.776115
  0
ENDTAB
  0
TABLE
  2
LAYER
 70
     2
  0
LAYER
  2
0
 70
     0
 62
     7
  6
CONTINUOUS
  0
LAYER
  2
_________2
 70
     0
 62
     7
  6
CONTINUOUS
  0
ENDTAB
  0
TABLE
  2
STYLE
 70
     1
  0
STYLE
  2
STANDARD
 70
     0
 40
0.0
 41
0.0
 50
0.0
 71
     0
 42
0.0
  3
TXT
  4
EXTFONT.SHX
  0
ENDTAB
  0
TABLE
  2
VIEW
 70
     0
  0
ENDTAB
  0
TABLE
  2
UCS
 70
     0
  0
ENDTAB
  0
TABLE
  2
APPID
 70
     3
  0
APPID
  2
ACAD
 70
     0
  0
APPID
  2
ACAD_NAV_VCDISPLAY
 70
     0
  0
APPID
  2
ACAD_MLEADERVER
 70
     0
  0
ENDTAB
  0
TABLE
  2
DIMSTYLE
 70
     1
  0
DIMSTYLE
  2
STANDARD
 70
     0
  3

  4

  5

  6

  7

 40
1.0
 41
0.18
 42
0.0625
 43
0.38
 44
0.18
 45
0.0
 46
0.0
 47
0.0
 48
0.0
140
0.18
141
0.09
142
0.0
143
25.399999999999999
144
1.0
145
0.0
146
1.0
147
0.09
 71
     0
 72
     0
 73
     1
 74
     1
 75
     0
 76
     0
 77
     0
 78
     0
170
     0
171
     2
172
     0
173
     0
174
     0
175
     0
176
     0
177
     0
178
     0
  0
ENDTAB
  0
ENDSEC
  0
SECTION
  2
BLOCKS
  0
BLOCK
  8
0
  2
$MODEL_SPACE
 70
     0
 10
0.0
 20
0.0
 30
0.0
  3
$MODEL_SPACE
  1

  0
ENDBLK
  5
1A
  8
0
  0
BLOCK
 67
     1
  8
0
  2
$PAPER_SPACE
 70
     0
 10
0.0
 20
0.0
 30
0.0
  3
$PAPER_SPACE
  1

  0
ENDBLK
  5
17
 67
     1
  8
0
  0
ENDSEC
  0
SECTION
  2
ENTITIES
  0
TEXT
  5
23
  8
0
 62
     7
 10
43.088799999999999
 20
218.00700000000001
 30
0.0
 40
3.0923400000000001
  1
（%%c6\U+00D735樹脂プラグ付）
 41
0.5
  0
TEXT
  5
24
  8
0
 62
     7
 10
43.088799999999999
 20
223.05199999999999
 30
0.0
 40
3.0923400000000001
  1
%%c4.2\U+00D745 SUS 十字穴付丸頭タッピングネジ
 41
0.5
  0
TEXT
  5
25
  8
0
 62
     7
 10
61.414700000000003
 20
141.94844000000001
 30
0.0
 40
3.0923400000000001
  1
423
 50
90.0
 41
0.5
 72
     1
 11
61.414700000000003
 21
144.00999999999999
 31
0.0
  0
TEXT
  5
26
  8
0
 62
     7
 10
69.780199999999994
 20
86.242324999999994
 30
0.0
 40
3.0923400000000001
  1
45
 50
90.0
 41
0.5
 72
     1
 11
69.780199999999994
 21
87.530799999999999
 31
0.0
  0
TEXT
  5
27
  8
0
 62
     7
 10
61.064700000000002
 20
86.371472499999996
 30
0.0
 40
3.0923400000000001
  1
30
 50
90.0
 41
0.5
 72
     1
 11
61.064700000000002
 21
87.531099999999995
 31
0.0
  0
TEXT
  5
28
  8
0
 62
     7
 10
61.064700000000002
 20
199.33037250000001
 30
0.0
 40
3.0923400000000001
  1
30
 50
90.0
 41
0.5
 72
     1
 11
61.064700000000002
 21
200.49000000000001
 31
0.0
  0
TEXT
  5
29
  8
0
 62
     7
 10
51.253700000000002
 20
141.94844000000001
 30
0.0
 40
3.0923400000000001
  1
498
 50
90.0
 41
0.5
 72
     1
 11
51.253700000000002
 21
144.00999999999999
 31
0.0
  0
TEXT
  5
2A
  8
0
 62
     7
 10
141.67622
 20
212.71700000000001
 30
0.0
 40
3.0923400000000001
  1
31
 41
0.5
 72
     1
 11
142.70699999999999
 21
212.71700000000001
 31
0.0
  0
TEXT
  5
2B
  8
0
 62
     7
 10
96.998472500000005
 20
212.732
 30
0.0
 40
3.0923400000000001
  1
90
 41
0.5
 72
     1
 11
98.158100000000005
 21
212.732
 31
0.0
  0
LINE
  5
2C
  8
0
 62
     7
 10
77.392300000000006
 20
91.806200000000004
 30
0.0
 11
77.815399999999997
 21
90.756100000000004
 31
0.0
  0
LINE
  5
2D
  8
0
 62
     7
 10
77.990399999999994
 20
91.806200000000004
 30
0.0
 11
78.413499999999999
 21
90.756100000000004
 31
0.0
  0
LINE
  5
2E
  8
0
 62
     7
 10
78.589200000000005
 20
91.806200000000004
 30
0.0
 11
79.011499999999998
 21
90.756100000000004
 31
0.0
  0
LINE
  5
2F
  8
0
 62
     7
 10
79.187200000000004
 20
91.806200000000004
 30
0.0
 11
79.610299999999995
 21
90.756100000000004
 31
0.0
  0
LINE
  5
30
  8
0
 62
     7
 10
79.785300000000007
 20
91.806200000000004
 30
0.0
 11
80.208399999999983
 21
90.756100000000004
 31
0.0
  0
LINE
  5
31
  8
0
 62
     7
 10
80.383399999999995
 20
91.806200000000004
 30
0.0
 11
80.806399999999996
 21
90.756100000000004
 31
0.0
  0
LINE
  5
32
  8
0
 62
     7
 10
80.982099999999988
 20
91.806200000000004
 30
0.0
 11
81.404499999999985
 21
90.756100000000004
 31
0.0
  0
LINE
  5
33
  8
0
 62
     7
 10
81.580200000000005
 20
91.806200000000004
 30
0.0
 11
82.003299999999996
 21
90.756100000000004
 31
0.0
  0
LINE
  5
34
  8
0
 62
     7
 10
86.365499999999983
 20
91.806200000000004
 30
0.0
 11
86.788499999999999
 21
90.756100000000004
 31
0.0
  0
LINE
  5
35
  8
0
 62
     7
 10
85.7667
 20
91.806200000000004
 30
0.0
 11
86.190499999999986
 21
90.756100000000004
 31
0.0
  0
LINE
  5
36
  8
0
 62
     7
 10
85.168599999999984
 20
91.806200000000004
 30
0.0
 11
85.591699999999989
 21
90.756100000000004
 31
0.0
  0
LINE
  5
37
  8
0
 62
     7
 10
84.570599999999999
 20
91.806200000000004
 30
0.0
 11
84.993600000000015
 21
90.756100000000004
 31
0.0
  0
LINE
  5
38
  8
0
 62
     7
 10
83.972499999999997
 20
91.806200000000004
 30
0.0
 11
84.395600000000002
 21
90.756100000000004
 31
0.0
  0
LINE
  5
39
  8
0
 62
     7
 10
83.374399999999994
 20
91.806200000000004
 30
0.0
 11
83.797499999999985
 21
90.756100000000004
 31
0.0
  0
LINE
  5
3A
  8
0
 62
     7
 10
82.178299999999993
 20
91.806200000000004
 30
0.0
 11
82.601299999999995
 21
90.756100000000004
 31
0.0
  0
LINE
  5
3B
  8
0
 62
     7
 10
82.776300000000006
 20
91.806200000000004
 30
0.0
 11
83.199399999999997
 21
90.756100000000004
 31
0.0
  0
LINE
  5
3C
  8
0
 62
     7
 10
77.525300000000001
 20
91.531899999999993
 30
0.0
 11
76.909999999999997
 21
91.281099999999995
 31
0.0
  0
LINE
  5
3D
  8
0
 62
     7
 10
77.525300000000001
 20
91.029600000000016
 30
0.0
 11
76.909999999999997
 21
91.281099999999995
 31
0.0
  0
LINE
  5
3E
  8
0
 62
     7
 10
77.525300000000001
 20
91.029600000000016
 30
0.0
 11
86.910499999999999
 21
91.029600000000016
 31
0.0
  0
LINE
  5
3F
  8
0
 62
     7
 10
77.525300000000001
 20
91.531899999999993
 30
0.0
 11
86.910499999999999
 21
91.531899999999993
 31
0.0
  0
LINE
  5
40
  8
0
  6
AIGENLINE002
 62
     7
 10
75.866799999999998
 20
91.281099999999995
 30
0.0
 11
88.214799999999997
 21
91.281099999999995
 31
0.0
  0
LINE
  5
41
  8
0
 62
     7
 10
77.392300000000006
 20
84.305800000000005
 30
0.0
 11
77.815399999999997
 21
83.255700000000004
 31
0.0
  0
LINE
  5
42
  8
0
 62
     7
 10
77.990399999999994
 20
84.305800000000005
 30
0.0
 11
78.413499999999999
 21
83.255700000000004
 31
0.0
  0
LINE
  5
43
  8
0
 62
     7
 10
78.589200000000005
 20
84.305800000000005
 30
0.0
 11
79.011499999999998
 21
83.255700000000004
 31
0.0
  0
LINE
  5
44
  8
0
 62
     7
 10
79.187200000000004
 20
84.305800000000005
 30
0.0
 11
79.610299999999995
 21
83.255700000000004
 31
0.0
  0
LINE
  5
45
  8
0
 62
     7
 10
79.785300000000007
 20
84.305800000000005
 30
0.0
 11
80.208399999999983
 21
83.255700000000004
 31
0.0
  0
LINE
  5
46
  8
0
 62
     7
 10
80.383399999999995
 20
84.305800000000005
 30
0.0
 11
80.806399999999996
 21
83.255700000000004
 31
0.0
  0
LINE
  5
47
  8
0
 62
     7
 10
80.982099999999988
 20
84.305800000000005
 30
0.0
 11
81.404499999999985
 21
83.255700000000004
 31
0.0
  0
LINE
  5
48
  8
0
 62
     7
 10
81.580200000000005
 20
84.305800000000005
 30
0.0
 11
82.003299999999996
 21
83.255700000000004
 31
0.0
  0
LINE
  5
49
  8
0
 62
     7
 10
86.365499999999983
 20
84.305800000000005
 30
0.0
 11
86.788499999999999
 21
83.255700000000004
 31
0.0
  0
LINE
  5
4A
  8
0
 62
     7
 10
85.7667
 20
84.305800000000005
 30
0.0
 11
86.190499999999986
 21
83.255700000000004
 31
0.0
  0
LINE
  5
4B
  8
0
 62
     7
 10
85.168599999999984
 20
84.305800000000005
 30
0.0
 11
85.591699999999989
 21
83.255700000000004
 31
0.0
  0
LINE
  5
4C
  8
0
 62
     7
 10
84.570599999999999
 20
84.305800000000005
 30
0.0
 11
84.993600000000015
 21
83.255700000000004
 31
0.0
  0
LINE
  5
4D
  8
0
 62
     7
 10
83.972499999999997
 20
84.305800000000005
 30
0.0
 11
84.395600000000002
 21
83.255700000000004
 31
0.0
  0
LINE
  5
4E
  8
0
 62
     7
 10
83.374399999999994
 20
84.305800000000005
 30
0.0
 11
83.797499999999985
 21
83.255700000000004
 31
0.0
  0
LINE
  5
4F
  8
0
 62
     7
 10
82.178299999999993
 20
84.305800000000005
 30
0.0
 11
82.601299999999995
 21
83.255700000000004
 31
0.0
  0
LINE
  5
50
  8
0
 62
     7
 10
82.776300000000006
 20
84.305800000000005
 30
0.0
 11
83.199399999999997
 21
83.255700000000004
 31
0.0
  0
LINE
  5
51
  8
0
 62
     7
 10
77.525300000000001
 20
84.031599999999983
 30
0.0
 11
76.909999999999997
 21
83.780799999999999
 31
0.0
  0
LINE
  5
52
  8
0
 62
     7
 10
77.525300000000001
 20
83.529999999999987
 30
0.0
 11
76.909999999999997
 21
83.780799999999999
 31
0.0
  0
LINE
  5
53
  8
0
 62
     7
 10
77.525300000000001
 20
83.529999999999987
 30
0.0
 11
86.910499999999999
 21
83.529999999999987
 31
0.0
  0
LINE
  5
54
  8
0
 62
     7
 10
77.525300000000001
 20
84.031599999999983
 30
0.0
 11
86.910499999999999
 21
84.031599999999983
 31
0.0
  0
LINE
  5
55
  8
0
  6
AIGENLINE002
 62
     7
 10
75.866799999999998
 20
83.780799999999999
 30
0.0
 11
88.214799999999997
 21
83.780799999999999
 31
0.0
  0
LINE
  5
56
  8
0
 62
     7
 10
103.27500000000001
 20
89.407700000000006
 30
0.0
 11
103.282
 21
89.433899999999994
 31
0.0
  0
LINE
  5
57
  8
0
 62
     7
 10
103.282
 20
89.433899999999994
 30
0.0
 11
103.29300000000001
 21
89.458699999999993
 31
0.0
  0
LINE
  5
58
  8
0
 62
     7
 10
103.29300000000001
 20
89.458699999999993
 30
0.0
 11
103.322
 21
89.504099999999994
 31
0.0
  0
LINE
  5
59
  8
0
 62
     7
 10
103.322
 20
89.504099999999994
 30
0.0
 11
103.38800000000001
 21
89.589600000000004
 31
0.0
  0
LINE
  5
5A
  8
0
 62
     7
 10
103.38800000000001
 20
89.589600000000004
 30
0.0
 11
103.52800000000001
 21
89.755599999999987
 31
0.0
  0
LINE
  5
5B
  8
0
 62
     7
 10
103.52800000000001
 20
89.755599999999987
 30
0.0
 11
103.803
 21
90.090500000000006
 31
0.0
  0
LINE
  5
5C
  8
0
 62
     7
 10
103.803
 20
90.090500000000006
 30
0.0
 11
104.295
 21
90.799499999999995
 31
0.0
  0
LINE
  5
5D
  8
0
 62
     7
 10
104.295
 20
90.799499999999995
 30
0.0
 11
104.7
 21
91.561599999999984
 31
0.0
  0
LINE
  5
5E
  8
0
 62
     7
 10
104.7
 20
91.561599999999984
 30
0.0
 11
105.023
 21
92.353899999999996
 31
0.0
  0
LINE
  5
5F
  8
0
 62
     7
 10
105.023
 20
92.353899999999996
 30
0.0
 11
105.48999999999999
 21
94.000699999999995
 31
0.0
  0
LINE
  5
60
  8
0
 62
     7
 10
105.48999999999999
 20
94.000699999999995
 30
0.0
 11
105.741
 21
95.690200000000004
 31
0.0
  0
LINE
  5
61
  8
0
 62
     7
 10
105.741
 20
95.690200000000004
 30
0.0
 11
105.77800000000001
 21
96.707899999999995
 31
0.0
  0
LINE
  5
62
  8
0
 62
     7
 10
105.77800000000001
 20
96.707899999999995
 30
0.0
 11
105.77800000000001
 21
97.350700000000003
 31
0.0
  0
LINE
  5
63
  8
0
 62
     7
 10
108.279
 20
185.304
 30
0.0
 11
107.95399999999999
 21
185.304
 31
0.0
  0
LINE
  5
64
  8
0
 62
     7
 10
108.279
 20
102.717
 30
0.0
 11
107.95399999999999
 21
102.717
 31
0.0
  0
LINE
  5
65
  8
0
 62
     7
 10
108.279
 20
102.717
 30
0.0
 11
108.279
 21
185.304
 31
0.0
  0
LINE
  5
66
  8
0
 62
     7
 10
107.95399999999999
 20
185.304
 30
0.0
 11
106.10299999999999
 21
185.304
 31
0.0
  0
LINE
  5
67
  8
0
 62
     7
 10
107.95399999999999
 20
102.717
 30
0.0
 11
106.10299999999999
 21
102.717
 31
0.0
  0
LINE
  5
68
  8
0
 62
     7
 10
106.10299999999999
 20
185.304
 30
0.0
 11
105.77800000000001
 21
185.304
 31
0.0
  0
LINE
  5
69
  8
0
 62
     7
 10
105.77800000000001
 20
102.717
 30
0.0
 11
105.77800000000001
 21
185.304
 31
0.0
  0
LINE
  5
6A
  8
0
 62
     7
 10
106.10299999999999
 20
102.717
 30
0.0
 11
105.77800000000001
 21
102.717
 31
0.0
  0
LINE
  5
6B
  8
0
 62
     7
 10
86.910499999999999
 20
93.302000000000007
 30
0.0
 11
86.910499999999999
 21
81.759900000000002
 31
0.0
  0
LINE
  5
6C
  8
0
 62
     7
 10
103.09999999999999
 20
93.1601
 30
0.0
 11
103.09999999999999
 21
81.901799999999994
 31
0.0
  0
LINE
  5
6D
  8
0
 62
     7
 10
100.199
 20
93.184899999999999
 30
0.0
 11
100.206
 21
93.184200000000004
 31
0.0
  0
LINE
  5
6E
  8
0
 62
     7
 10
100.206
 20
93.184200000000004
 30
0.0
 11
100.232
 21
93.179400000000001
 31
0.0
  0
LINE
  5
6F
  8
0
 62
     7
 10
100.232
 20
93.179400000000001
 30
0.0
 11
100.274
 21
93.172499999999985
 31
0.0
  0
LINE
  5
70
  8
0
 62
     7
 10
100.274
 20
93.172499999999985
 30
0.0
 11
100.333
 21
93.163600000000017
 31
0.0
  0
LINE
  5
71
  8
0
 62
     7
 10
100.333
 20
93.163600000000017
 30
0.0
 11
100.405
 21
93.153899999999979
 31
0.0
  0
LINE
  5
72
  8
0
 62
     7
 10
100.405
 20
93.153899999999979
 30
0.0
 11
100.491
 21
93.143600000000006
 31
0.0
  0
LINE
  5
73
  8
0
 62
     7
 10
100.491
 20
93.143600000000006
 30
0.0
 11
100.587
 21
93.134600000000006
 31
0.0
  0
LINE
  5
74
  8
0
 62
     7
 10
100.587
 20
93.134600000000006
 30
0.0
 11
100.693
 21
93.127700000000004
 31
0.0
  0
LINE
  5
75
  8
0
 62
     7
 10
100.693
 20
93.127700000000004
 30
0.0
 11
100.79900000000001
 21
93.124300000000005
 31
0.0
  0
LINE
  5
76
  8
0
 62
     7
 10
100.79900000000001
 20
93.124300000000005
 30
0.0
 11
100.91
 21
93.122900000000001
 31
0.0
  0
LINE
  5
77
  8
0
 62
     7
 10
100.91
 20
93.122900000000001
 30
0.0
 11
101.015
 21
93.125
 31
0.0
  0
LINE
  5
78
  8
0
 62
     7
 10
101.015
 20
93.125
 30
0.0
 11
101.119
 21
93.130499999999998
 31
0.0
  0
LINE
  5
79
  8
0
 62
     7
 10
101.119
 20
93.130499999999998
 30
0.0
 11
101.212
 21
93.138099999999994
 31
0.0
  0
LINE
  5
7A
  8
0
 62
     7
 10
101.212
 20
93.138099999999994
 30
0.0
 11
101.297
 21
93.145600000000002
 31
0.0
  0
LINE
  5
7B
  8
0
 62
     7
 10
101.297
 20
93.145600000000002
 30
0.0
 11
101.37
 21
93.155299999999997
 31
0.0
  0
LINE
  5
7C
  8
0
 62
     7
 10
101.37
 20
93.155299999999997
 30
0.0
 11
101.428
 21
93.162899999999993
 31
0.0
  0
LINE
  5
7D
  8
0
 62
     7
 10
101.428
 20
93.162899999999993
 30
0.0
 11
101.47
 21
93.1691
 31
0.0
  0
LINE
  5
7E
  8
0
 62
     7
 10
101.47
 20
93.1691
 30
0.0
 11
101.494
 21
93.173199999999994
 31
0.0
  0
LINE
  5
7F
  8
0
 62
     7
 10
101.494
 20
93.173199999999994
 30
0.0
 11
101.499
 21
93.173900000000003
 31
0.0
  0
LINE
  5
80
  8
0
 62
     7
 10
101.499
 20
93.173900000000003
 30
0.0
 11
101.492
 21
93.172499999999985
 31
0.0
  0
LINE
  5
81
  8
0
 62
     7
 10
146.58199999999999
 20
232.22399999999999
 30
0.0
 11
146.33199999999999
 21
226.089
 31
0.0
  0
LINE
  5
82
  8
0
 62
     7
 10
138.83199999999999
 20
232.22399999999999
 30
0.0
 11
139.08199999999999
 21
226.089
 31
0.0
  0
LINE
  5
83
  8
0
 62
     7
 10
146.33199999999999
 20
226.089
 30
0.0
 11
139.08199999999999
 21
226.089
 31
0.0
  0
LINE
  5
84
  8
0
 62
     7
 10
146.58199999999999
 20
248.589
 30
0.0
 11
138.83199999999999
 21
248.589
 31
0.0
  0
LINE
  5
85
  8
0
 62
     7
 10
146.58199999999999
 20
232.22399999999999
 30
0.0
 11
138.83199999999999
 21
232.22399999999999
 31
0.0
  0
LINE
  5
86
  8
0
 62
     7
 10
146.58199999999999
 20
232.399
 30
0.0
 11
138.83199999999999
 21
232.399
 31
0.0
  0
LINE
  5
87
  8
0
 62
     7
 10
146.58199999999999
 20
248.589
 30
0.0
 11
146.58199999999999
 21
232.399
 31
0.0
  0
LINE
  5
88
  8
0
 62
     7
 10
146.33000000000001
 20
232.399
 30
0.0
 11
146.33000000000001
 21
232.34800000000001
 31
0.0
  0
ARC
  5
89
  8
0
 62
     7
 10
146.459934
 20
232.35357300000001
 30
0.0
 40
0.12968
 50
181.849324
 51
267.83502700000003
  0
LINE
  5
8A
  8
0
 62
     7
 10
146.33000000000001
 20
232.34899999999999
 30
0.0
 11
146.33000000000001
 21
232.34999999999999
 31
0.0
  0
LINE
  5
8B
  8
0
 62
     7
 10
138.83199999999999
 20
248.589
 30
0.0
 11
138.83199999999999
 21
232.399
 31
0.0
  0
LINE
  5
8C
  8
0
 62
     7
 10
139.084
 20
232.399
 30
0.0
 11
139.083
 21
232.34800000000001
 31
0.0
  0
ARC
  5
8D
  8
0
 62
     7
 10
138.95378700000001
 20
232.35334900000001
 30
0.0
 40
0.129447
 50
272.06898200000001
 51
358.24670700000001
  0
LINE
  5
8E
  8
0
 62
     7
 10
139.083
 20
232.34899999999999
 30
0.0
 11
139.083
 21
232.34999999999999
 31
0.0
  0
LINE
  5
8F
  8
0
 62
     7
 10
143.232
 20
258.10700000000003
 30
0.0
 11
142.18199999999999
 21
257.68400000000003
 31
0.0
  0
LINE
  5
90
  8
0
 62
     7
 10
143.232
 20
257.50900000000001
 30
0.0
 11
142.18199999999999
 21
257.08600000000001
 31
0.0
  0
LINE
  5
91
  8
0
 62
     7
 10
143.232
 20
256.911
 30
0.0
 11
142.18199999999999
 21
256.488
 31
0.0
  0
LINE
  5
92
  8
0
 62
     7
 10
143.232
 20
256.31299999999999
 30
0.0
 11
142.18199999999999
 21
255.88999999999999
 31
0.0
  0
LINE
  5
93
  8
0
 62
     7
 10
143.232
 20
255.715
 30
0.0
 11
142.18199999999999
 21
255.291
 31
0.0
  0
LINE
  5
94
  8
0
 62
     7
 10
143.232
 20
255.11600000000001
 30
0.0
 11
142.18199999999999
 21
254.69300000000001
 31
0.0
  0
LINE
  5
95
  8
0
 62
     7
 10
143.232
 20
254.518
 30
0.0
 11
142.18199999999999
 21
254.095
 31
0.0
  0
LINE
  5
96
  8
0
 62
     7
 10
143.232
 20
253.91999999999999
 30
0.0
 11
142.18199999999999
 21
253.49700000000001
 31
0.0
  0
LINE
  5
97
  8
0
 62
     7
 10
143.232
 20
249.13399999999999
 30
0.0
 11
142.18199999999999
 21
248.71100000000001
 31
0.0
  0
LINE
  5
98
  8
0
 62
     7
 10
143.232
 20
249.733
 30
0.0
 11
142.18199999999999
 21
249.309
 31
0.0
  0
LINE
  5
99
  8
0
 62
     7
 10
143.232
 20
250.33099999999999
 30
0.0
 11
142.18199999999999
 21
249.90799999999999
 31
0.0
  0
LINE
  5
9A
  8
0
 62
     7
 10
143.232
 20
250.929
 30
0.0
 11
142.18199999999999
 21
250.506
 31
0.0
  0
LINE
  5
9B
  8
0
 62
     7
 10
143.232
 20
251.52699999999999
 30
0.0
 11
142.18199999999999
 21
251.10400000000001
 31
0.0
  0
LINE
  5
9C
  8
0
 62
     7
 10
143.232
 20
252.125
 30
0.0
 11
142.18199999999999
 21
251.702
 31
0.0
  0
LINE
  5
9D
  8
0
 62
     7
 10
143.232
 20
253.322
 30
0.0
 11
142.18199999999999
 21
252.898
 31
0.0
  0
LINE
  5
9E
  8
0
 62
     7
 10
143.232
 20
252.72300000000001
 30
0.0
 11
142.18199999999999
 21
252.30000000000001
 31
0.0
  0
LINE
  5
9F
  8
0
 62
     7
 10
142.958
 20
257.97399999999999
 30
0.0
 11
142.70699999999999
 21
258.58999999999997
 31
0.0
  0
LINE
  5
A0
  8
0
 62
     7
 10
142.45500000000001
 20
257.97399999999999
 30
0.0
 11
142.70699999999999
 21
258.58999999999997
 31
0.0
  0
LINE
  5
A1
  8
0
 62
     7
 10
142.45500000000001
 20
257.97399999999999
 30
0.0
 11
142.45500000000001
 21
248.589
 31
0.0
  0
LINE
  5
A2
  8
0
 62
     7
 10
142.958
 20
257.97399999999999
 30
0.0
 11
142.958
 21
248.589
 31
0.0
  0
LINE
  5
A3
  8
0
  6
AIGENLINE002
 62
     7
 10
142.70699999999999
 20
259.63299999999998
 30
0.0
 11
142.70699999999999
 21
247.285
 31
0.0
  0
LINE
  5
A4
  8
0
 62
     7
 10
86.910499999999999
 20
206.261
 30
0.0
 11
86.910499999999999
 21
194.71799999999999
 31
0.0
  0
LINE
  5
A5
  8
0
 62
     7
 10
103.09999999999999
 20
206.12
 30
0.0
 11
103.09999999999999
 21
194.86099999999999
 31
0.0
  0
LINE
  5
A6
  8
0
 62
     7
 10
101.498
 20
194.84700000000001
 30
0.0
 11
101.499
 21
194.84700000000001
 31
0.0
  0
LINE
  5
A7
  8
0
 62
     7
 10
101.499
 20
194.84700000000001
 30
0.0
 11
101.48699999999999
 21
194.84899999999999
 31
0.0
  0
LINE
  5
A8
  8
0
 62
     7
 10
101.48699999999999
 20
194.84899999999999
 30
0.0
 11
101.45699999999999
 21
194.85300000000001
 31
0.0
  0
LINE
  5
A9
  8
0
 62
     7
 10
101.45699999999999
 20
194.85300000000001
 30
0.0
 11
101.41
 21
194.86000000000001
 31
0.0
  0
LINE
  5
AA
  8
0
 62
     7
 10
101.41
 20
194.86000000000001
 30
0.0
 11
101.348
 21
194.869
 31
0.0
  0
LINE
  5
AB
  8
0
 62
     7
 10
101.348
 20
194.869
 30
0.0
 11
101.27
 21
194.87799999999999
 31
0.0
  0
LINE
  5
AC
  8
0
 62
     7
 10
101.27
 20
194.87799999999999
 30
0.0
 11
101.182
 21
194.88499999999999
 31
0.0
  0
LINE
  5
AD
  8
0
 62
     7
 10
101.182
 20
194.88499999999999
 30
0.0
 11
101.08199999999999
 21
194.892
 31
0.0
  0
LINE
  5
AE
  8
0
 62
     7
 10
101.08199999999999
 20
194.892
 30
0.0
 11
100.92700000000001
 21
194.89699999999999
 31
0.0
  0
LINE
  5
AF
  8
0
 62
     7
 10
100.92700000000001
 20
194.89699999999999
 30
0.0
 11
100.81999999999999
 21
194.89699999999999
 31
0.0
  0
LINE
  5
B0
  8
0
 62
     7
 10
100.81999999999999
 20
194.89699999999999
 30
0.0
 11
100.711
 21
194.893
 31
0.0
  0
LINE
  5
B1
  8
0
 62
     7
 10
100.711
 20
194.893
 30
0.0
 11
100.60899999999999
 21
194.887
 31
0.0
  0
LINE
  5
B2
  8
0
 62
     7
 10
100.60899999999999
 20
194.887
 30
0.0
 11
100.511
 21
194.87899999999999
 31
0.0
  0
LINE
  5
B3
  8
0
 62
     7
 10
100.511
 20
194.87899999999999
 30
0.0
 11
100.42400000000001
 21
194.869
 31
0.0
  0
LINE
  5
B4
  8
0
 62
     7
 10
100.42400000000001
 20
194.869
 30
0.0
 11
100.34699999999999
 21
194.85900000000001
 31
0.0
  0
LINE
  5
B5
  8
0
 62
     7
 10
100.34699999999999
 20
194.85900000000001
 30
0.0
 11
100.286
 21
194.84999999999999
 31
0.0
  0
LINE
  5
B6
  8
0
 62
     7
 10
100.286
 20
194.84999999999999
 30
0.0
 11
100.238
 21
194.84200000000001
 31
0.0
  0
LINE
  5
B7
  8
0
 62
     7
 10
100.238
 20
194.84200000000001
 30
0.0
 11
100.209
 21
194.83699999999999
 31
0.0
  0
LINE
  5
B8
  8
0
 62
     7
 10
100.209
 20
194.83699999999999
 30
0.0
 11
100.199
 21
194.83500000000001
 31
0.0
  0
LINE
  5
B9
  8
0
 62
     7
 10
108.179
 20
185.47900000000001
 30
0.0
 11
108.176
 21
185.304
 31
0.0
  0
LINE
  5
BA
  8
0
 62
     7
 10
105.881
 20
185.304
 30
0.0
 11
105.878
 21
185.47900000000001
 31
0.0
  0
LINE
  5
BB
  8
0
 62
     7
 10
106.08199999999999
 20
185.47900000000001
 30
0.0
 11
105.77800000000001
 21
185.47900000000001
 31
0.0
  0
LINE
  5
BC
  8
0
 62
     7
 10
108.279
 20
185.47900000000001
 30
0.0
 11
107.983
 21
185.47900000000001
 31
0.0
  0
ARC
  5
BD
  8
0
 62
     7
 10
279.00125500000001
 20
185.48258100000001
 30
0.0
 40
170.72225299999999
 50
174.332909
 51
180.001251
  0
LINE
  5
BE
  8
0
 62
     7
 10
103.27500000000001
 20
206.119
 30
0.0
 11
103.27500000000001
 21
194.86099999999999
 31
0.0
  0
LINE
  5
BF
  8
0
 62
     7
 10
105.77800000000001
 20
185.47900000000001
 30
0.0
 11
105.77800000000001
 21
191.40700000000001
 31
0.0
  0
LINE
  5
C0
  8
0
 62
     7
 10
105.77800000000001
 20
191.40700000000001
 30
0.0
 11
105.773
 21
191.726
 31
0.0
  0
LINE
  5
C1
  8
0
 62
     7
 10
105.773
 20
191.726
 30
0.0
 11
105.581
 21
193.57299999999989
 31
0.0
  0
LINE
  5
C2
  8
0
 62
     7
 10
105.581
 20
193.57299999999989
 30
0.0
 11
105.126
 21
195.38300000000001
 31
0.0
  0
LINE
  5
C3
  8
0
 62
     7
 10
105.126
 20
195.38300000000001
 30
0.0
 11
104.754
 21
196.34800000000001
 31
0.0
  0
LINE
  5
C4
  8
0
 62
     7
 10
104.754
 20
196.34800000000001
 30
0.0
 11
104.26600000000001
 21
197.27000000000001
 31
0.0
  0
LINE
  5
C5
  8
0
 62
     7
 10
104.26600000000001
 20
197.27000000000001
 30
0.0
 11
103.733
 21
198.018
 31
0.0
  0
LINE
  5
C6
  8
0
 62
     7
 10
103.733
 20
198.018
 30
0.0
 11
103.473
 21
198.33000000000001
 31
0.0
  0
LINE
  5
C7
  8
0
 62
     7
 10
103.473
 20
198.33000000000001
 30
0.0
 11
103.36
 21
198.46700000000001
 31
0.0
  0
LINE
  5
C8
  8
0
 62
     7
 10
103.36
 20
198.46700000000001
 30
0.0
 11
103.282
 21
198.584
 31
0.0
  0
LINE
  5
C9
  8
0
 62
     7
 10
103.282
 20
198.584
 30
0.0
 11
103.27500000000001
 21
198.613
 31
0.0
  0
LINE
  5
CA
  8
0
 62
     7
 10
107.983
 20
185.47900000000001
 30
0.0
 11
106.08199999999999
 21
185.47900000000001
 31
0.0
  0
LINE
  5
CB
  8
0
 62
     7
 10
109.40600000000001
 20
205.18700000000001
 30
0.0
 11
109.41
 21
205.10599999999999
 31
0.0
  0
LINE
  5
CC
  8
0
 62
     7
 10
109.41
 20
205.10599999999999
 30
0.0
 11
109.40300000000001
 21
205.04499999999999
 31
0.0
  0
LINE
  5
CD
  8
0
 62
     7
 10
109.40300000000001
 20
205.04499999999999
 30
0.0
 11
109.386
 21
204.89500000000001
 31
0.0
  0
LINE
  5
CE
  8
0
 62
     7
 10
109.386
 20
204.89500000000001
 30
0.0
 11
109.33
 21
204.40299999999999
 31
0.0
  0
LINE
  5
CF
  8
0
 62
     7
 10
109.33
 20
204.40299999999999
 30
0.0
 11
109.261
 21
203.76900000000001
 31
0.0
  0
LINE
  5
D0
  8
0
 62
     7
 10
109.261
 20
203.76900000000001
 30
0.0
 11
109.19
 21
203.09800000000001
 31
0.0
  0
LINE
  5
D1
  8
0
 62
     7
 10
109.19
 20
203.09800000000001
 30
0.0
 11
109.113
 21
202.34100000000001
 31
0.0
  0
LINE
  5
D2
  8
0
 62
     7
 10
108.176
 20
102.717
 30
0.0
 11
108.179
 21
102.542
 31
0.0
  0
LINE
  5
D3
  8
0
 62
     7
 10
105.878
 20
102.542
 30
0.0
 11
105.881
 21
102.717
 31
0.0
  0
LINE
  5
D4
  8
0
 62
     7
 10
107.983
 20
102.542
 30
0.0
 11
108.279
 21
102.542
 31
0.0
  0
ARC
  5
D5
  8
0
 62
     7
 10
279.199592
 20
102.54730499999999
 30
0.0
 40
170.92059
 50
180.00184899999999
 51
185.66379900000001
  0
LINE
  5
D6
  8
0
 62
     7
 10
105.77800000000001
 20
102.542
 30
0.0
 11
106.08199999999999
 21
102.542
 31
0.0
  0
LINE
  5
D7
  8
0
 62
     7
 10
105.77800000000001
 20
97.350700000000003
 30
0.0
 11
105.77800000000001
 21
102.542
 31
0.0
  0
LINE
  5
D8
  8
0
 62
     7
 10
103.27500000000001
 20
93.1601
 30
0.0
 11
103.27500000000001
 21
81.901799999999994
 31
0.0
  0
LINE
  5
D9
  8
0
 62
     7
 10
106.08199999999999
 20
102.542
 30
0.0
 11
107.983
 21
102.542
 31
0.0
  0
ARC
  5
DA
  8
0
 62
     7
 10
621.95602899999994
 20
136.30040199999999
 30
0.0
 40
515.33491500000002
 50
185.63727700000001
 51
185.84422599999999
  0
ARC
  5
DB
  8
0
 62
     7
 10
199.97233700000001
 20
93.300394999999995
 30
0.0
 40
91.166281999999995
 50
185.96458200000001
 51
186.593265
  0
LINE
  5
DC
  8
0
 62
     7
 10
100.64100000000001
 20
194.88999999999999
 30
0.0
 11
101.124
 21
194.88999999999999
 31
0.0
  0
LINE
  5
DD
  8
0
 62
     7
 10
101.363
 20
194.86099999999999
 30
0.0
 11
100.349
 21
194.86099999999999
 31
0.0
  0
LINE
  5
DE
  8
0
 62
     7
 10
100.357
 20
93.1601
 30
0.0
 11
101.13500000000001
 21
93.1601
 31
0.0
  0
LINE
  5
DF
  8
0
 62
     7
 10
101.13500000000001
 20
93.1601
 30
0.0
 11
101.363
 21
93.1601
 31
0.0
  0
LINE
  5
E0
  8
0
 62
     7
 10
101.121
 20
93.131200000000007
 30
0.0
 11
100.642
 21
93.131200000000007
 31
0.0
  0
LINE
  5
E1
  8
0
 62
     7
 10
86.910499999999999
 20
81.759900000000002
 30
0.0
 11
103.09999999999999
 21
81.901799999999994
 31
0.0
  0
LINE
  5
E2
  8
0
 62
     7
 10
103.09999999999999
 20
93.1601
 30
0.0
 11
101.498
 21
93.173900000000003
 31
0.0
  0
LINE
  5
E3
  8
0
 62
     7
 10
100.199
 20
93.184899999999999
 30
0.0
 11
86.910499999999999
 21
93.302000000000007
 31
0.0
  0
LINE
  5
E4
  8
0
 62
     7
 10
86.910499999999999
 20
194.71799999999999
 30
0.0
 11
100.199
 21
194.83500000000001
 31
0.0
  0
LINE
  5
E5
  8
0
 62
     7
 10
101.498
 20
194.84700000000001
 30
0.0
 11
103.09999999999999
 21
194.86099999999999
 31
0.0
  0
LINE
  5
E6
  8
0
 62
     7
 10
103.09999999999999
 20
206.119
 30
0.0
 11
86.910499999999999
 21
206.261
 31
0.0
  0
LINE
  5
E7
  8
0
 62
     7
 10
103.152
 20
205.86699999999999
 30
0.0
 11
103.09999999999999
 21
205.86699999999999
 31
0.0
  0
LINE
  5
E8
  8
0
 62
     7
 10
103.09999999999999
 20
195.11199999999999
 30
0.0
 11
103.152
 21
195.11199999999999
 31
0.0
  0
LINE
  5
E9
  8
0
 62
     7
 10
103.27500000000001
 20
194.86099999999999
 30
0.0
 11
103.593
 21
194.82499999999999
 31
0.0
  0
LINE
  5
EA
  8
0
 62
     7
 10
103.593
 20
194.82499999999999
 30
0.0
 11
103.883
 21
194.72300000000001
 31
0.0
  0
LINE
  5
EB
  8
0
 62
     7
 10
103.883
 20
194.72300000000001
 30
0.0
 11
104.381
 21
194.34999999999999
 31
0.0
  0
LINE
  5
EC
  8
0
 62
     7
 10
104.381
 20
194.34999999999999
 30
0.0
 11
104.78400000000001
 21
193.79900000000001
 31
0.0
  0
LINE
  5
ED
  8
0
 62
     7
 10
104.78400000000001
 20
193.79900000000001
 30
0.0
 11
105.104
 21
193.12200000000001
 31
0.0
  0
LINE
  5
EE
  8
0
 62
     7
 10
105.104
 20
193.12200000000001
 30
0.0
 11
105.426
 21
192.06999999999999
 31
0.0
  0
LINE
  5
EF
  8
0
 62
     7
 10
105.426
 20
192.06999999999999
 30
0.0
 11
105.639
 21
190.94999999999999
 31
0.0
  0
LINE
  5
F0
  8
0
 62
     7
 10
105.639
 20
190.94999999999999
 30
0.0
 11
105.75
 21
189.91499999999999
 31
0.0
  0
LINE
  5
F1
  8
0
 62
     7
 10
105.75
 20
189.91499999999999
 30
0.0
 11
105.76900000000001
 21
189.58699999999999
 31
0.0
  0
LINE
  5
F2
  8
0
 62
     7
 10
105.76900000000001
 20
189.58699999999999
 30
0.0
 11
105.776
 21
189.32299999999989
 31
0.0
  0
LINE
  5
F3
  8
0
 62
     7
 10
105.776
 20
189.32299999999989
 30
0.0
 11
105.77800000000001
 21
189.13499999999999
 31
0.0
  0
LINE
  5
F4
  8
0
 62
     7
 10
105.77800000000001
 20
189.13499999999999
 30
0.0
 11
105.77800000000001
 21
188.983
 31
0.0
  0
LINE
  5
F5
  8
0
 62
     7
 10
105.77800000000001
 20
188.983
 30
0.0
 11
105.77800000000001
 21
188.863
 31
0.0
  0
ARC
  5
F6
  8
0
 62
     7
 10
102.871509
 20
176.76337799999999
 30
0.0
 40
29.358355
 50
77.527737000000002
 51
89.211563999999996
  0
ARC
  5
F7
  8
0
 62
     7
 10
103.14649
 20
205.99632099999999
 30
0.0
 40
0.129052
 50
273.12664000000001
 51
358.31168200000002
  0
ARC
  5
F8
  8
0
 62
     7
 10
103.145909
 20
194.982203
 30
0.0
 40
0.129669
 50
2.160591999999999
 51
88.155077000000006
  0
ARC
  5
F9
  8
0
 62
     7
 10
109.132426
 20
205.1611
 30
0.0
 40
0.2750780000000001
 50
5.485252
 51
80.862331999999995
  0
LINE
  5
FA
  8
0
 62
     7
 10
103.09999999999999
 20
82.153999999999996
 30
0.0
 11
103.152
 21
82.153299999999987
 31
0.0
  0
LINE
  5
FB
  8
0
 62
     7
 10
103.152
 20
92.908600000000007
 30
0.0
 11
103.09999999999999
 21
92.908600000000007
 31
0.0
  0
LINE
  5
FC
  8
0
 62
     7
 10
105.77800000000001
 20
99.331699999999998
 30
0.0
 11
105.77800000000001
 21
98.998199999999997
 31
0.0
  0
LINE
  5
FD
  8
0
 62
     7
 10
105.77800000000001
 20
98.998199999999997
 30
0.0
 11
105.77500000000001
 21
98.602000000000004
 31
0.0
  0
LINE
  5
FE
  8
0
 62
     7
 10
105.77500000000001
 20
98.602000000000004
 30
0.0
 11
105.745
 21
98.048000000000002
 31
0.0
  0
LINE
  5
FF
  8
0
 62
     7
 10
105.745
 20
98.048000000000002
 30
0.0
 11
105.67700000000001
 21
97.352099999999993
 31
0.0
  0
LINE
  5
100
  8
0
 62
     7
 10
105.67700000000001
 20
97.352099999999993
 30
0.0
 11
105.557
 21
96.572100000000006
 31
0.0
  0
LINE
  5
101
  8
0
 62
     7
 10
105.557
 20
96.572100000000006
 30
0.0
 11
105.371
 21
95.728800000000007
 31
0.0
  0
LINE
  5
102
  8
0
 62
     7
 10
105.371
 20
95.728800000000007
 30
0.0
 11
105.086
 21
94.853700000000003
 31
0.0
  0
LINE
  5
103
  8
0
 62
     7
 10
105.086
 20
94.853700000000003
 30
0.0
 11
104.67100000000001
 21
94.038599999999988
 31
0.0
  0
LINE
  5
104
  8
0
 62
     7
 10
104.67100000000001
 20
94.038599999999988
 30
0.0
 11
104.402
 21
93.693399999999997
 31
0.0
  0
LINE
  5
105
  8
0
 62
     7
 10
104.402
 20
93.693399999999997
 30
0.0
 11
104.084
 21
93.415000000000006
 31
0.0
  0
LINE
  5
106
  8
0
 62
     7
 10
104.084
 20
93.415000000000006
 30
0.0
 11
103.712
 21
93.228999999999999
 31
0.0
  0
LINE
  5
107
  8
0
 62
     7
 10
103.712
 20
93.228999999999999
 30
0.0
 11
103.27500000000001
 21
93.1601
 31
0.0
  0
ARC
  5
108
  8
0
 62
     7
 10
102.866803
 20
111.312207
 30
0.0
 40
29.413239999999998
 50
270.796133
 51
282.45800400000002
  0
ARC
  5
109
  8
0
 62
     7
 10
103.145923
 20
82.023735999999985
 30
0.0
 40
0.129654
 50
2.1438609999999998
 51
87.856129000000024
  0
LINE
  5
10A
  8
0
 62
     7
 10
103.151
 20
82.153299999999987
 30
0.0
 11
103.15000000000001
 21
82.153299999999987
 31
0.0
  0
ARC
  5
10B
  8
0
 62
     7
 10
103.145875
 20
93.038040000000009
 30
0.0
 40
0.129697
 50
273.6882700000001
 51
357.91655900000001
  0
ARC
  5
10C
  8
0
 62
     7
 10
109.125666
 20
82.866264000000015
 30
0.0
 40
0.285318
 50
280.04294499999997
 51
353.23959200000002
  0
LINE
  5
10D
  8
0
 62
     7
 10
146.43299999999999
 20
197.93000000000001
 30
0.0
 11
146.43199999999999
 21
197.83799999999999
 31
0.0
  0
LINE
  5
10E
  8
0
 62
     7
 10
146.44
 20
185.304
 30
0.0
 11
146.11699999999999
 21
185.304
 31
0.0
  0
LINE
  5
10F
  8
0
 62
     7
 10
146.44
 20
102.717
 30
0.0
 11
146.11699999999999
 21
102.717
 31
0.0
  0
LINE
  5
110
  8
0
 62
     7
 10
146.44
 20
102.717
 30
0.0
 11
146.44
 21
185.304
 31
0.0
  0
LINE
  5
111
  8
0
 62
     7
 10
146.11699999999999
 20
185.304
 30
0.0
 11
139.29599999999999
 21
185.304
 31
0.0
  0
LINE
  5
112
  8
0
 62
     7
 10
146.11699999999999
 20
102.717
 30
0.0
 11
139.29599999999999
 21
102.717
 31
0.0
  0
LINE
  5
113
  8
0
 62
     7
 10
139.29599999999999
 20
185.304
 30
0.0
 11
138.97200000000001
 21
185.304
 31
0.0
  0
LINE
  5
114
  8
0
 62
     7
 10
138.97200000000001
 20
102.717
 30
0.0
 11
138.97200000000001
 21
185.304
 31
0.0
  0
LINE
  5
115
  8
0
 62
     7
 10
139.29599999999999
 20
102.717
 30
0.0
 11
138.97200000000001
 21
102.717
 31
0.0
  0
ARC
  5
116
  8
0
 62
     7
 10
142.874887
 20
85.802233000000001
 30
0.0
 40
4.045888999999999
 50
182.086691
 51
267.60846600000002
  0
ARC
  5
117
  8
0
 62
     7
 10
142.55614700000001
 20
85.784841999999998
 30
0.0
 40
4.0277649999999996
 50
272.13303500000001
 51
358.15147200000001
  0
LINE
  5
118
  8
0
 62
     7
 10
138.83199999999999
 20
89.407700000000006
 30
0.0
 11
138.83199999999999
 21
85.654899999999998
 31
0.0
  0
LINE
  5
119
  8
0
 62
     7
 10
138.94399999999999
 20
90.3386
 30
0.0
 11
138.87899999999999
 21
90.016099999999994
 31
0.0
  0
LINE
  5
11A
  8
0
 62
     7
 10
138.87899999999999
 20
90.016099999999994
 30
0.0
 11
138.83199999999999
 21
89.407700000000006
 31
0.0
  0
LINE
  5
11B
  8
0
 62
     7
 10
146.58199999999999
 20
89.407700000000006
 30
0.0
 11
146.53399999999999
 21
90.016099999999994
 31
0.0
  0
LINE
  5
11C
  8
0
 62
     7
 10
146.53399999999999
 20
90.016099999999994
 30
0.0
 11
146.44999999999999
 21
90.412300000000002
 31
0.0
  0
LINE
  5
11D
  8
0
 62
     7
 10
146.58199999999999
 20
85.654899999999998
 30
0.0
 11
146.58199999999999
 21
89.407700000000006
 31
0.0
  0
ARC
  5
11E
  8
0
 62
     7
 10
142.53925599999999
 20
202.21874099999999
 30
0.0
 40
4.0452479999999991
 50
2.0888619999999989
 51
87.636767000000006
  0
ARC
  5
11F
  8
0
 62
     7
 10
142.85638
 20
202.236569
 30
0.0
 40
4.0267860000000004
 50
92.139348999999996
 51
178.15535700000001
  0
LINE
  5
120
  8
0
 62
     7
 10
138.83199999999999
 20
202.36600000000001
 30
0.0
 11
138.83199999999999
 21
198.613
 31
0.0
  0
LINE
  5
121
  8
0
 62
     7
 10
146.42400000000001
 20
197.51499999999999
 30
0.0
 11
146.53399999999999
 21
198.00399999999999
 31
0.0
  0
LINE
  5
122
  8
0
 62
     7
 10
146.53399999999999
 20
198.00399999999999
 30
0.0
 11
146.58199999999999
 21
198.613
 31
0.0
  0
LINE
  5
123
  8
0
 62
     7
 10
138.83199999999999
 20
198.613
 30
0.0
 11
138.87899999999999
 21
198.00399999999999
 31
0.0
  0
LINE
  5
124
  8
0
 62
     7
 10
138.87899999999999
 20
198.00399999999999
 30
0.0
 11
138.96299999999999
 21
197.608
 31
0.0
  0
LINE
  5
125
  8
0
 62
     7
 10
146.58199999999999
 20
198.613
 30
0.0
 11
146.58199999999999
 21
202.36600000000001
 31
0.0
  0
LINE
  5
126
  8
0
 62
     7
 10
139.07599999999999
 20
185.304
 30
0.0
 11
139.072
 21
185.47900000000001
 31
0.0
  0
LINE
  5
127
  8
0
 62
     7
 10
146.34100000000001
 20
185.47900000000001
 30
0.0
 11
146.33799999999999
 21
185.304
 31
0.0
  0
LINE
  5
128
  8
0
 62
     7
 10
138.976
 20
198.29300000000001
 30
0.0
 11
138.97800000000001
 21
198.06700000000001
 31
0.0
  0
LINE
  5
129
  8
0
 62
     7
 10
138.97800000000001
 20
198.06700000000001
 30
0.0
 11
138.98099999999999
 21
197.66900000000001
 31
0.0
  0
LINE
  5
12A
  8
0
 62
     7
 10
138.98099999999999
 20
197.66900000000001
 30
0.0
 11
138.988
 21
196.90899999999999
 31
0.0
  0
LINE
  5
12B
  8
0
 62
     7
 10
138.988
 20
196.90899999999999
 30
0.0
 11
138.99299999999999
 21
196.18600000000001
 31
0.0
  0
LINE
  5
12C
  8
0
 62
     7
 10
138.99299999999999
 20
196.18600000000001
 30
0.0
 11
138.99700000000001
 21
195.43899999999999
 31
0.0
  0
LINE
  5
12D
  8
0
 62
     7
 10
138.99700000000001
 20
195.43899999999999
 30
0.0
 11
139.00200000000001
 21
194.23699999999999
 31
0.0
  0
LINE
  5
12E
  8
0
 62
     7
 10
139.00200000000001
 20
194.23699999999999
 30
0.0
 11
139.005
 21
193.38800000000001
 31
0.0
  0
LINE
  5
12F
  8
0
 62
     7
 10
139.005
 20
193.38800000000001
 30
0.0
 11
139.005
 21
192.99299999999999
 31
0.0
  0
LINE
  5
130
  8
0
 62
     7
 10
139.005
 20
192.99299999999999
 30
0.0
 11
139.00700000000001
 21
191.73400000000001
 31
0.0
  0
LINE
  5
131
  8
0
 62
     7
 10
139.00700000000001
 20
191.73400000000001
 30
0.0
 11
139.00700000000001
 21
190.864
 31
0.0
  0
LINE
  5
132
  8
0
 62
     7
 10
139.00700000000001
 20
190.864
 30
0.0
 11
139.00700000000001
 21
188.471
 31
0.0
  0
LINE
  5
133
  8
0
 62
     7
 10
139.00700000000001
 20
188.471
 30
0.0
 11
139.00700000000001
 21
185.47900000000001
 31
0.0
  0
LINE
  5
134
  8
0
 62
     7
 10
146.40600000000001
 20
185.47900000000001
 30
0.0
 11
146.40600000000001
 21
190.2829999999999
 31
0.0
  0
LINE
  5
135
  8
0
 62
     7
 10
146.40600000000001
 20
190.2829999999999
 30
0.0
 11
146.40600000000001
 21
190.45500000000001
 31
0.0
  0
LINE
  5
136
  8
0
 62
     7
 10
146.40600000000001
 20
190.45500000000001
 30
0.0
 11
146.40600000000001
 21
190.62599999999989
 31
0.0
  0
LINE
  5
137
  8
0
 62
     7
 10
146.40600000000001
 20
190.62599999999989
 30
0.0
 11
146.40600000000001
 21
190.923
 31
0.0
  0
LINE
  5
138
  8
0
 62
     7
 10
146.40600000000001
 20
190.923
 30
0.0
 11
146.40600000000001
 21
191.25
 31
0.0
  0
LINE
  5
139
  8
0
 62
     7
 10
146.40600000000001
 20
191.25
 30
0.0
 11
146.40600000000001
 21
191.46199999999999
 31
0.0
  0
LINE
  5
13A
  8
0
 62
     7
 10
146.40600000000001
 20
191.46199999999999
 30
0.0
 11
146.40600000000001
 21
191.70500000000001
 31
0.0
  0
LINE
  5
13B
  8
0
 62
     7
 10
146.40600000000001
 20
191.70500000000001
 30
0.0
 11
146.40600000000001
 21
192.03299999999999
 31
0.0
  0
LINE
  5
13C
  8
0
 62
     7
 10
146.40600000000001
 20
192.03299999999999
 30
0.0
 11
146.40700000000001
 21
192.35499999999999
 31
0.0
  0
LINE
  5
13D
  8
0
 62
     7
 10
146.40700000000001
 20
192.35499999999999
 30
0.0
 11
146.41
 21
194.08099999999999
 31
0.0
  0
LINE
  5
13E
  8
0
 62
     7
 10
146.41
 20
194.08099999999999
 30
0.0
 11
146.417
 21
195.72300000000001
 31
0.0
  0
LINE
  5
13F
  8
0
 62
     7
 10
146.417
 20
195.72300000000001
 30
0.0
 11
146.422
 21
196.49700000000001
 31
0.0
  0
LINE
  5
140
  8
0
 62
     7
 10
146.422
 20
196.49700000000001
 30
0.0
 11
146.42699999999999
 21
197.239
 31
0.0
  0
LINE
  5
141
  8
0
 62
     7
 10
146.42699999999999
 20
197.239
 30
0.0
 11
146.43100000000001
 21
197.59200000000001
 31
0.0
  0
LINE
  5
142
  8
0
 62
     7
 10
146.43100000000001
 20
197.59200000000001
 30
0.0
 11
146.43299999999999
 21
197.833
 31
0.0
  0
LINE
  5
143
  8
0
 62
     7
 10
146.43299999999999
 20
197.833
 30
0.0
 11
146.434
 21
197.935
 31
0.0
  0
LINE
  5
144
  8
0
 62
     7
 10
146.434
 20
197.935
 30
0.0
 11
146.435
 21
198.08799999999999
 31
0.0
  0
LINE
  5
145
  8
0
 62
     7
 10
146.435
 20
198.08799999999999
 30
0.0
 11
146.43700000000001
 21
198.26599999999999
 31
0.0
  0
LINE
  5
146
  8
0
 62
     7
 10
146.43700000000001
 20
198.26599999999999
 30
0.0
 11
146.43799999999999
 21
198.36600000000001
 31
0.0
  0
LINE
  5
147
  8
0
 62
     7
 10
146.43799999999999
 20
198.36600000000001
 30
0.0
 11
146.43799999999999
 21
198.4309999999999
 31
0.0
  0
LINE
  5
148
  8
0
 62
     7
 10
146.43799999999999
 20
198.4309999999999
 30
0.0
 11
146.43899999999999
 21
198.47799999999989
 31
0.0
  0
LINE
  5
149
  8
0
 62
     7
 10
139.328
 20
185.47900000000001
 30
0.0
 11
139.03
 21
185.47900000000001
 31
0.0
  0
ARC
  5
14A
  8
0
 62
     7
 10
13742.82
 20
185.59675799999999
 30
0.0
 40
13603.790000000001
 50
179.929351
 51
180.000516
  0
LINE
  5
14B
  8
0
 62
     7
 10
146.3829999999999
 20
185.47900000000001
 30
0.0
 11
146.084
 21
185.47900000000001
 31
0.0
  0
ARC
  5
14C
  8
0
 62
     7
 10
-13545.84
 20
185.542641
 30
0.0
 40
13692.219999999999
 50
359.99973299999999
 51
0.070399
  0
LINE
  5
14D
  8
0
 62
     7
 10
139.03999999999999
 20
202.37200000000001
 30
0.0
 11
139.19999999999999
 21
203.232
 31
0.0
  0
LINE
  5
14E
  8
0
 62
     7
 10
139.19999999999999
 20
203.232
 30
0.0
 11
139.61000000000001
 21
203.97900000000001
 31
0.0
  0
LINE
  5
14F
  8
0
 62
     7
 10
139.61000000000001
 20
203.97900000000001
 30
0.0
 11
140.30699999999999
 21
204.673
 31
0.0
  0
LINE
  5
150
  8
0
 62
     7
 10
140.30699999999999
 20
204.673
 30
0.0
 11
140.78999999999999
 21
204.97800000000001
 31
0.0
  0
LINE
  5
151
  8
0
 62
     7
 10
140.78999999999999
 20
204.97800000000001
 30
0.0
 11
141.31399999999999
 21
205.20599999999999
 31
0.0
  0
LINE
  5
152
  8
0
 62
     7
 10
141.31399999999999
 20
205.20599999999999
 30
0.0
 11
141.92099999999999
 21
205.36699999999999
 31
0.0
  0
LINE
  5
153
  8
0
 62
     7
 10
141.92099999999999
 20
205.36699999999999
 30
0.0
 11
142.54499999999999
 21
205.434
 31
0.0
  0
LINE
  5
154
  8
0
 62
     7
 10
142.54499999999999
 20
205.434
 30
0.0
 11
143.23699999999999
 21
205.405
 31
0.0
  0
LINE
  5
155
  8
0
 62
     7
 10
143.23699999999999
 20
205.405
 30
0.0
 11
143.91499999999999
 21
205.26599999999999
 31
0.0
  0
LINE
  5
156
  8
0
 62
     7
 10
143.91499999999999
 20
205.26599999999999
 30
0.0
 11
144.59200000000001
 21
204.99299999999999
 31
0.0
  0
LINE
  5
157
  8
0
 62
     7
 10
144.59200000000001
 20
204.99299999999999
 30
0.0
 11
145.20400000000001
 21
204.59800000000001
 31
0.0
  0
LINE
  5
158
  8
0
 62
     7
 10
145.20400000000001
 20
204.59800000000001
 30
0.0
 11
145.66800000000001
 21
204.148
 31
0.0
  0
LINE
  5
159
  8
0
 62
     7
 10
145.66800000000001
 20
204.148
 30
0.0
 11
146.03700000000001
 21
203.61699999999999
 31
0.0
  0
LINE
  5
15A
  8
0
 62
     7
 10
146.03700000000001
 20
203.61699999999999
 30
0.0
 11
146.33699999999999
 21
202.77500000000001
 31
0.0
  0
LINE
  5
15B
  8
0
 62
     7
 10
146.33699999999999
 20
202.77500000000001
 30
0.0
 11
146.37299999999999
 21
202.37200000000001
 31
0.0
  0
LINE
  5
15C
  8
0
 62
     7
 10
139.328
 20
185.47900000000001
 30
0.0
 11
146.084
 21
185.47900000000001
 31
0.0
  0
LINE
  5
15D
  8
0
 62
     7
 10
146.33799999999999
 20
102.717
 30
0.0
 11
146.34100000000001
 21
102.542
 31
0.0
  0
LINE
  5
15E
  8
0
 62
     7
 10
139.072
 20
102.542
 30
0.0
 11
139.07599999999999
 21
102.717
 31
0.0
  0
LINE
  5
15F
  8
0
 62
     7
 10
146.43799999999999
 20
89.604100000000017
 30
0.0
 11
146.43799999999999
 21
89.662599999999998
 31
0.0
  0
LINE
  5
160
  8
0
 62
     7
 10
146.43799999999999
 20
89.662599999999998
 30
0.0
 11
146.43799999999999
 21
89.727399999999989
 31
0.0
  0
LINE
  5
161
  8
0
 62
     7
 10
146.43799999999999
 20
89.727399999999989
 30
0.0
 11
146.435
 21
89.953400000000002
 31
0.0
  0
LINE
  5
162
  8
0
 62
     7
 10
146.435
 20
89.953400000000002
 30
0.0
 11
146.43199999999999
 21
90.350999999999985
 31
0.0
  0
LINE
  5
163
  8
0
 62
     7
 10
146.43199999999999
 20
90.350999999999985
 30
0.0
 11
146.42500000000001
 21
91.110900000000001
 31
0.0
  0
LINE
  5
164
  8
0
 62
     7
 10
146.42500000000001
 20
91.110900000000001
 30
0.0
 11
146.42099999999999
 21
91.834400000000002
 31
0.0
  0
LINE
  5
165
  8
0
 62
     7
 10
146.42099999999999
 20
91.834400000000002
 30
0.0
 11
146.416
 21
92.581299999999985
 31
0.0
  0
LINE
  5
166
  8
0
 62
     7
 10
146.416
 20
92.581299999999985
 30
0.0
 11
146.411
 21
93.783699999999996
 31
0.0
  0
LINE
  5
167
  8
0
 62
     7
 10
146.411
 20
93.783699999999996
 30
0.0
 11
146.40899999999999
 21
94.632499999999993
 31
0.0
  0
LINE
  5
168
  8
0
 62
     7
 10
146.40899999999999
 20
94.632499999999993
 30
0.0
 11
146.40700000000001
 21
95.027400000000014
 31
0.0
  0
LINE
  5
169
  8
0
 62
     7
 10
146.40700000000001
 20
95.027400000000014
 30
0.0
 11
146.40600000000001
 21
96.286900000000003
 31
0.0
  0
LINE
  5
16A
  8
0
 62
     7
 10
146.40600000000001
 20
96.286900000000003
 30
0.0
 11
146.40600000000001
 21
97.157100000000014
 31
0.0
  0
LINE
  5
16B
  8
0
 62
     7
 10
146.40600000000001
 20
97.157100000000014
 30
0.0
 11
146.40600000000001
 21
99.548699999999997
 31
0.0
  0
LINE
  5
16C
  8
0
 62
     7
 10
146.40600000000001
 20
99.548699999999997
 30
0.0
 11
146.40600000000001
 21
102.542
 31
0.0
  0
LINE
  5
16D
  8
0
 62
     7
 10
139.00700000000001
 20
102.542
 30
0.0
 11
139.00700000000001
 21
97.738000000000014
 31
0.0
  0
LINE
  5
16E
  8
0
 62
     7
 10
139.00700000000001
 20
97.738000000000014
 30
0.0
 11
139.00700000000001
 21
97.566400000000002
 31
0.0
  0
LINE
  5
16F
  8
0
 62
     7
 10
139.00700000000001
 20
97.566400000000002
 30
0.0
 11
139.00700000000001
 21
97.394800000000004
 31
0.0
  0
LINE
  5
170
  8
0
 62
     7
 10
139.00700000000001
 20
97.394800000000004
 30
0.0
 11
139.00700000000001
 21
97.097899999999996
 31
0.0
  0
LINE
  5
171
  8
0
 62
     7
 10
139.00700000000001
 20
97.097899999999996
 30
0.0
 11
139.00700000000001
 21
96.770600000000002
 31
0.0
  0
LINE
  5
172
  8
0
 62
     7
 10
139.00700000000001
 20
96.770600000000002
 30
0.0
 11
139.00700000000001
 21
96.558400000000006
 31
0.0
  0
LINE
  5
173
  8
0
 62
     7
 10
139.00700000000001
 20
96.558400000000006
 30
0.0
 11
139.00700000000001
 21
96.315100000000001
 31
0.0
  0
LINE
  5
174
  8
0
 62
     7
 10
139.00700000000001
 20
96.315100000000001
 30
0.0
 11
139.00700000000001
 21
95.987899999999996
 31
0.0
  0
LINE
  5
175
  8
0
 62
     7
 10
139.00700000000001
 20
95.987899999999996
 30
0.0
 11
139.00700000000001
 21
95.665400000000005
 31
0.0
  0
LINE
  5
176
  8
0
 62
     7
 10
139.00700000000001
 20
95.665400000000005
 30
0.0
 11
139.00299999999999
 21
93.939400000000006
 31
0.0
  0
LINE
  5
177
  8
0
 62
     7
 10
139.00299999999999
 20
93.939400000000006
 30
0.0
 11
138.99600000000001
 21
92.298100000000005
 31
0.0
  0
LINE
  5
178
  8
0
 62
     7
 10
138.99600000000001
 20
92.298100000000005
 30
0.0
 11
138.99100000000001
 21
91.5244
 31
0.0
  0
LINE
  5
179
  8
0
 62
     7
 10
138.99100000000001
 20
91.5244
 30
0.0
 11
138.98500000000001
 21
90.781599999999997
 31
0.0
  0
LINE
  5
17A
  8
0
 62
     7
 10
138.98500000000001
 20
90.781599999999997
 30
0.0
 11
138.983
 21
90.428100000000015
 31
0.0
  0
LINE
  5
17B
  8
0
 62
     7
 10
138.983
 20
90.428100000000015
 30
0.0
 11
138.97900000000001
 21
90.085700000000003
 31
0.0
  0
LINE
  5
17C
  8
0
 62
     7
 10
138.97900000000001
 20
90.085700000000003
 30
0.0
 11
138.97800000000001
 21
89.931999999999988
 31
0.0
  0
LINE
  5
17D
  8
0
 62
     7
 10
138.97800000000001
 20
89.931999999999988
 30
0.0
 11
138.976
 21
89.754300000000015
 31
0.0
  0
LINE
  5
17E
  8
0
 62
     7
 10
146.084
 20
102.542
 30
0.0
 11
146.3829999999999
 21
102.542
 31
0.0
  0
ARC
  5
17F
  8
0
 62
     7
 10
-13462.790000000001
 20
102.427637
 30
0.0
 40
13609.17
 50
359.92938500000002
 51
0.000481
  0
LINE
  5
180
  8
0
 62
     7
 10
139.03
 20
102.542
 30
0.0
 11
139.328
 21
102.542
 31
0.0
  0
ARC
  5
181
  8
0
 62
     7
 10
13823.0
 20
102.473415
 30
0.0
 40
13683.969999999999
 50
179.99969400000001
 51
180.07043999999999
  0
LINE
  5
182
  8
0
 62
     7
 10
146.084
 20
102.542
 30
0.0
 11
139.328
 21
102.542
 31
0.0
  0
LINE
  5
183
  8
0
 62
     7
 10
146.37299999999999
 20
85.647999999999996
 30
0.0
 11
146.21199999999999
 21
84.788100000000014
 31
0.0
  0
LINE
  5
184
  8
0
 62
     7
 10
146.21199999999999
 20
84.788100000000014
 30
0.0
 11
145.804
 21
84.041200000000003
 31
0.0
  0
LINE
  5
185
  8
0
 62
     7
 10
145.804
 20
84.041200000000003
 30
0.0
 11
145.10599999999999
 21
83.348100000000002
 31
0.0
  0
LINE
  5
186
  8
0
 62
     7
 10
145.10599999999999
 20
83.348100000000002
 30
0.0
 11
144.62299999999999
 21
83.0428
 31
0.0
  0
LINE
  5
187
  8
0
 62
     7
 10
144.62299999999999
 20
83.0428
 30
0.0
 11
144.09899999999999
 21
82.814099999999996
 31
0.0
  0
LINE
  5
188
  8
0
 62
     7
 10
144.09899999999999
 20
82.814099999999996
 30
0.0
 11
143.49299999999999
 21
82.654200000000003
 31
0.0
  0
LINE
  5
189
  8
0
 62
     7
 10
143.49299999999999
 20
82.654200000000003
 30
0.0
 11
142.869
 21
82.586699999999993
 31
0.0
  0
LINE
  5
18A
  8
0
 62
     7
 10
142.869
 20
82.586699999999993
 30
0.0
 11
142.17599999999999
 21
82.614900000000006
 31
0.0
  0
LINE
  5
18B
  8
0
 62
     7
 10
142.17599999999999
 20
82.614900000000006
 30
0.0
 11
141.49799999999999
 21
82.754099999999994
 31
0.0
  0
LINE
  5
18C
  8
0
 62
     7
 10
141.49799999999999
 20
82.754099999999994
 30
0.0
 11
140.821
 21
83.026999999999987
 31
0.0
  0
LINE
  5
18D
  8
0
 62
     7
 10
140.821
 20
83.026999999999987
 30
0.0
 11
140.21000000000001
 21
83.422499999999985
 31
0.0
  0
LINE
  5
18E
  8
0
 62
     7
 10
140.21000000000001
 20
83.422499999999985
 30
0.0
 11
139.745
 21
83.872399999999999
 31
0.0
  0
LINE
  5
18F
  8
0
 62
     7
 10
139.745
 20
83.872399999999999
 30
0.0
 11
139.376
 21
84.403699999999986
 31
0.0
  0
LINE
  5
190
  8
0
 62
     7
 10
139.376
 20
84.403699999999986
 30
0.0
 11
139.07599999999999
 21
85.244900000000001
 31
0.0
  0
LINE
  5
191
  8
0
 62
     7
 10
139.07599999999999
 20
85.244900000000001
 30
0.0
 11
139.03999999999999
 21
85.647999999999996
 31
0.0
  0
LINE
  5
192
  8
0
 62
     7
 10
146.434
 20
197.935
 30
0.0
 11
146.43000000000001
 21
197.50299999999999
 31
0.0
  0
ARC
  5
193
  8
0
  6
AIGENLINE001
 62
     7
 10
142.67575199999999
 20
204.20864599999999
 30
0.0
 40
0.8439250000000002
 50
2.104884999999999
 51
87.895105000000001
  0
ARC
  5
194
  8
0
  6
AIGENLINE001
 62
     7
 10
142.67541299999999
 20
204.27062000000001
 30
0.0
 40
0.8442620000000001
 50
272.12705499999998
 51
357.89724799999999
  0
ARC
  5
195
  8
0
  6
AIGENLINE001
 62
     7
 10
142.73776799999999
 20
204.27030600000001
 30
0.0
 40
0.843936
 50
182.08221900000001
 51
267.89351799999997
  0
ARC
  5
196
  8
0
  6
AIGENLINE001
 62
     7
 10
142.73773399999999
 20
204.20865699999999
 30
0.0
 40
0.8439140000000001
 50
92.104212000000004
 51
177.895759
  0
ARC
  5
197
  8
0
  6
AIGENLINE001
 62
     7
 10
142.67575199999999
 20
196.70862600000001
 30
0.0
 40
0.8439250000000002
 50
2.104884999999999
 51
87.895105000000001
  0
ARC
  5
198
  8
0
  6
AIGENLINE001
 62
     7
 10
142.67541299999999
 20
196.7706
 30
0.0
 40
0.8442620000000001
 50
272.12705499999998
 51
357.89724799999999
  0
ARC
  5
199
  8
0
  6
AIGENLINE001
 62
     7
 10
142.73776799999999
 20
196.770286
 30
0.0
 40
0.843936
 50
182.08221900000001
 51
267.89351799999997
  0
ARC
  5
19A
  8
0
  6
AIGENLINE001
 62
     7
 10
142.73773399999999
 20
196.70863600000001
 30
0.0
 40
0.8439140000000001
 50
92.104212000000004
 51
177.895759
  0
LINE
  5
19B
  8
0
  6
AIGENLINE002
 62
     7
 10
142.70699999999999
 20
203.09399999999999
 30
0.0
 11
142.70699999999999
 21
205.38499999999999
 31
0.0
  0
LINE
  5
19C
  8
0
  6
AIGENLINE002
 62
     7
 10
141.56200000000001
 20
204.24000000000001
 30
0.0
 11
143.852
 21
204.24000000000001
 31
0.0
  0
LINE
  5
19D
  8
0
  6
AIGENLINE002
 62
     7
 10
142.70699999999999
 20
195.59399999999999
 30
0.0
 11
142.70699999999999
 21
197.88499999999999
 31
0.0
  0
LINE
  5
19E
  8
0
  6
AIGENLINE002
 62
     7
 10
141.56200000000001
 20
196.74000000000001
 30
0.0
 11
143.852
 21
196.74000000000001
 31
0.0
  0
ARC
  5
19F
  8
0
  6
AIGENLINE001
 62
     7
 10
142.67575199999999
 20
91.250141999999997
 30
0.0
 40
0.8439250000000002
 50
2.104884999999999
 51
87.895105000000001
  0
ARC
  5
1A0
  8
0
  6
AIGENLINE001
 62
     7
 10
142.67575199999999
 20
91.312134
 30
0.0
 40
0.8439250000000002
 50
272.104895
 51
357.89511499999998
  0
ARC
  5
1A1
  8
0
  6
AIGENLINE001
 62
     7
 10
142.73774399999999
 20
91.312134
 30
0.0
 40
0.8439239999999999
 50
182.1048879999999
 51
267.89514200000002
  0
ARC
  5
1A2
  8
0
  6
AIGENLINE001
 62
     7
 10
142.73774399999999
 20
91.250141999999997
 30
0.0
 40
0.8439239999999999
 50
92.104857999999993
 51
177.89511200000001
  0
ARC
  5
1A3
  8
0
  6
AIGENLINE001
 62
     7
 10
142.67575199999999
 20
83.749776999999995
 30
0.0
 40
0.8439250000000002
 50
2.104884999999999
 51
87.895105000000001
  0
ARC
  5
1A4
  8
0
  6
AIGENLINE001
 62
     7
 10
142.67575199999999
 20
83.811769999999996
 30
0.0
 40
0.8439250000000002
 50
272.104895
 51
357.89511499999998
  0
ARC
  5
1A5
  8
0
  6
AIGENLINE001
 62
     7
 10
142.73774399999999
 20
83.811768999999984
 30
0.0
 40
0.8439239999999999
 50
182.1048879999999
 51
267.89514200000002
  0
ARC
  5
1A6
  8
0
  6
AIGENLINE001
 62
     7
 10
142.73774399999999
 20
83.749776999999995
 30
0.0
 40
0.8439239999999999
 50
92.104857999999993
 51
177.89511200000001
  0
LINE
  5
1A7
  8
0
  6
AIGENLINE002
 62
     7
 10
142.70699999999999
 20
90.136000000000024
 30
0.0
 11
142.70699999999999
 21
92.426299999999998
 31
0.0
  0
LINE
  5
1A8
  8
0
  6
AIGENLINE002
 62
     7
 10
141.56200000000001
 20
91.281099999999995
 30
0.0
 11
143.852
 21
91.281099999999995
 31
0.0
  0
LINE
  5
1A9
  8
0
  6
AIGENLINE002
 62
     7
 10
142.70699999999999
 20
82.635599999999997
 30
0.0
 11
142.70699999999999
 21
84.925899999999984
 31
0.0
  0
LINE
  5
1AA
  8
0
  6
AIGENLINE002
 62
     7
 10
141.56200000000001
 20
83.780799999999999
 30
0.0
 11
143.852
 21
83.780799999999999
 31
0.0
  0
LINE
  5
1AB
  8
0
 62
     7
 10
77.392300000000006
 20
204.76499999999999
 30
0.0
 11
77.815399999999997
 21
203.715
 31
0.0
  0
LINE
  5
1AC
  8
0
 62
     7
 10
77.990399999999994
 20
204.76499999999999
 30
0.0
 11
78.413499999999999
 21
203.715
 31
0.0
  0
LINE
  5
1AD
  8
0
 62
     7
 10
78.589200000000005
 20
204.76499999999999
 30
0.0
 11
79.011499999999998
 21
203.715
 31
0.0
  0
LINE
  5
1AE
  8
0
 62
     7
 10
79.187200000000004
 20
204.76499999999999
 30
0.0
 11
79.610299999999995
 21
203.715
 31
0.0
  0
LINE
  5
1AF
  8
0
 62
     7
 10
79.785300000000007
 20
204.76499999999999
 30
0.0
 11
80.208399999999983
 21
203.715
 31
0.0
  0
LINE
  5
1B0
  8
0
 62
     7
 10
80.383399999999995
 20
204.76499999999999
 30
0.0
 11
80.806399999999996
 21
203.715
 31
0.0
  0
LINE
  5
1B1
  8
0
 62
     7
 10
80.982099999999988
 20
204.76499999999999
 30
0.0
 11
81.404499999999985
 21
203.715
 31
0.0
  0
LINE
  5
1B2
  8
0
 62
     7
 10
81.580200000000005
 20
204.76499999999999
 30
0.0
 11
82.003299999999996
 21
203.715
 31
0.0
  0
LINE
  5
1B3
  8
0
 62
     7
 10
86.365499999999983
 20
204.76499999999999
 30
0.0
 11
86.788499999999999
 21
203.715
 31
0.0
  0
LINE
  5
1B4
  8
0
 62
     7
 10
85.7667
 20
204.76499999999999
 30
0.0
 11
86.190499999999986
 21
203.715
 31
0.0
  0
LINE
  5
1B5
  8
0
 62
     7
 10
85.168599999999984
 20
204.76499999999999
 30
0.0
 11
85.591699999999989
 21
203.715
 31
0.0
  0
LINE
  5
1B6
  8
0
 62
     7
 10
84.570599999999999
 20
204.76499999999999
 30
0.0
 11
84.993600000000015
 21
203.715
 31
0.0
  0
LINE
  5
1B7
  8
0
 62
     7
 10
83.972499999999997
 20
204.76499999999999
 30
0.0
 11
84.395600000000002
 21
203.715
 31
0.0
  0
LINE
  5
1B8
  8
0
 62
     7
 10
83.374399999999994
 20
204.76499999999999
 30
0.0
 11
83.797499999999985
 21
203.715
 31
0.0
  0
LINE
  5
1B9
  8
0
 62
     7
 10
82.178299999999993
 20
204.76499999999999
 30
0.0
 11
82.601299999999995
 21
203.715
 31
0.0
  0
LINE
  5
1BA
  8
0
 62
     7
 10
82.776300000000006
 20
204.76499999999999
 30
0.0
 11
83.199399999999997
 21
203.715
 31
0.0
  0
LINE
  5
1BB
  8
0
 62
     7
 10
77.525300000000001
 20
204.49000000000001
 30
0.0
 11
76.909999999999997
 21
204.24000000000001
 31
0.0
  0
LINE
  5
1BC
  8
0
 62
     7
 10
77.525300000000001
 20
203.988
 30
0.0
 11
76.909999999999997
 21
204.24000000000001
 31
0.0
  0
LINE
  5
1BD
  8
0
 62
     7
 10
77.525300000000001
 20
203.988
 30
0.0
 11
86.910499999999999
 21
203.988
 31
0.0
  0
LINE
  5
1BE
  8
0
 62
     7
 10
77.525300000000001
 20
204.49000000000001
 30
0.0
 11
86.910499999999999
 21
204.49000000000001
 31
0.0
  0
LINE
  5
1BF
  8
0
  6
AIGENLINE002
 62
     7
 10
75.866799999999998
 20
204.24000000000001
 30
0.0
 11
88.214799999999997
 21
204.24000000000001
 31
0.0
  0
LINE
  5
1C0
  8
0
 62
     7
 10
77.392300000000006
 20
197.26499999999999
 30
0.0
 11
77.815399999999997
 21
196.215
 31
0.0
  0
LINE
  5
1C1
  8
0
 62
     7
 10
77.990399999999994
 20
197.26499999999999
 30
0.0
 11
78.413499999999999
 21
196.215
 31
0.0
  0
LINE
  5
1C2
  8
0
 62
     7
 10
78.589200000000005
 20
197.26499999999999
 30
0.0
 11
79.011499999999998
 21
196.215
 31
0.0
  0
LINE
  5
1C3
  8
0
 62
     7
 10
79.187200000000004
 20
197.26499999999999
 30
0.0
 11
79.610299999999995
 21
196.215
 31
0.0
  0
LINE
  5
1C4
  8
0
 62
     7
 10
79.785300000000007
 20
197.26499999999999
 30
0.0
 11
80.208399999999983
 21
196.215
 31
0.0
  0
LINE
  5
1C5
  8
0
 62
     7
 10
80.383399999999995
 20
197.26499999999999
 30
0.0
 11
80.806399999999996
 21
196.215
 31
0.0
  0
LINE
  5
1C6
  8
0
 62
     7
 10
80.982099999999988
 20
197.26499999999999
 30
0.0
 11
81.404499999999985
 21
196.215
 31
0.0
  0
LINE
  5
1C7
  8
0
 62
     7
 10
81.580200000000005
 20
197.26499999999999
 30
0.0
 11
82.003299999999996
 21
196.215
 31
0.0
  0
LINE
  5
1C8
  8
0
 62
     7
 10
86.365499999999983
 20
197.26499999999999
 30
0.0
 11
86.788499999999999
 21
196.215
 31
0.0
  0
LINE
  5
1C9
  8
0
 62
     7
 10
85.7667
 20
197.26499999999999
 30
0.0
 11
86.190499999999986
 21
196.215
 31
0.0
  0
LINE
  5
1CA
  8
0
 62
     7
 10
85.168599999999984
 20
197.26499999999999
 30
0.0
 11
85.591699999999989
 21
196.215
 31
0.0
  0
LINE
  5
1CB
  8
0
 62
     7
 10
84.570599999999999
 20
197.26499999999999
 30
0.0
 11
84.993600000000015
 21
196.215
 31
0.0
  0
LINE
  5
1CC
  8
0
 62
     7
 10
83.972499999999997
 20
197.26499999999999
 30
0.0
 11
84.395600000000002
 21
196.215
 31
0.0
  0
LINE
  5
1CD
  8
0
 62
     7
 10
83.374399999999994
 20
197.26499999999999
 30
0.0
 11
83.797499999999985
 21
196.215
 31
0.0
  0
LINE
  5
1CE
  8
0
 62
     7
 10
82.178299999999993
 20
197.26499999999999
 30
0.0
 11
82.601299999999995
 21
196.215
 31
0.0
  0
LINE
  5
1CF
  8
0
 62
     7
 10
82.776300000000006
 20
197.26499999999999
 30
0.0
 11
83.199399999999997
 21
196.215
 31
0.0
  0
LINE
  5
1D0
  8
0
 62
     7
 10
77.525300000000001
 20
196.99000000000001
 30
0.0
 11
76.909999999999997
 21
196.74000000000001
 31
0.0
  0
LINE
  5
1D1
  8
0
 62
     7
 10
77.525300000000001
 20
196.488
 30
0.0
 11
76.909999999999997
 21
196.74000000000001
 31
0.0
  0
LINE
  5
1D2
  8
0
 62
     7
 10
77.525300000000001
 20
196.488
 30
0.0
 11
86.910499999999999
 21
196.488
 31
0.0
  0
LINE
  5
1D3
  8
0
 62
     7
 10
77.525300000000001
 20
196.99000000000001
 30
0.0
 11
86.910499999999999
 21
196.99000000000001
 31
0.0
  0
LINE
  5
1D4
  8
0
  6
AIGENLINE002
 62
     7
 10
75.866799999999998
 20
196.74000000000001
 30
0.0
 11
88.214799999999997
 21
196.74000000000001
 31
0.0
  0
LINE
  5
1D5
  8
0
 62
     7
 10
81.228099999999984
 20
206.63399999999999
 30
0.0
 11
79.907899999999998
 21
204.76499999999999
 31
0.0
  0
LINE
  5
1D6
  8
0
 62
     7
 10
79.907899999999998
 20
204.76499999999999
 30
0.0
 11
80.116699999999994
 21
207.04400000000001
 31
0.0
  0
LINE
  5
1D7
  8
0
 62
     7
 10
80.116699999999994
 20
207.04400000000001
 30
0.0
 11
81.228099999999984
 21
206.63399999999999
 31
0.0
  0
LINE
  5
1D8
  8
0
 62
     7
 10
79.907899999999998
 20
204.76499999999999
 30
0.0
 11
86.156699999999987
 21
222.352
 31
0.0
  0
LINE
  5
1D9
  8
0
 62
     7
 10
43.088799999999999
 20
222.352
 30
0.0
 11
86.156699999999987
 21
222.352
 31
0.0
  0
LINE
  5
1DA
  8
0
 62
     7
 10
71.072800000000001
 20
83.970299999999995
 30
0.0
 11
70.480199999999996
 21
81.759900000000002
 31
0.0
  0
LINE
  5
1DB
  8
0
 62
     7
 10
70.480199999999996
 20
81.759900000000002
 30
0.0
 11
69.887600000000006
 21
83.970299999999995
 31
0.0
  0
LINE
  5
1DC
  8
0
 62
     7
 10
69.887600000000006
 20
83.970299999999995
 30
0.0
 11
71.072800000000001
 21
83.970299999999995
 31
0.0
  0
LINE
  5
1DD
  8
0
 62
     7
 10
69.895200000000003
 20
91.091000000000008
 30
0.0
 11
70.487099999999984
 21
93.302000000000007
 31
0.0
  0
LINE
  5
1DE
  8
0
 62
     7
 10
70.487099999999984
 20
93.302000000000007
 30
0.0
 11
71.079700000000003
 21
91.091000000000008
 31
0.0
  0
LINE
  5
1DF
  8
0
 62
     7
 10
71.079700000000003
 20
91.091000000000008
 30
0.0
 11
69.895200000000003
 21
91.091000000000008
 31
0.0
  0
LINE
  5
1E0
  8
0
 62
     7
 10
86.210400000000007
 20
93.302000000000007
 30
0.0
 11
69.787099999999995
 21
93.302000000000007
 31
0.0
  0
LINE
  5
1E1
  8
0
 62
     7
 10
70.480199999999996
 20
81.759900000000002
 30
0.0
 11
70.480199999999996
 21
93.302000000000007
 31
0.0
  0
LINE
  5
1E2
  8
0
 62
     7
 10
62.699800000000003
 20
85.991499999999988
 30
0.0
 11
62.107199999999999
 21
83.781099999999995
 31
0.0
  0
LINE
  5
1E3
  8
0
 62
     7
 10
62.107199999999999
 20
83.781099999999995
 30
0.0
 11
61.514600000000002
 21
85.991499999999988
 31
0.0
  0
LINE
  5
1E4
  8
0
 62
     7
 10
61.514600000000002
 20
85.991499999999988
 30
0.0
 11
62.699800000000003
 21
85.991499999999988
 31
0.0
  0
LINE
  5
1E5
  8
0
 62
     7
 10
61.529800000000002
 20
89.070099999999996
 30
0.0
 11
62.121699999999997
 21
91.281099999999995
 31
0.0
  0
LINE
  5
1E6
  8
0
 62
     7
 10
62.121699999999997
 20
91.281099999999995
 30
0.0
 11
62.714199999999991
 21
89.070099999999996
 31
0.0
  0
LINE
  5
1E7
  8
0
 62
     7
 10
62.714199999999991
 20
89.070099999999996
 30
0.0
 11
61.529800000000002
 21
89.070099999999996
 31
0.0
  0
LINE
  5
1E8
  8
0
 62
     7
 10
75.166799999999995
 20
83.781099999999995
 30
0.0
 11
61.421599999999998
 21
83.781099999999995
 31
0.0
  0
LINE
  5
1E9
  8
0
 62
     7
 10
75.166799999999995
 20
91.281099999999995
 30
0.0
 11
61.421599999999998
 21
91.281099999999995
 31
0.0
  0
LINE
  5
1EA
  8
0
 62
     7
 10
62.714199999999991
 20
93.491499999999988
 30
0.0
 11
62.121699999999997
 21
91.281099999999995
 31
0.0
  0
LINE
  5
1EB
  8
0
 62
     7
 10
62.121699999999997
 20
91.281099999999995
 30
0.0
 11
61.5291
 21
93.491499999999988
 31
0.0
  0
LINE
  5
1EC
  8
0
 62
     7
 10
61.5291
 20
93.491499999999988
 30
0.0
 11
62.714199999999991
 21
93.491499999999988
 31
0.0
  0
LINE
  5
1ED
  8
0
 62
     7
 10
62.699800000000003
 20
198.9499999999999
 30
0.0
 11
62.107199999999999
 21
196.74000000000001
 31
0.0
  0
LINE
  5
1EE
  8
0
 62
     7
 10
62.107199999999999
 20
196.74000000000001
 30
0.0
 11
61.514600000000002
 21
198.9499999999999
 31
0.0
  0
LINE
  5
1EF
  8
0
 62
     7
 10
61.514600000000002
 20
198.9499999999999
 30
0.0
 11
62.699800000000003
 21
198.9499999999999
 31
0.0
  0
LINE
  5
1F0
  8
0
 62
     7
 10
61.515300000000011
 20
194.529
 30
0.0
 11
62.107199999999999
 21
196.74000000000001
 31
0.0
  0
LINE
  5
1F1
  8
0
 62
     7
 10
62.107199999999999
 20
196.74000000000001
 30
0.0
 11
62.699800000000003
 21
194.529
 31
0.0
  0
LINE
  5
1F2
  8
0
 62
     7
 10
62.699800000000003
 20
194.529
 30
0.0
 11
61.515300000000011
 21
194.529
 31
0.0
  0
LINE
  5
1F3
  8
0
 62
     7
 10
61.529800000000002
 20
202.029
 30
0.0
 11
62.121699999999997
 21
204.24000000000001
 31
0.0
  0
LINE
  5
1F4
  8
0
 62
     7
 10
62.121699999999997
 20
204.24000000000001
 30
0.0
 11
62.714199999999991
 21
202.029
 31
0.0
  0
LINE
  5
1F5
  8
0
 62
     7
 10
62.714199999999991
 20
202.029
 30
0.0
 11
61.529800000000002
 21
202.029
 31
0.0
  0
LINE
  5
1F6
  8
0
 62
     7
 10
62.114800000000002
 20
83.781099999999995
 30
0.0
 11
62.114800000000002
 21
204.24000000000001
 31
0.0
  0
LINE
  5
1F7
  8
0
 62
     7
 10
51.3688
 20
204.05000000000001
 30
0.0
 11
51.961300000000001
 21
206.261
 31
0.0
  0
LINE
  5
1F8
  8
0
 62
     7
 10
51.961300000000001
 20
206.261
 30
0.0
 11
52.553899999999999
 21
204.05000000000001
 31
0.0
  0
LINE
  5
1F9
  8
0
 62
     7
 10
52.553899999999999
 20
204.05000000000001
 30
0.0
 11
51.3688
 21
204.05000000000001
 31
0.0
  0
LINE
  5
1FA
  8
0
 62
     7
 10
52.538699999999999
 20
83.9709
 30
0.0
 11
51.946899999999999
 21
81.759900000000002
 31
0.0
  0
LINE
  5
1FB
  8
0
 62
     7
 10
51.946899999999999
 20
81.759900000000002
 30
0.0
 11
51.354300000000002
 21
83.9709
 31
0.0
  0
LINE
  5
1FC
  8
0
 62
     7
 10
51.354300000000002
 20
83.9709
 30
0.0
 11
52.538699999999999
 21
83.9709
 31
0.0
  0
LINE
  5
1FD
  8
0
 62
     7
 10
51.953699999999998
 20
206.261
 30
0.0
 11
51.953699999999998
 21
81.759900000000002
 31
0.0
  0
LINE
  5
1FE
  8
0
 62
     7
 10
86.210400000000007
 20
206.261
 30
0.0
 11
51.2468
 21
206.261
 31
0.0
  0
LINE
  5
1FF
  8
0
 62
     7
 10
86.210400000000007
 20
81.759900000000002
 30
0.0
 11
51.2468
 21
81.759900000000002
 31
0.0
  0
LINE
  5
200
  8
0
 62
     7
 10
75.166799999999995
 20
196.74000000000001
 30
0.0
 11
61.421599999999998
 21
196.74000000000001
 31
0.0
  0
LINE
  5
201
  8
0
 62
     7
 10
75.166799999999995
 20
204.24000000000001
 30
0.0
 11
61.421599999999998
 21
204.24000000000001
 31
0.0
  0
LINE
  5
202
  8
0
 62
     7
 10
144.37100000000001
 20
211.43199999999999
 30
0.0
 11
146.58199999999999
 21
212.02500000000001
 31
0.0
  0
LINE
  5
203
  8
0
 62
     7
 10
146.58199999999999
 20
212.02500000000001
 30
0.0
 11
144.37100000000001
 21
212.61699999999999
 31
0.0
  0
LINE
  5
204
  8
0
 62
     7
 10
144.37100000000001
 20
212.61699999999999
 30
0.0
 11
144.37100000000001
 21
211.43199999999999
 31
0.0
  0
LINE
  5
205
  8
0
 62
     7
 10
141.04300000000001
 20
212.602
 30
0.0
 11
138.83199999999999
 21
212.00999999999999
 31
0.0
  0
LINE
  5
206
  8
0
 62
     7
 10
138.83199999999999
 20
212.00999999999999
 30
0.0
 11
141.04300000000001
 21
211.41800000000001
 31
0.0
  0
LINE
  5
207
  8
0
 62
     7
 10
141.04300000000001
 20
211.41800000000001
 30
0.0
 11
141.04300000000001
 21
212.602
 31
0.0
  0
LINE
  5
208
  8
0
 62
     7
 10
146.58199999999999
 20
212.017
 30
0.0
 11
138.83199999999999
 21
212.017
 31
0.0
  0
LINE
  5
209
  8
0
 62
     7
 10
138.83199999999999
 20
212.72499999999999
 30
0.0
 11
138.83199999999999
 21
204.11600000000001
 31
0.0
  0
LINE
  5
20A
  8
0
 62
     7
 10
146.58199999999999
 20
212.72499999999999
 30
0.0
 11
146.58199999999999
 21
204.11600000000001
 31
0.0
  0
LINE
  5
20B
  8
0
 62
     7
 10
89.120900000000006
 20
211.447
 30
0.0
 11
86.910499999999999
 21
212.03899999999999
 31
0.0
  0
LINE
  5
20C
  8
0
 62
     7
 10
86.910499999999999
 20
212.03899999999999
 30
0.0
 11
89.120900000000006
 21
212.63200000000001
 31
0.0
  0
LINE
  5
20D
  8
0
 62
     7
 10
89.120900000000006
 20
212.63200000000001
 30
0.0
 11
89.120900000000006
 21
211.447
 31
0.0
  0
LINE
  5
20E
  8
0
 62
     7
 10
107.19499999999999
 20
212.61699999999999
 30
0.0
 11
109.40600000000001
 21
212.02500000000001
 31
0.0
  0
LINE
  5
20F
  8
0
 62
     7
 10
109.40600000000001
 20
212.02500000000001
 30
0.0
 11
107.19499999999999
 21
211.43199999999999
 31
0.0
  0
LINE
  5
210
  8
0
 62
     7
 10
107.19499999999999
 20
211.43199999999999
 30
0.0
 11
107.19499999999999
 21
212.61699999999999
 31
0.0
  0
LINE
  5
211
  8
0
 62
     7
 10
86.910499999999999
 20
212.03200000000001
 30
0.0
 11
109.40600000000001
 21
212.03200000000001
 31
0.0
  0
LINE
  5
212
  8
0
 62
     7
 10
86.910499999999999
 20
212.72499999999999
 30
0.0
 11
86.910499999999999
 21
206.96100000000001
 31
0.0
  0
LINE
  5
213
  8
0
 62
     7
 10
109.40600000000001
 20
212.72499999999999
 30
0.0
 11
109.40600000000001
 21
206.15000000000001
 31
0.0
  0
TEXT
  5
214
  8
_________2
 62
     7
 10
140.12563750000001
 20
30.627400000000002
 30
0.0
 40
3.9357000000000002
  1
GE450745S
 41
0.5
 72
     1
 11
148.489
 21
30.627400000000002
 31
0.0
  0
TEXT
  5
215
  8
_________2
 62
     7
 10
140.12563750000001
 20
20.6266
 30
0.0
 40
3.9357000000000002
  1
GE450745S
 41
0.5
 72
     1
 11
148.489
 21
20.6266
 31
0.0
  0
LINE
  5
216
  8
_________2
 62
     7
 10
210.24000000000001
 20
148.93100000000001
 30
0.0
 11
188.49000000000001
 21
148.93100000000001
 31
0.0
  0
LINE
  5
217
  8
_________2
 62
     7
 10
105.239
 20
17.4282
 30
0.0
 11
105.239
 21
0.4482100000000001
 31
0.0
  0
LINE
  5
218
  8
_________2
 62
     7
 10
105.239
 20
297.44999999999999
 30
0.0
 11
105.239
 21
280.43000000000001
 31
0.0
  0
LINE
  5
219
  8
_________2
 62
     7
 10
21.988499999999998
 20
148.93100000000001
 30
0.0
 11
0.238058
 21
148.93100000000001
 31
0.0
  0
LINE
  5
21A
  8
_________2
 62
     7
 10
81.679900000000004
 20
51.323999999999998
 30
0.0
 11
79.493700000000004
 21
51.323999999999998
 31
0.0
  0
LINE
  5
21B
  8
_________2
 62
     7
 10
82.172600000000017
 20
51.323999999999998
 30
0.0
 11
81.920400000000001
 21
51.323999999999998
 31
0.0
  0
LINE
  5
21C
  8
_________2
 62
     7
 10
82.665199999999984
 20
51.323999999999998
 30
0.0
 11
85.590100000000007
 21
51.323999999999998
 31
0.0
  0
LINE
  5
21D
  8
_________2
 62
     7
 10
82.172600000000017
 20
51.323999999999998
 30
0.0
 11
82.424800000000005
 21
51.323999999999998
 31
0.0
  0
LINE
  5
21E
  8
_________2
 62
     7
 10
75.776399999999995
 20
51.323999999999998
 30
0.0
 11
73.589399999999998
 21
51.323999999999998
 31
0.0
  0
LINE
  5
21F
  8
_________2
 62
     7
 10
76.2684
 20
51.323999999999998
 30
0.0
 11
76.016900000000007
 21
51.323999999999998
 31
0.0
  0
LINE
  5
220
  8
_________2
 62
     7
 10
76.2684
 20
51.816600000000001
 30
0.0
 11
76.2684
 21
54.003599999999999
 31
0.0
  0
LINE
  5
221
  8
_________2
 62
     7
 10
76.2684
 20
51.323999999999998
 30
0.0
 11
76.2684
 21
51.576500000000003
 31
0.0
  0
LINE
  5
222
  8
_________2
 62
     7
 10
76.76100000000001
 20
51.323999999999998
 30
0.0
 11
78.947999999999993
 21
51.323999999999998
 31
0.0
  0
LINE
  5
223
  8
_________2
 62
     7
 10
76.2684
 20
51.323999999999998
 30
0.0
 11
76.520499999999998
 21
51.323999999999998
 31
0.0
  0
LINE
  5
224
  8
_________2
 62
     7
 10
76.2684
 20
50.832000000000001
 30
0.0
 11
76.2684
 21
48.645400000000002
 31
0.0
  0
LINE
  5
225
  8
_________2
 62
     7
 10
76.2684
 20
51.323999999999998
 30
0.0
 11
76.2684
 21
51.072499999999998
 31
0.0
  0
LINE
  5
226
  8
_________2
 62
     7
 10
79.979399999999984
 20
50.104399999999998
 30
0.0
 11
85.157399999999996
 21
49.239699999999999
 31
0.0
  0
LINE
  5
227
  8
_________2
 62
     7
 10
79.979399999999984
 20
52.543900000000001
 30
0.0
 11
85.157399999999996
 21
53.409300000000002
 31
0.0
  0
LINE
  5
228
  8
_________2
 62
     7
 10
85.157399999999996
 20
49.239699999999999
 30
0.0
 11
85.157399999999996
 21
53.409300000000002
 31
0.0
  0
LINE
  5
229
  8
_________2
 62
     7
 10
79.979399999999984
 20
50.104399999999998
 30
0.0
 11
79.979399999999984
 21
52.543900000000001
 31
0.0
  0
ARC
  5
22A
  8
_________2
 62
     7
 10
76.221766000000002
 20
51.277037
 30
0.0
 40
1.267714
 50
2.1220840000000001
 51
87.894083999999992
  0
ARC
  5
22B
  8
_________2
 62
     7
 10
76.315297000000001
 20
51.277389999999997
 30
0.0
 40
1.267374999999999
 50
92.122849999999985
 51
177.893304
  0
ARC
  5
22C
  8
_________2
 62
     7
 10
76.315273000000005
 20
51.370902000000001
 30
0.0
 40
1.267363
 50
182.121815
 51
267.87821400000001
  0
ARC
  5
22D
  8
_________2
 62
     7
 10
76.221461000000005
 20
51.371583999999999
 30
0.0
 40
1.2680439999999991
 50
272.11916400000001
 51
357.84848499999998
  0
ARC
  5
22E
  8
_________2
 62
     7
 10
76.187981999999991
 20
51.243968000000002
 30
0.0
 40
2.1668310000000002
 50
2.1161439999999989
 51
87.874379000000005
  0
ARC
  5
22F
  8
_________2
 62
     7
 10
76.348411999999996
 20
51.244990000000001
 30
0.0
 40
2.1657980000000001
 50
92.118487999999999
 51
177.909886
  0
ARC
  5
230
  8
_________2
 62
     7
 10
76.348354
 20
51.403983000000011
 30
0.0
 40
2.1657779999999991
 50
182.11700400000001
 51
267.88302499999998
  0
ARC
  5
231
  8
_________2
 62
     7
 10
76.188378999999983
 20
51.404665999999992
 30
0.0
 40
2.1664590000000001
 50
272.11546800000002
 51
357.86560400000002
  0
TEXT
  5
232
  8
_________2
 62
     7
 10
109.544
 20
23.198699999999999
 30
0.0
 40
3.0923400000000001
  1
図番
 41
0.5
  0
LINE
  5
233
  8
_________2
 62
     7
 10
108.489
 20
27.428000000000001
 30
0.0
 11
188.49000000000001
 21
27.428000000000001
 31
0.0
  0
TEXT
  5
234
  8
_________2
 62
     7
 10
109.544
 20
33.19850000000001
 30
0.0
 40
3.0923400000000001
  1
品番
 41
0.5
  0
TEXT
  5
235
  8
_________2
 62
     7
 10
109.544
 20
53.337699999999998
 30
0.0
 40
3.0923400000000001
  1
名称
 41
0.5
  0
TEXT
  5
236
  8
_________2
 62
     7
 10
96.784158333333338
 20
48.341500000000011
 30
0.0
 40
3.6545800000000002
  1
mm
 41
0.5
 72
     1
 11
98.306899999999999
 21
48.341500000000011
 31
0.0
  0
TEXT
  5
237
  8
_________2
 62
     7
 10
90.582099999999997
 20
53.337699999999998
 30
0.0
 40
3.0923400000000001
  1
単位
 41
0.5
  0
TEXT
  5
238
  8
_________2
 62
     7
 10
90.582099999999997
 20
40.930100000000003
 30
0.0
 40
3.0923400000000001
  1
尺度
 41
0.5
  0
TEXT
  5
239
  8
_________2
 62
     7
 10
95.487858666666668
 20
34.737499999999997
 30
0.0
 40
3.6545800000000002
  1
1 ： 4
 41
0.5
 72
     1
 11
98.898799999999994
 21
34.737499999999997
 31
0.0
  0
TEXT
  5
23A
  8
_________2
 62
     7
 10
114.11799999999999
 20
45.7453
 30
0.0
 40
3.9357000000000002
  1
ウィンク　タオルバー
 41
0.5
  0
TEXT
  5
23B
  8
_________2
 62
     7
 10
44.242381000000002
 20
35.122599999999998
 30
0.0
 40
3.6545800000000002
  1
中村
 41
0.5
 72
     1
 11
46.252400000000002
 21
35.122599999999998
 31
0.0
  0
TEXT
  5
23C
  8
_________2
 62
     7
 10
25.790200333333338
 20
35.122599999999998
 30
0.0
 40
3.6545800000000002
  1
福田
 41
0.5
 72
     1
 11
27.6784
 21
35.122599999999998
 31
0.0
  0
TEXT
  5
23D
  8
_________2
 62
     7
 10
72.724699999999999
 20
34.737499999999997
 30
0.0
 40
3.6545800000000002
  1
18.03.12
 41
0.5
  0
TEXT
  5
23E
  8
_________2
 62
     7
 10
71.531999999999996
 20
40.930100000000003
 30
0.0
 40
3.0923400000000001
  1
日付
 41
0.5
  0
TEXT
  5
23F
  8
_________2
 62
     7
 10
34.578299999999999
 20
40.930100000000003
 30
0.0
 40
3.0923400000000001
  1
検図
 41
0.5
  0
TEXT
  5
240
  8
_________2
 62
     7
 10
22.960000000000001
 20
26.730699999999999
 30
0.0
 40
3.0923400000000001
  1
備考
 41
0.5
  0
TEXT
  5
241
  8
_________2
 62
     7
 10
22.960000000000001
 20
40.930100000000003
 30
0.0
 40
3.0923400000000001
  1
製図
 41
0.5
  0
TEXT
  5
242
  8
_________2
 62
     7
 10
28.727365333333339
 20
49.456000000000003
 30
0.0
 40
4.4979399999999989
  1
セラトレーディング株式会社
 41
0.5
 72
     1
 11
46.119399999999992
 21
49.456000000000003
 31
0.0
  0
LINE
  5
243
  8
_________2
 62
     7
 10
188.49000000000001
 20
17.4282
 30
0.0
 11
21.988499999999998
 21
17.4282
 31
0.0
  0
LINE
  5
244
  8
_________2
 62
     7
 10
21.988499999999998
 20
17.4282
 30
0.0
 11
21.988499999999998
 21
280.43000000000001
 31
0.0
  0
LINE
  5
245
  8
_________2
 62
     7
 10
21.988499999999998
 20
280.43000000000001
 30
0.0
 11
188.49000000000001
 21
280.43000000000001
 31
0.0
  0
LINE
  5
246
  8
_________2
 62
     7
 10
188.49000000000001
 20
280.43000000000001
 30
0.0
 11
188.49000000000001
 21
17.4282
 31
0.0
  0
LINE
  5
247
  8
_________2
 62
     7
 10
70.488799999999998
 20
30.9285
 30
0.0
 11
70.488799999999998
 21
57.428400000000011
 31
0.0
  0
LINE
  5
248
  8
_________2
 62
     7
 10
89.488600000000005
 20
30.9285
 30
0.0
 11
89.488600000000005
 21
57.428400000000011
 31
0.0
  0
LINE
  5
249
  8
_________2
 62
     7
 10
108.489
 20
17.4282
 30
0.0
 11
108.489
 21
57.428400000000011
 31
0.0
  0
LINE
  5
24A
  8
_________2
 62
     7
 10
33.488300000000002
 20
30.9285
 30
0.0
 11
33.488300000000002
 21
44.928499999999993
 31
0.0
  0
LINE
  5
24B
  8
_________2
 62
     7
 10
21.988499999999998
 20
30.9285
 30
0.0
 11
108.489
 21
30.9285
 31
0.0
  0
LINE
  5
24C
  8
_________2
 62
     7
 10
21.988499999999998
 20
44.928499999999993
 30
0.0
 11
108.489
 21
44.928499999999993
 31
0.0
  0
LINE
  5
24D
  8
_________2
 62
     7
 10
108.489
 20
37.427799999999998
 30
0.0
 11
188.49000000000001
 21
37.427799999999998
 31
0.0
  0
LINE
  5
24E
  8
_________2
 62
     7
 10
21.988499999999998
 20
57.428400000000011
 30
0.0
 11
188.49000000000001
 21
57.428400000000011
 31
0.0
  0
ENDSEC
  0
EOF
