  0
SECTION
  2
HEADER
  9
$ACADVER
  1
AC1009
  9
$INSBASE
 10
0.0
 20
0.0
 30
0.0
  9
$EXTMIN
 10
0.238058
 20
0.4482100000000001
 30
0.0
  9
$EXTMAX
 10
210.24000000000001
 20
297.44999999999987
 30
0.0
  9
$LIMMIN
 10
0.0
 20
0.0
  9
$LIMMAX
 10
12.0
 20
9.0
  9
$ORTHOMODE
 70
     0
  9
$REGENMODE
 70
     1
  9
$FILLMODE
 70
     1
  9
$QTEXTMODE
 70
     0
  9
$MIRRTEXT
 70
     1
  9
$DRAGMODE
 70
     2
  9
$LTSCALE
 40
1.0
  9
$OSMODE
 70
    37
  9
$ATTMODE
 70
     1
  9
$TEXTSIZE
 40
0.0
  9
$TRACEWID
 40
0.05
  9
$TEXTSTYLE
  7
STANDARD
  9
$CLAYER
  8
0
  9
$CELTYPE
  6
CONTINUOUS
  9
$CECOLOR
 62
   256
  9
$DIMSCALE
 40
1.0
  9
$DIMASZ
 40
0.18
  9
$DIMEXO
 40
0.0625
  9
$DIMDLI
 40
0.38
  9
$DIMRND
 40
0.0
  9
$DIMDLE
 40
0.0
  9
$DIMEXE
 40
0.18
  9
$DIMTP
 40
0.0
  9
$DIMTM
 40
0.0
  9
$DIMTXT
 40
0.18
  9
$DIMCEN
 40
0.09
  9
$DIMTSZ
 40
0.0
  9
$DIMTOL
 70
     0
  9
$DIMLIM
 70
     0
  9
$DIMTIH
 70
     1
  9
$DIMTOH
 70
     1
  9
$DIMSE1
 70
     0
  9
$DIMSE2
 70
     0
  9
$DIMTAD
 70
     0
  9
$DIMZIN
 70
     0
  9
$DIMBLK
  1

  9
$DIMASO
 70
     1
  9
$DIMSHO
 70
     1
  9
$DIMPOST
  1

  9
$DIMAPOST
  1

  9
$DIMALT
 70
     0
  9
$DIMALTD
 70
     2
  9
$DIMALTF
 40
25.399999999999999
  9
$DIMLFAC
 40
1.0
  9
$DIMTOFL
 70
     0
  9
$DIMTVP
 40
0.0
  9
$DIMTIX
 70
     0
  9
$DIMSOXD
 70
     0
  9
$DIMSAH
 70
     0
  9
$DIMBLK1
  1

  9
$DIMBLK2
  1

  9
$DIMSTYLE
  2
STANDARD
  9
$DIMCLRD
 70
     0
  9
$DIMCLRE
 70
     0
  9
$DIMCLRT
 70
     0
  9
$DIMTFAC
 40
1.0
  9
$DIMGAP
 40
0.09
  9
$LUNITS
 70
     2
  9
$LUPREC
 70
     4
  9
$SKETCHINC
 40
0.1
  9
$FILLETRAD
 40
0.0
  9
$AUNITS
 70
     0
  9
$AUPREC
 70
     0
  9
$MENU
  1
.
  9
$ELEVATION
 40
0.0
  9
$PELEVATION
 40
0.0
  9
$THICKNESS
 40
0.0
  9
$LIMCHECK
 70
     0
  9
$BLIPMODE
 70
     0
  9
$CHAMFERA
 40
0.0
  9
$CHAMFERB
 40
0.0
  9
$SKPOLY
 70
     0
  9
$TDCREATE
 40
2444972.375
  9
$TDUPDATE
 40
2457079.2463386799
  9
$TDINDWG
 40
0.0000060301
  9
$TDUSRTIMER
 40
0.0000060301
  9
$USRTIMER
 70
     1
  9
$ANGBASE
 50
0.0
  9
$ANGDIR
 70
     0
  9
$PDMODE
 70
     0
  9
$PDSIZE
 40
0.0
  9
$PLINEWID
 40
0.0
  9
$COORDS
 70
     1
  9
$SPLFRAME
 70
     0
  9
$SPLINETYPE
 70
     6
  9
$SPLINESEGS
 70
     8
  9
$ATTDIA
 70
     0
  9
$ATTREQ
 70
     1
  9
$HANDLING
 70
     1
  9
$HANDSEED
  5
25F
  9
$SURFTAB1
 70
     6
  9
$SURFTAB2
 70
     6
  9
$SURFTYPE
 70
     6
  9
$SURFU
 70
     6
  9
$SURFV
 70
     6
  9
$UCSNAME
  2

  9
$UCSORG
 10
0.0
 20
0.0
 30
0.0
  9
$UCSXDIR
 10
1.0
 20
0.0
 30
0.0
  9
$UCSYDIR
 10
0.0
 20
1.0
 30
0.0
  9
$PUCSNAME
  2

  9
$PUCSORG
 10
0.0
 20
0.0
 30
0.0
  9
$PUCSXDIR
 10
1.0
 20
0.0
 30
0.0
  9
$PUCSYDIR
 10
0.0
 20
1.0
 30
0.0
  9
$USERI1
 70
     0
  9
$USERI2
 70
     0
  9
$USERI3
 70
     0
  9
$USERI4
 70
     0
  9
$USERI5
 70
     0
  9
$USERR1
 40
0.0
  9
$USERR2
 40
0.0
  9
$USERR3
 40
0.0
  9
$USERR4
 40
0.0
  9
$USERR5
 40
0.0
  9
$WORLDVIEW
 70
     1
  9
$SHADEDGE
 70
     3
  9
$SHADEDIF
 70
    70
  9
$TILEMODE
 70
     1
  9
$MAXACTVP
 70
    48
  9
$PLIMCHECK
 70
     0
  9
$PEXTMIN
 10
1.0000000000000000E+020
 20
1.0000000000000000E+020
 30
1.0000000000000000E+020
  9
$PEXTMAX
 10
-1.0000000000000000E+020
 20
-1.0000000000000000E+020
 30
-1.0000000000000000E+020
  9
$PLIMMIN
 10
0.0
 20
0.0
  9
$PLIMMAX
 10
12.0
 20
9.0
  9
$UNITMODE
 70
     0
  9
$VISRETAIN
 70
     1
  9
$PLINEGEN
 70
     0
  9
$PSLTSCALE
 70
     1
  0
ENDSEC
  0
SECTION
  2
TABLES
  0
TABLE
  2
VPORT
 70
     2
  0
VPORT
  2
*ACTIVE
 70
     0
 10
0.0
 20
0.0
 11
1.0
 21
1.0
 12
205.3110738070736
 22
148.72499999999991
 13
0.0
 23
0.0
 14
1.0
 24
1.0
 15
0.0
 25
0.0
 16
0.0
 26
0.0
 36
1.0
 17
0.0
 27
0.0
 37
0.0
 40
299.92188365650958
 41
2.2894736842105261
 42
50.0
 43
0.0
 44
0.0
 50
0.0
 51
0.0
 71
     0
 72
   100
 73
     1
 74
     1
 75
     0
 76
     0
 77
     0
 78
     0
  0
ENDTAB
  0
TABLE
  2
LTYPE
 70
     3
  0
LTYPE
  2
CONTINUOUS
 70
     0
  3
Solid line
 72
    65
 73
     0
 40
0.0
  0
LTYPE
  2
AIGENLINE001
 70
     0
  3
generate AI->DXF Converter
 72
    65
 73
     2
 40
1.5522299999999991
 49
0.776115
 49
-0.776115
  0
LTYPE
  2
AIGENLINE002
 70
     0
  3
generate AI->DXF Converter
 72
    65
 73
     4
 40
5.8561449999999988
 49
3.5278
 49
-0.776115
 49
0.776115
 49
-0.776115
  0
ENDTAB
  0
TABLE
  2
LAYER
 70
     2
  0
LAYER
  2
0
 70
     0
 62
     7
  6
CONTINUOUS
  0
LAYER
  2
_________2
 70
     0
 62
     7
  6
CONTINUOUS
  0
ENDTAB
  0
TABLE
  2
STYLE
 70
     1
  0
STYLE
  2
STANDARD
 70
     0
 40
0.0
 41
0.0
 50
0.0
 71
     0
 42
0.0
  3
TXT
  4
EXTFONT.SHX
  0
ENDTAB
  0
TABLE
  2
VIEW
 70
     0
  0
ENDTAB
  0
TABLE
  2
UCS
 70
     0
  0
ENDTAB
  0
TABLE
  2
APPID
 70
     1
  0
APPID
  2
ACAD
 70
     0
  0
ENDTAB
  0
TABLE
  2
DIMSTYLE
 70
     1
  0
DIMSTYLE
  2
STANDARD
 70
     0
  3

  4

  5

  6

  7

 40
1.0
 41
0.18
 42
0.0625
 43
0.38
 44
0.18
 45
0.0
 46
0.0
 47
0.0
 48
0.0
140
0.18
141
0.09
142
0.0
143
25.399999999999999
144
1.0
145
0.0
146
1.0
147
0.09
 71
     0
 72
     0
 73
     1
 74
     1
 75
     0
 76
     0
 77
     0
 78
     0
170
     0
171
     2
172
     0
173
     0
174
     0
175
     0
176
     0
177
     0
178
     0
  0
ENDTAB
  0
ENDSEC
  0
SECTION
  2
BLOCKS
  0
BLOCK
  8
0
  2
$MODEL_SPACE
 70
     0
 10
0.0
 20
0.0
 30
0.0
  3
$MODEL_SPACE
  1

  0
ENDBLK
  5
1A
  8
0
  0
BLOCK
 67
     1
  8
0
  2
$PAPER_SPACE
 70
     0
 10
0.0
 20
0.0
 30
0.0
  3
$PAPER_SPACE
  1

  0
ENDBLK
  5
17
 67
     1
  8
0
  0
ENDSEC
  0
SECTION
  2
ENTITIES
  0
TEXT
  5
23
  8
0
 62
     7
 10
43.001999999999988
 20
240.0259999999999
 30
0.0
 40
3.660169999999999
  1
（%%c6×35樹脂プラグ付）
 41
0.5
  0
TEXT
  5
24
  8
0
 62
     7
 10
43.001999999999988
 20
245.07099999999991
 30
0.0
 40
3.660169999999999
  1
%%c4.2×45 SUS 十字穴付丸頭タッピングネジ
 41
0.5
  0
TEXT
  5
25
  8
0
 62
     7
 10
71.813500000000005
 20
70.524029166666665
 30
0.0
 40
3.660169999999999
  1
45
 50
90.0
 41
0.5
 72
     1
 11
71.813500000000005
 21
72.049099999999996
 31
0.0
  0
TEXT
  5
26
  8
0
 62
     7
 10
63.318800000000003
 20
70.676536249999998
 30
0.0
 40
3.660169999999999
  1
30
 50
90.0
 41
0.5
 72
     1
 11
63.318800000000003
 21
72.049099999999996
 31
0.0
  0
TEXT
  5
27
  8
0
 62
     7
 10
63.318800000000003
 20
221.13543624999991
 30
0.0
 40
3.660169999999999
  1
30
 50
90.0
 41
0.5
 72
     1
 11
63.318800000000003
 21
222.5079999999999
 31
0.0
  0
TEXT
  5
28
  8
0
 62
     7
 10
63.668900000000001
 20
144.83788666666661
 30
0.0
 40
3.660169999999999
  1
572
 50
90.0
 41
0.5
 72
     1
 11
63.668900000000001
 21
147.27799999999999
 31
0.0
  0
TEXT
  5
29
  8
0
 62
     7
 10
51.1021
 20
144.83788666666661
 30
0.0
 40
3.660169999999999
  1
648
 50
90.0
 41
0.5
 72
     1
 11
51.1021
 21
147.27799999999999
 31
0.0
  0
TEXT
  5
2A
  8
0
 62
     7
 10
141.39994333333331
 20
234.73599999999999
 30
0.0
 40
3.660169999999999
  1
31
 41
0.5
 72
     1
 11
142.62
 21
234.73599999999999
 31
0.0
  0
TEXT
  5
2B
  8
0
 62
     7
 10
96.698936250000003
 20
234.75
 30
0.0
 40
3.660169999999999
  1
90
 41
0.5
 72
     1
 11
98.0715
 21
234.75
 31
0.0
  0
LINE
  5
2C
  8
0
 62
     7
 10
77.305300000000003
 20
76.324200000000005
 30
0.0
 11
77.728399999999993
 21
75.274100000000004
 31
0.0
  0
LINE
  5
2D
  8
0
 62
     7
 10
77.903400000000005
 20
76.324200000000005
 30
0.0
 11
78.326499999999996
 21
75.274100000000004
 31
0.0
  0
LINE
  5
2E
  8
0
 62
     7
 10
78.502200000000002
 20
76.324200000000005
 30
0.0
 11
78.924499999999995
 21
75.274100000000004
 31
0.0
  0
LINE
  5
2F
  8
0
 62
     7
 10
79.100200000000001
 20
76.324200000000005
 30
0.0
 11
79.523300000000006
 21
75.274100000000004
 31
0.0
  0
LINE
  5
30
  8
0
 62
     7
 10
79.698300000000003
 20
76.324200000000005
 30
0.0
 11
80.121399999999994
 21
75.274100000000004
 31
0.0
  0
LINE
  5
31
  8
0
 62
     7
 10
80.296400000000006
 20
76.324200000000005
 30
0.0
 11
80.719399999999993
 21
75.274100000000004
 31
0.0
  0
LINE
  5
32
  8
0
 62
     7
 10
80.895099999999999
 20
76.324200000000005
 30
0.0
 11
81.317499999999995
 21
75.274100000000004
 31
0.0
  0
LINE
  5
33
  8
0
 62
     7
 10
81.493200000000016
 20
76.324200000000005
 30
0.0
 11
81.916300000000007
 21
75.274100000000004
 31
0.0
  0
LINE
  5
34
  8
0
 62
     7
 10
86.278499999999994
 20
76.324200000000005
 30
0.0
 11
86.701499999999996
 21
75.274100000000004
 31
0.0
  0
LINE
  5
35
  8
0
 62
     7
 10
85.680099999999996
 20
76.324200000000005
 30
0.0
 11
86.103499999999997
 21
75.274100000000004
 31
0.0
  0
LINE
  5
36
  8
0
 62
     7
 10
85.081999999999994
 20
76.324200000000005
 30
0.0
 11
85.505099999999999
 21
75.274100000000004
 31
0.0
  0
LINE
  5
37
  8
0
 62
     7
 10
84.483900000000006
 20
76.324200000000005
 30
0.0
 11
84.907000000000025
 21
75.274100000000004
 31
0.0
  0
LINE
  5
38
  8
0
 62
     7
 10
83.885800000000003
 20
76.324200000000005
 30
0.0
 11
84.308899999999994
 21
75.274100000000004
 31
0.0
  0
LINE
  5
39
  8
0
 62
     7
 10
83.287800000000004
 20
76.324200000000005
 30
0.0
 11
83.710800000000006
 21
75.274100000000004
 31
0.0
  0
LINE
  5
3A
  8
0
 62
     7
 10
82.091300000000004
 20
76.324200000000005
 30
0.0
 11
82.514300000000006
 21
75.274100000000004
 31
0.0
  0
LINE
  5
3B
  8
0
 62
     7
 10
82.689400000000006
 20
76.324200000000005
 30
0.0
 11
83.112399999999994
 21
75.274100000000004
 31
0.0
  0
LINE
  5
3C
  8
0
 62
     7
 10
77.438699999999997
 20
76.049899999999994
 30
0.0
 11
76.823000000000008
 21
75.799099999999996
 31
0.0
  0
LINE
  5
3D
  8
0
 62
     7
 10
77.438699999999997
 20
75.548000000000002
 30
0.0
 11
76.823000000000008
 21
75.799099999999996
 31
0.0
  0
LINE
  5
3E
  8
0
 62
     7
 10
77.438699999999997
 20
75.548000000000002
 30
0.0
 11
86.823499999999996
 21
75.548000000000002
 31
0.0
  0
LINE
  5
3F
  8
0
 62
     7
 10
77.438699999999997
 20
76.049899999999994
 30
0.0
 11
86.823499999999996
 21
76.049899999999994
 31
0.0
  0
LINE
  5
40
  8
0
  6
AIGENLINE002
 62
     7
 10
75.779799999999994
 20
75.799099999999996
 30
0.0
 11
88.127799999999993
 21
75.799099999999996
 31
0.0
  0
LINE
  5
41
  8
0
 62
     7
 10
77.305300000000003
 20
68.824100000000001
 30
0.0
 11
77.728399999999993
 21
67.774100000000004
 31
0.0
  0
LINE
  5
42
  8
0
 62
     7
 10
77.903400000000005
 20
68.824100000000001
 30
0.0
 11
78.326499999999996
 21
67.774100000000004
 31
0.0
  0
LINE
  5
43
  8
0
 62
     7
 10
78.502200000000002
 20
68.824100000000001
 30
0.0
 11
78.924499999999995
 21
67.774100000000004
 31
0.0
  0
LINE
  5
44
  8
0
 62
     7
 10
79.100200000000001
 20
68.824100000000001
 30
0.0
 11
79.523300000000006
 21
67.774100000000004
 31
0.0
  0
LINE
  5
45
  8
0
 62
     7
 10
79.698300000000003
 20
68.824100000000001
 30
0.0
 11
80.121399999999994
 21
67.774100000000004
 31
0.0
  0
LINE
  5
46
  8
0
 62
     7
 10
80.296400000000006
 20
68.824100000000001
 30
0.0
 11
80.719399999999993
 21
67.774100000000004
 31
0.0
  0
LINE
  5
47
  8
0
 62
     7
 10
80.895099999999999
 20
68.824100000000001
 30
0.0
 11
81.317499999999995
 21
67.774100000000004
 31
0.0
  0
LINE
  5
48
  8
0
 62
     7
 10
81.493200000000016
 20
68.824100000000001
 30
0.0
 11
81.916300000000007
 21
67.774100000000004
 31
0.0
  0
LINE
  5
49
  8
0
 62
     7
 10
86.278499999999994
 20
68.824100000000001
 30
0.0
 11
86.701499999999996
 21
67.774100000000004
 31
0.0
  0
LINE
  5
4A
  8
0
 62
     7
 10
85.680099999999996
 20
68.824100000000001
 30
0.0
 11
86.103499999999997
 21
67.774100000000004
 31
0.0
  0
LINE
  5
4B
  8
0
 62
     7
 10
85.081999999999994
 20
68.824100000000001
 30
0.0
 11
85.505099999999999
 21
67.774100000000004
 31
0.0
  0
LINE
  5
4C
  8
0
 62
     7
 10
84.483900000000006
 20
68.824100000000001
 30
0.0
 11
84.907000000000025
 21
67.774100000000004
 31
0.0
  0
LINE
  5
4D
  8
0
 62
     7
 10
83.885800000000003
 20
68.824100000000001
 30
0.0
 11
84.308899999999994
 21
67.774100000000004
 31
0.0
  0
LINE
  5
4E
  8
0
 62
     7
 10
83.287800000000004
 20
68.824100000000001
 30
0.0
 11
83.710800000000006
 21
67.774100000000004
 31
0.0
  0
LINE
  5
4F
  8
0
 62
     7
 10
82.091300000000004
 20
68.824100000000001
 30
0.0
 11
82.514300000000006
 21
67.774100000000004
 31
0.0
  0
LINE
  5
50
  8
0
 62
     7
 10
82.689400000000006
 20
68.824100000000001
 30
0.0
 11
83.112399999999994
 21
67.774100000000004
 31
0.0
  0
LINE
  5
51
  8
0
 62
     7
 10
77.438699999999997
 20
68.549899999999994
 30
0.0
 11
76.823000000000008
 21
68.299099999999996
 31
0.0
  0
LINE
  5
52
  8
0
 62
     7
 10
77.438699999999997
 20
68.048000000000002
 30
0.0
 11
76.823000000000008
 21
68.299099999999996
 31
0.0
  0
LINE
  5
53
  8
0
 62
     7
 10
77.438699999999997
 20
68.048000000000002
 30
0.0
 11
86.823499999999996
 21
68.048000000000002
 31
0.0
  0
LINE
  5
54
  8
0
 62
     7
 10
77.438699999999997
 20
68.549899999999994
 30
0.0
 11
86.823499999999996
 21
68.549899999999994
 31
0.0
  0
LINE
  5
55
  8
0
  6
AIGENLINE002
 62
     7
 10
75.779799999999994
 20
68.299099999999996
 30
0.0
 11
88.127799999999993
 21
68.299099999999996
 31
0.0
  0
LINE
  5
56
  8
0
 62
     7
 10
103.18899999999989
 20
73.925700000000006
 30
0.0
 11
103.19499999999989
 21
73.951899999999995
 31
0.0
  0
LINE
  5
57
  8
0
 62
     7
 10
103.19499999999989
 20
73.951899999999995
 30
0.0
 11
103.20699999999999
 21
73.976699999999994
 31
0.0
  0
LINE
  5
58
  8
0
 62
     7
 10
103.20699999999999
 20
73.976699999999994
 30
0.0
 11
103.236
 21
74.022099999999995
 31
0.0
  0
LINE
  5
59
  8
0
 62
     7
 10
103.236
 20
74.022099999999995
 30
0.0
 11
103.30200000000001
 21
74.107900000000001
 31
0.0
  0
LINE
  5
5A
  8
0
 62
     7
 10
103.30200000000001
 20
74.107900000000001
 30
0.0
 11
103.44199999999999
 21
74.273600000000002
 31
0.0
  0
LINE
  5
5B
  8
0
 62
     7
 10
103.44199999999999
 20
74.273600000000002
 30
0.0
 11
103.71599999999999
 21
74.608500000000006
 31
0.0
  0
LINE
  5
5C
  8
0
 62
     7
 10
103.71599999999999
 20
74.608500000000006
 30
0.0
 11
104.2079999999999
 21
75.317499999999995
 31
0.0
  0
LINE
  5
5D
  8
0
 62
     7
 10
104.2079999999999
 20
75.317499999999995
 30
0.0
 11
104.613
 21
76.079599999999999
 31
0.0
  0
LINE
  5
5E
  8
0
 62
     7
 10
104.613
 20
76.079599999999999
 30
0.0
 11
104.93600000000001
 21
76.871899999999997
 31
0.0
  0
LINE
  5
5F
  8
0
 62
     7
 10
104.93600000000001
 20
76.871899999999997
 30
0.0
 11
105.40300000000001
 21
78.518699999999995
 31
0.0
  0
LINE
  5
60
  8
0
 62
     7
 10
105.40300000000001
 20
78.518699999999995
 30
0.0
 11
105.655
 21
80.208200000000005
 31
0.0
  0
LINE
  5
61
  8
0
 62
     7
 10
105.655
 20
80.208200000000005
 30
0.0
 11
105.691
 21
81.226200000000006
 31
0.0
  0
LINE
  5
62
  8
0
 62
     7
 10
105.691
 20
81.226200000000006
 30
0.0
 11
105.691
 21
81.868700000000004
 31
0.0
  0
LINE
  5
63
  8
0
 62
     7
 10
108.193
 20
207.322
 30
0.0
 11
107.867
 21
207.322
 31
0.0
  0
LINE
  5
64
  8
0
 62
     7
 10
108.193
 20
87.234800000000007
 30
0.0
 11
107.867
 21
87.234800000000007
 31
0.0
  0
LINE
  5
65
  8
0
 62
     7
 10
108.193
 20
87.234800000000007
 30
0.0
 11
108.193
 21
207.322
 31
0.0
  0
LINE
  5
66
  8
0
 62
     7
 10
107.867
 20
207.322
 30
0.0
 11
106.017
 21
207.322
 31
0.0
  0
LINE
  5
67
  8
0
 62
     7
 10
107.867
 20
87.234800000000007
 30
0.0
 11
106.017
 21
87.234800000000007
 31
0.0
  0
LINE
  5
68
  8
0
 62
     7
 10
106.017
 20
207.322
 30
0.0
 11
105.691
 21
207.322
 31
0.0
  0
LINE
  5
69
  8
0
 62
     7
 10
105.691
 20
87.234800000000007
 30
0.0
 11
105.691
 21
207.322
 31
0.0
  0
LINE
  5
6A
  8
0
 62
     7
 10
106.017
 20
87.234800000000007
 30
0.0
 11
105.691
 21
87.234800000000007
 31
0.0
  0
LINE
  5
6B
  8
0
 62
     7
 10
86.823499999999996
 20
77.819999999999993
 30
0.0
 11
86.823499999999996
 21
66.277900000000002
 31
0.0
  0
LINE
  5
6C
  8
0
 62
     7
 10
103.014
 20
77.678100000000001
 30
0.0
 11
103.014
 21
66.420100000000005
 31
0.0
  0
LINE
  5
6D
  8
0
 62
     7
 10
100.11199999999999
 20
77.703199999999995
 30
0.0
 11
100.119
 21
77.702200000000005
 31
0.0
  0
LINE
  5
6E
  8
0
 62
     7
 10
100.119
 20
77.702200000000005
 30
0.0
 11
100.1449999999999
 21
77.697699999999998
 31
0.0
  0
LINE
  5
6F
  8
0
 62
     7
 10
100.1449999999999
 20
77.697699999999998
 30
0.0
 11
100.187
 21
77.690799999999996
 31
0.0
  0
LINE
  5
70
  8
0
 62
     7
 10
100.187
 20
77.690799999999996
 30
0.0
 11
100.246
 21
77.6815
 31
0.0
  0
LINE
  5
71
  8
0
 62
     7
 10
100.246
 20
77.6815
 30
0.0
 11
100.3179999999999
 21
77.671899999999994
 31
0.0
  0
LINE
  5
72
  8
0
 62
     7
 10
100.3179999999999
 20
77.671899999999994
 30
0.0
 11
100.404
 21
77.661600000000007
 31
0.0
  0
LINE
  5
73
  8
0
 62
     7
 10
100.404
 20
77.661600000000007
 30
0.0
 11
100.5
 21
77.652900000000002
 31
0.0
  0
LINE
  5
74
  8
0
 62
     7
 10
100.5
 20
77.652900000000002
 30
0.0
 11
100.60599999999999
 21
77.646100000000004
 31
0.0
  0
LINE
  5
75
  8
0
 62
     7
 10
100.60599999999999
 20
77.646100000000004
 30
0.0
 11
100.712
 21
77.642300000000006
 31
0.0
  0
LINE
  5
76
  8
0
 62
     7
 10
100.712
 20
77.642300000000006
 30
0.0
 11
100.82299999999989
 21
77.641199999999998
 31
0.0
  0
LINE
  5
77
  8
0
 62
     7
 10
100.82299999999989
 20
77.641199999999998
 30
0.0
 11
100.9279999999999
 21
77.643299999999996
 31
0.0
  0
LINE
  5
78
  8
0
 62
     7
 10
100.9279999999999
 20
77.643299999999996
 30
0.0
 11
101.032
 21
77.648499999999999
 31
0.0
  0
LINE
  5
79
  8
0
 62
     7
 10
101.032
 20
77.648499999999999
 30
0.0
 11
101.1249999999999
 21
77.656000000000006
 31
0.0
  0
LINE
  5
7A
  8
0
 62
     7
 10
101.1249999999999
 20
77.656000000000006
 30
0.0
 11
101.20999999999989
 21
77.664000000000001
 31
0.0
  0
LINE
  5
7B
  8
0
 62
     7
 10
101.20999999999989
 20
77.664000000000001
 30
0.0
 11
101.2829999999999
 21
77.673299999999998
 31
0.0
  0
LINE
  5
7C
  8
0
 62
     7
 10
101.2829999999999
 20
77.673299999999998
 30
0.0
 11
101.34099999999999
 21
77.680800000000005
 31
0.0
  0
LINE
  5
7D
  8
0
 62
     7
 10
101.34099999999999
 20
77.680800000000005
 30
0.0
 11
101.383
 21
77.687399999999997
 31
0.0
  0
LINE
  5
7E
  8
0
 62
     7
 10
101.383
 20
77.687399999999997
 30
0.0
 11
101.407
 21
77.691199999999995
 31
0.0
  0
LINE
  5
7F
  8
0
 62
     7
 10
101.407
 20
77.691199999999995
 30
0.0
 11
101.4129999999999
 21
77.691900000000004
 31
0.0
  0
LINE
  5
80
  8
0
 62
     7
 10
101.4129999999999
 20
77.691900000000004
 30
0.0
 11
101.405
 21
77.690799999999996
 31
0.0
  0
LINE
  5
81
  8
0
 62
     7
 10
146.49499999999989
 20
248.29699999999991
 30
0.0
 11
146.245
 21
242.16200000000001
 31
0.0
  0
LINE
  5
82
  8
0
 62
     7
 10
138.745
 20
248.29699999999991
 30
0.0
 11
138.995
 21
242.16200000000001
 31
0.0
  0
LINE
  5
83
  8
0
 62
     7
 10
146.245
 20
242.16200000000001
 30
0.0
 11
138.995
 21
242.16200000000001
 31
0.0
  0
LINE
  5
84
  8
0
 62
     7
 10
146.49499999999989
 20
264.66199999999998
 30
0.0
 11
138.745
 21
264.66199999999998
 31
0.0
  0
LINE
  5
85
  8
0
 62
     7
 10
146.49499999999989
 20
248.29699999999991
 30
0.0
 11
138.745
 21
248.29699999999991
 31
0.0
  0
LINE
  5
86
  8
0
 62
     7
 10
146.49499999999989
 20
248.47200000000001
 30
0.0
 11
138.745
 21
248.47200000000001
 31
0.0
  0
LINE
  5
87
  8
0
 62
     7
 10
146.49499999999989
 20
264.66199999999998
 30
0.0
 11
146.49499999999989
 21
248.47200000000001
 31
0.0
  0
LINE
  5
88
  8
0
 62
     7
 10
146.24299999999991
 20
248.47200000000001
 30
0.0
 11
146.24399999999989
 21
248.42099999999999
 31
0.0
  0
ARC
  5
89
  8
0
 62
     7
 10
146.37346199999999
 20
248.42642299999989
 30
0.0
 40
0.12968
 50
181.849324
 51
267.83502700000003
  0
LINE
  5
8A
  8
0
 62
     7
 10
146.24399999999989
 20
248.422
 30
0.0
 11
146.24399999999989
 21
248.423
 31
0.0
  0
LINE
  5
8B
  8
0
 62
     7
 10
138.745
 20
264.66199999999998
 30
0.0
 11
138.745
 21
248.47200000000001
 31
0.0
  0
LINE
  5
8C
  8
0
 62
     7
 10
138.99700000000001
 20
248.47200000000001
 30
0.0
 11
138.99600000000001
 21
248.42099999999999
 31
0.0
  0
ARC
  5
8D
  8
0
 62
     7
 10
138.86697000000001
 20
248.426199
 30
0.0
 40
0.129447
 50
272.06898200000001
 51
358.24670700000001
  0
LINE
  5
8E
  8
0
 62
     7
 10
138.99600000000001
 20
248.422
 30
0.0
 11
138.99600000000001
 21
248.423
 31
0.0
  0
LINE
  5
8F
  8
0
 62
     7
 10
143.14500000000001
 20
274.18000000000001
 30
0.0
 11
142.09499999999991
 21
273.75700000000001
 31
0.0
  0
LINE
  5
90
  8
0
 62
     7
 10
143.14500000000001
 20
273.58199999999988
 30
0.0
 11
142.09499999999991
 21
273.15899999999999
 31
0.0
  0
LINE
  5
91
  8
0
 62
     7
 10
143.14500000000001
 20
272.98399999999998
 30
0.0
 11
142.09499999999991
 21
272.56099999999992
 31
0.0
  0
LINE
  5
92
  8
0
 62
     7
 10
143.14500000000001
 20
272.38499999999999
 30
0.0
 11
142.09499999999991
 21
271.96199999999988
 31
0.0
  0
LINE
  5
93
  8
0
 62
     7
 10
143.14500000000001
 20
271.78699999999998
 30
0.0
 11
142.09499999999991
 21
271.36399999999998
 31
0.0
  0
LINE
  5
94
  8
0
 62
     7
 10
143.14500000000001
 20
271.18900000000002
 30
0.0
 11
142.09499999999991
 21
270.76599999999991
 31
0.0
  0
LINE
  5
95
  8
0
 62
     7
 10
143.14500000000001
 20
270.59100000000001
 30
0.0
 11
142.09499999999991
 21
270.16800000000001
 31
0.0
  0
LINE
  5
96
  8
0
 62
     7
 10
143.14500000000001
 20
269.99200000000002
 30
0.0
 11
142.09499999999991
 21
269.56900000000002
 31
0.0
  0
LINE
  5
97
  8
0
 62
     7
 10
143.14500000000001
 20
265.20699999999999
 30
0.0
 11
142.09499999999991
 21
264.78399999999988
 31
0.0
  0
LINE
  5
98
  8
0
 62
     7
 10
143.14500000000001
 20
265.80599999999993
 30
0.0
 11
142.09499999999991
 21
265.38200000000001
 31
0.0
  0
LINE
  5
99
  8
0
 62
     7
 10
143.14500000000001
 20
266.40399999999988
 30
0.0
 11
142.09499999999991
 21
265.98099999999988
 31
0.0
  0
LINE
  5
9A
  8
0
 62
     7
 10
143.14500000000001
 20
267.00200000000001
 30
0.0
 11
142.09499999999991
 21
266.57900000000001
 31
0.0
  0
LINE
  5
9B
  8
0
 62
     7
 10
143.14500000000001
 20
267.60000000000002
 30
0.0
 11
142.09499999999991
 21
267.17700000000002
 31
0.0
  0
LINE
  5
9C
  8
0
 62
     7
 10
143.14500000000001
 20
268.19799999999992
 30
0.0
 11
142.09499999999991
 21
267.77499999999992
 31
0.0
  0
LINE
  5
9D
  8
0
 62
     7
 10
143.14500000000001
 20
269.39400000000001
 30
0.0
 11
142.09499999999991
 21
268.971
 31
0.0
  0
LINE
  5
9E
  8
0
 62
     7
 10
143.14500000000001
 20
268.79599999999988
 30
0.0
 11
142.09499999999991
 21
268.37299999999999
 31
0.0
  0
LINE
  5
9F
  8
0
 62
     7
 10
142.87100000000001
 20
274.04700000000003
 30
0.0
 11
142.62
 21
274.66300000000001
 31
0.0
  0
LINE
  5
A0
  8
0
 62
     7
 10
142.369
 20
274.04700000000003
 30
0.0
 11
142.62
 21
274.66300000000001
 31
0.0
  0
LINE
  5
A1
  8
0
 62
     7
 10
142.369
 20
274.04700000000003
 30
0.0
 11
142.369
 21
264.66199999999998
 31
0.0
  0
LINE
  5
A2
  8
0
 62
     7
 10
142.87100000000001
 20
274.04700000000003
 30
0.0
 11
142.87100000000001
 21
264.66199999999998
 31
0.0
  0
LINE
  5
A3
  8
0
  6
AIGENLINE002
 62
     7
 10
142.62
 20
275.7059999999999
 30
0.0
 11
142.62
 21
263.358
 31
0.0
  0
LINE
  5
A4
  8
0
 62
     7
 10
86.823499999999996
 20
228.279
 30
0.0
 11
86.823499999999996
 21
216.73699999999999
 31
0.0
  0
LINE
  5
A5
  8
0
 62
     7
 10
103.014
 20
228.13799999999989
 30
0.0
 11
103.014
 21
216.87899999999999
 31
0.0
  0
LINE
  5
A6
  8
0
 62
     7
 10
101.41200000000001
 20
216.8649999999999
 30
0.0
 11
101.4129999999999
 21
216.8649999999999
 31
0.0
  0
LINE
  5
A7
  8
0
 62
     7
 10
101.4129999999999
 20
216.8649999999999
 30
0.0
 11
101.40000000000001
 21
216.86699999999999
 31
0.0
  0
LINE
  5
A8
  8
0
 62
     7
 10
101.40000000000001
 20
216.86699999999999
 30
0.0
 11
101.37
 21
216.8719999999999
 31
0.0
  0
LINE
  5
A9
  8
0
 62
     7
 10
101.37
 20
216.8719999999999
 30
0.0
 11
101.32299999999989
 21
216.87899999999999
 31
0.0
  0
LINE
  5
AA
  8
0
 62
     7
 10
101.32299999999989
 20
216.87899999999999
 30
0.0
 11
101.261
 21
216.887
 31
0.0
  0
LINE
  5
AB
  8
0
 62
     7
 10
101.261
 20
216.887
 30
0.0
 11
101.18300000000001
 21
216.8959999999999
 31
0.0
  0
LINE
  5
AC
  8
0
 62
     7
 10
101.18300000000001
 20
216.8959999999999
 30
0.0
 11
101.095
 21
216.904
 31
0.0
  0
LINE
  5
AD
  8
0
 62
     7
 10
101.095
 20
216.904
 30
0.0
 11
100.995
 21
216.90999999999991
 31
0.0
  0
LINE
  5
AE
  8
0
 62
     7
 10
100.995
 20
216.90999999999991
 30
0.0
 11
100.8399999999999
 21
216.916
 31
0.0
  0
LINE
  5
AF
  8
0
 62
     7
 10
100.8399999999999
 20
216.916
 30
0.0
 11
100.7329999999999
 21
216.91499999999999
 31
0.0
  0
LINE
  5
B0
  8
0
 62
     7
 10
100.7329999999999
 20
216.91499999999999
 30
0.0
 11
100.624
 21
216.91199999999989
 31
0.0
  0
LINE
  5
B1
  8
0
 62
     7
 10
100.624
 20
216.91199999999989
 30
0.0
 11
100.52200000000001
 21
216.90599999999989
 31
0.0
  0
LINE
  5
B2
  8
0
 62
     7
 10
100.52200000000001
 20
216.90599999999989
 30
0.0
 11
100.42400000000001
 21
216.89799999999991
 31
0.0
  0
LINE
  5
B3
  8
0
 62
     7
 10
100.42400000000001
 20
216.89799999999991
 30
0.0
 11
100.337
 21
216.88800000000001
 31
0.0
  0
LINE
  5
B4
  8
0
 62
     7
 10
100.337
 20
216.88800000000001
 30
0.0
 11
100.26000000000001
 21
216.8779999999999
 31
0.0
  0
LINE
  5
B5
  8
0
 62
     7
 10
100.26000000000001
 20
216.8779999999999
 30
0.0
 11
100.1989999999999
 21
216.86799999999999
 31
0.0
  0
LINE
  5
B6
  8
0
 62
     7
 10
100.1989999999999
 20
216.86799999999999
 30
0.0
 11
100.151
 21
216.86000000000001
 31
0.0
  0
LINE
  5
B7
  8
0
 62
     7
 10
100.151
 20
216.86000000000001
 30
0.0
 11
100.12299999999991
 21
216.8549999999999
 31
0.0
  0
LINE
  5
B8
  8
0
 62
     7
 10
100.12299999999991
 20
216.8549999999999
 30
0.0
 11
100.11199999999999
 21
216.85400000000001
 31
0.0
  0
LINE
  5
B9
  8
0
 62
     7
 10
100.11199999999999
 20
216.85400000000001
 30
0.0
 11
100.11199999999999
 21
216.85400000000001
 31
0.0
  0
LINE
  5
BA
  8
0
 62
     7
 10
108.0929999999999
 20
207.4969999999999
 30
0.0
 11
108.0899999999999
 21
207.322
 31
0.0
  0
LINE
  5
BB
  8
0
 62
     7
 10
105.7939999999999
 20
207.322
 30
0.0
 11
105.7909999999999
 21
207.4969999999999
 31
0.0
  0
LINE
  5
BC
  8
0
 62
     7
 10
105.995
 20
207.4969999999999
 30
0.0
 11
105.691
 21
207.4969999999999
 31
0.0
  0
LINE
  5
BD
  8
0
 62
     7
 10
108.193
 20
207.4969999999999
 30
0.0
 11
107.896
 21
207.4969999999999
 31
0.0
  0
ARC
  5
BE
  8
0
 62
     7
 10
279.1272479999999
 20
207.49397599999989
 30
0.0
 40
170.93471799999989
 50
174.33760599999991
 51
179.998851
  0
LINE
  5
BF
  8
0
 62
     7
 10
103.18899999999989
 20
228.13699999999989
 30
0.0
 11
103.18899999999989
 21
216.87899999999999
 31
0.0
  0
LINE
  5
C0
  8
0
 62
     7
 10
105.691
 20
207.4969999999999
 30
0.0
 11
105.691
 21
213.42500000000001
 31
0.0
  0
LINE
  5
C1
  8
0
 62
     7
 10
105.691
 20
213.42500000000001
 30
0.0
 11
105.687
 21
213.744
 31
0.0
  0
LINE
  5
C2
  8
0
 62
     7
 10
105.687
 20
213.744
 30
0.0
 11
105.4939999999999
 21
215.59200000000001
 31
0.0
  0
LINE
  5
C3
  8
0
 62
     7
 10
105.4939999999999
 20
215.59200000000001
 30
0.0
 11
105.0389999999999
 21
217.4009999999999
 31
0.0
  0
LINE
  5
C4
  8
0
 62
     7
 10
105.0389999999999
 20
217.4009999999999
 30
0.0
 11
104.6669999999999
 21
218.3659999999999
 31
0.0
  0
LINE
  5
C5
  8
0
 62
     7
 10
104.6669999999999
 20
218.3659999999999
 30
0.0
 11
104.1789999999999
 21
219.2879999999999
 31
0.0
  0
LINE
  5
C6
  8
0
 62
     7
 10
104.1789999999999
 20
219.2879999999999
 30
0.0
 11
103.6459999999999
 21
220.03699999999989
 31
0.0
  0
LINE
  5
C7
  8
0
 62
     7
 10
103.6459999999999
 20
220.03699999999989
 30
0.0
 11
103.386
 21
220.3479999999999
 31
0.0
  0
LINE
  5
C8
  8
0
 62
     7
 10
103.386
 20
220.3479999999999
 30
0.0
 11
103.2729999999999
 21
220.48599999999999
 31
0.0
  0
LINE
  5
C9
  8
0
 62
     7
 10
103.2729999999999
 20
220.48599999999999
 30
0.0
 11
103.1959999999999
 21
220.60299999999989
 31
0.0
  0
LINE
  5
CA
  8
0
 62
     7
 10
103.1959999999999
 20
220.60299999999989
 30
0.0
 11
103.18899999999989
 21
220.63200000000001
 31
0.0
  0
LINE
  5
CB
  8
0
 62
     7
 10
107.896
 20
207.4969999999999
 30
0.0
 11
105.995
 21
207.4969999999999
 31
0.0
  0
LINE
  5
CC
  8
0
 62
     7
 10
109.31999999999989
 20
227.2059999999999
 30
0.0
 11
109.3239999999999
 21
227.125
 31
0.0
  0
LINE
  5
CD
  8
0
 62
     7
 10
109.3239999999999
 20
227.125
 30
0.0
 11
109.31699999999999
 21
227.06399999999999
 31
0.0
  0
LINE
  5
CE
  8
0
 62
     7
 10
109.31699999999999
 20
227.06399999999999
 30
0.0
 11
109.29899999999989
 21
226.91300000000001
 31
0.0
  0
LINE
  5
CF
  8
0
 62
     7
 10
109.29899999999989
 20
226.91300000000001
 30
0.0
 11
109.244
 21
226.42099999999991
 31
0.0
  0
LINE
  5
D0
  8
0
 62
     7
 10
109.244
 20
226.42099999999991
 30
0.0
 11
109.17399999999989
 21
225.7879999999999
 31
0.0
  0
LINE
  5
D1
  8
0
 62
     7
 10
109.17399999999989
 20
225.7879999999999
 30
0.0
 11
109.10299999999989
 21
225.11600000000001
 31
0.0
  0
LINE
  5
D2
  8
0
 62
     7
 10
109.10299999999989
 20
225.11600000000001
 30
0.0
 11
109.027
 21
224.35900000000001
 31
0.0
  0
LINE
  5
D3
  8
0
 62
     7
 10
108.0899999999999
 20
87.234800000000007
 30
0.0
 11
108.0929999999999
 21
87.060199999999995
 31
0.0
  0
LINE
  5
D4
  8
0
 62
     7
 10
105.7909999999999
 20
87.060199999999995
 30
0.0
 11
105.7939999999999
 21
87.234800000000007
 31
0.0
  0
LINE
  5
D5
  8
0
 62
     7
 10
107.896
 20
87.060199999999995
 30
0.0
 11
108.193
 21
87.060199999999995
 31
0.0
  0
ARC
  5
D6
  8
0
 62
     7
 10
279.18381699999992
 20
87.065658999999997
 30
0.0
 40
170.991287
 50
180.001856
 51
185.6614569999999
  0
LINE
  5
D7
  8
0
 62
     7
 10
105.691
 20
87.060199999999995
 30
0.0
 11
105.995
 21
87.060199999999995
 31
0.0
  0
LINE
  5
D8
  8
0
 62
     7
 10
105.691
 20
81.868700000000004
 30
0.0
 11
105.691
 21
87.060199999999995
 31
0.0
  0
LINE
  5
D9
  8
0
 62
     7
 10
103.18899999999989
 20
77.678100000000001
 30
0.0
 11
103.18899999999989
 21
66.420100000000005
 31
0.0
  0
LINE
  5
DA
  8
0
 62
     7
 10
105.995
 20
87.060199999999995
 30
0.0
 11
107.896
 21
87.060199999999995
 31
0.0
  0
ARC
  5
DB
  8
0
 62
     7
 10
702.94294600000001
 20
129.11917800000001
 30
0.0
 40
596.83198200000004
 50
185.66573299999999
 51
185.85744199999999
  0
ARC
  5
DC
  8
0
 62
     7
 10
194.08181799999991
 20
77.166291999999984
 30
0.0
 40
85.326053000000002
 50
186.02487099999999
 51
186.60552799999991
  0
LINE
  5
DD
  8
0
 62
     7
 10
100.554
 20
216.90799999999999
 30
0.0
 11
101.038
 21
216.90799999999999
 31
0.0
  0
LINE
  5
DE
  8
0
 62
     7
 10
101.276
 20
216.87899999999999
 30
0.0
 11
100.262
 21
216.87899999999999
 31
0.0
  0
LINE
  5
DF
  8
0
 62
     7
 10
100.2699999999999
 20
77.678100000000001
 30
0.0
 11
101.0479999999999
 21
77.678100000000001
 31
0.0
  0
LINE
  5
E0
  8
0
 62
     7
 10
101.0479999999999
 20
77.678100000000001
 30
0.0
 11
101.276
 21
77.678100000000001
 31
0.0
  0
LINE
  5
E1
  8
0
 62
     7
 10
101.03400000000001
 20
77.649199999999993
 30
0.0
 11
100.55500000000001
 21
77.649199999999993
 31
0.0
  0
LINE
  5
E2
  8
0
 62
     7
 10
86.823499999999996
 20
66.277900000000002
 30
0.0
 11
103.014
 21
66.420100000000005
 31
0.0
  0
LINE
  5
E3
  8
0
 62
     7
 10
103.014
 20
77.678100000000001
 30
0.0
 11
101.41200000000001
 21
77.691900000000004
 31
0.0
  0
LINE
  5
E4
  8
0
 62
     7
 10
100.11199999999999
 20
77.703199999999995
 30
0.0
 11
86.823499999999996
 21
77.819999999999993
 31
0.0
  0
LINE
  5
E5
  8
0
 62
     7
 10
86.823499999999996
 20
216.73699999999999
 30
0.0
 11
100.11199999999999
 21
216.85400000000001
 31
0.0
  0
LINE
  5
E6
  8
0
 62
     7
 10
101.41200000000001
 20
216.8649999999999
 30
0.0
 11
103.014
 21
216.87899999999999
 31
0.0
  0
LINE
  5
E7
  8
0
 62
     7
 10
103.014
 20
228.13699999999989
 30
0.0
 11
86.823499999999996
 21
228.279
 31
0.0
  0
LINE
  5
E8
  8
0
 62
     7
 10
103.065
 20
227.88599999999991
 30
0.0
 11
103.014
 21
227.88599999999991
 31
0.0
  0
LINE
  5
E9
  8
0
 62
     7
 10
103.014
 20
217.13099999999989
 30
0.0
 11
103.065
 21
217.13
 31
0.0
  0
LINE
  5
EA
  8
0
 62
     7
 10
103.18899999999989
 20
216.87899999999999
 30
0.0
 11
103.506
 21
216.8429999999999
 31
0.0
  0
LINE
  5
EB
  8
0
 62
     7
 10
103.506
 20
216.8429999999999
 30
0.0
 11
103.79599999999991
 21
216.7409999999999
 31
0.0
  0
LINE
  5
EC
  8
0
 62
     7
 10
103.79599999999991
 20
216.7409999999999
 30
0.0
 11
104.295
 21
216.36799999999991
 31
0.0
  0
LINE
  5
ED
  8
0
 62
     7
 10
104.295
 20
216.36799999999991
 30
0.0
 11
104.69799999999999
 21
215.8179999999999
 31
0.0
  0
LINE
  5
EE
  8
0
 62
     7
 10
104.69799999999999
 20
215.8179999999999
 30
0.0
 11
105.0179999999999
 21
215.14099999999991
 31
0.0
  0
LINE
  5
EF
  8
0
 62
     7
 10
105.0179999999999
 20
215.14099999999991
 30
0.0
 11
105.34
 21
214.08799999999999
 31
0.0
  0
LINE
  5
F0
  8
0
 62
     7
 10
105.34
 20
214.08799999999999
 30
0.0
 11
105.55200000000001
 21
212.96799999999999
 31
0.0
  0
LINE
  5
F1
  8
0
 62
     7
 10
105.55200000000001
 20
212.96799999999999
 30
0.0
 11
105.6629999999999
 21
211.934
 31
0.0
  0
LINE
  5
F2
  8
0
 62
     7
 10
105.6629999999999
 20
211.934
 30
0.0
 11
105.682
 21
211.6049999999999
 31
0.0
  0
LINE
  5
F3
  8
0
 62
     7
 10
105.682
 20
211.6049999999999
 30
0.0
 11
105.6899999999999
 21
211.34100000000001
 31
0.0
  0
LINE
  5
F4
  8
0
 62
     7
 10
105.6899999999999
 20
211.34100000000001
 30
0.0
 11
105.691
 21
211.154
 31
0.0
  0
LINE
  5
F5
  8
0
 62
     7
 10
105.691
 20
211.154
 30
0.0
 11
105.691
 21
211.00099999999989
 31
0.0
  0
LINE
  5
F6
  8
0
 62
     7
 10
105.691
 20
211.00099999999989
 30
0.0
 11
105.691
 21
210.88099999999989
 31
0.0
  0
ARC
  5
F7
  8
0
 62
     7
 10
102.7850609999999
 20
198.78192200000001
 30
0.0
 40
29.358243000000002
 50
77.527737000000002
 51
89.211945
  0
ARC
  5
F8
  8
0
 62
     7
 10
103.05972
 20
228.0148759999999
 30
0.0
 40
0.129181
 50
273.17916600000001
 51
358.25915600000002
  0
ARC
  5
F9
  8
0
 62
     7
 10
103.059264
 20
217.0006359999999
 30
0.0
 40
0.129669
 50
2.160591999999999
 51
88.155077000000006
  0
LINE
  5
FA
  8
0
 62
     7
 10
103.0629999999999
 20
217.13
 30
0.0
 11
103.0629999999999
 21
217.13
 31
0.0
  0
ARC
  5
FB
  8
0
 62
     7
 10
109.04595399999999
 20
227.17953399999999
 30
0.0
 40
0.2750780000000001
 50
5.485252
 51
80.862331999999995
  0
LINE
  5
FC
  8
0
 62
     7
 10
103.014
 20
66.671999999999997
 30
0.0
 11
103.065
 21
66.671599999999984
 31
0.0
  0
LINE
  5
FD
  8
0
 62
     7
 10
103.065
 20
77.426900000000003
 30
0.0
 11
103.014
 21
77.426599999999993
 31
0.0
  0
LINE
  5
FE
  8
0
 62
     7
 10
105.691
 20
83.849999999999994
 30
0.0
 11
105.691
 21
83.516199999999998
 31
0.0
  0
LINE
  5
FF
  8
0
 62
     7
 10
105.691
 20
83.516199999999998
 30
0.0
 11
105.68899999999989
 21
83.1203
 31
0.0
  0
LINE
  5
100
  8
0
 62
     7
 10
105.68899999999989
 20
83.1203
 30
0.0
 11
105.65899999999991
 21
82.566000000000003
 31
0.0
  0
LINE
  5
101
  8
0
 62
     7
 10
105.65899999999991
 20
82.566000000000003
 30
0.0
 11
105.59
 21
81.870500000000007
 31
0.0
  0
LINE
  5
102
  8
0
 62
     7
 10
105.59
 20
81.870500000000007
 30
0.0
 11
105.4699999999999
 21
81.090500000000006
 31
0.0
  0
LINE
  5
103
  8
0
 62
     7
 10
105.4699999999999
 20
81.090500000000006
 30
0.0
 11
105.28399999999991
 21
80.247100000000003
 31
0.0
  0
LINE
  5
104
  8
0
 62
     7
 10
105.28399999999991
 20
80.247100000000003
 30
0.0
 11
105.0
 21
79.371700000000004
 31
0.0
  0
LINE
  5
105
  8
0
 62
     7
 10
105.0
 20
79.371700000000004
 30
0.0
 11
104.58499999999989
 21
78.556899999999999
 31
0.0
  0
LINE
  5
106
  8
0
 62
     7
 10
104.58499999999989
 20
78.556899999999999
 30
0.0
 11
104.315
 21
78.211399999999983
 31
0.0
  0
LINE
  5
107
  8
0
 62
     7
 10
104.315
 20
78.211399999999983
 30
0.0
 11
103.99799999999991
 21
77.933400000000006
 31
0.0
  0
LINE
  5
108
  8
0
 62
     7
 10
103.99799999999991
 20
77.933400000000006
 30
0.0
 11
103.625
 21
77.747
 31
0.0
  0
LINE
  5
109
  8
0
 62
     7
 10
103.625
 20
77.747
 30
0.0
 11
103.18899999999989
 21
77.678100000000001
 31
0.0
  0
ARC
  5
10A
  8
0
 62
     7
 10
102.78783799999989
 20
95.766020999999995
 30
0.0
 40
29.348621999999992
 50
270.78289099999989
 51
282.470865
  0
ARC
  5
10B
  8
0
 62
     7
 10
103.0589259999999
 20
66.541730999999999
 30
0.0
 40
0.130005
 50
2.1351209999999989
 51
87.706811999999999
  0
LINE
  5
10C
  8
0
 62
     7
 10
103.06399999999999
 20
66.671599999999984
 30
0.0
 11
103.0629999999999
 21
66.671599999999984
 31
0.0
  0
ARC
  5
10D
  8
0
 62
     7
 10
103.05984699999991
 20
77.55577199999999
 30
0.0
 40
0.12906
 50
273.43219699999997
 51
358.17263199999991
  0
ARC
  5
10E
  8
0
 62
     7
 10
109.0392409999999
 20
67.383766000000008
 30
0.0
 40
0.284832
 50
280.050544
 51
353.39602300000001
  0
LINE
  5
10F
  8
0
 62
     7
 10
146.34700000000001
 20
219.94900000000001
 30
0.0
 11
146.34499999999991
 21
219.85599999999999
 31
0.0
  0
LINE
  5
110
  8
0
 62
     7
 10
146.35299999999989
 20
207.322
 30
0.0
 11
146.02999999999989
 21
207.322
 31
0.0
  0
LINE
  5
111
  8
0
 62
     7
 10
146.35299999999989
 20
87.234800000000007
 30
0.0
 11
146.02999999999989
 21
87.234800000000007
 31
0.0
  0
LINE
  5
112
  8
0
 62
     7
 10
146.35299999999989
 20
87.234800000000007
 30
0.0
 11
146.35299999999989
 21
207.322
 31
0.0
  0
LINE
  5
113
  8
0
 62
     7
 10
146.02999999999989
 20
207.322
 30
0.0
 11
139.21000000000001
 21
207.322
 31
0.0
  0
LINE
  5
114
  8
0
 62
     7
 10
146.02999999999989
 20
87.234800000000007
 30
0.0
 11
139.21000000000001
 21
87.234800000000007
 31
0.0
  0
LINE
  5
115
  8
0
 62
     7
 10
139.21000000000001
 20
207.322
 30
0.0
 11
138.88599999999991
 21
207.322
 31
0.0
  0
LINE
  5
116
  8
0
 62
     7
 10
138.88599999999991
 20
87.234800000000007
 30
0.0
 11
138.88599999999991
 21
207.322
 31
0.0
  0
LINE
  5
117
  8
0
 62
     7
 10
139.21000000000001
 20
87.234800000000007
 30
0.0
 11
138.88599999999991
 21
87.234800000000007
 31
0.0
  0
ARC
  5
118
  8
0
 62
     7
 10
142.788084
 20
70.320250000000001
 30
0.0
 40
4.0459050000000003
 50
182.087098
 51
267.61315500000001
  0
ARC
  5
119
  8
0
 62
     7
 10
142.46965499999999
 20
70.302492000000001
 30
0.0
 40
4.0274289999999988
 50
272.133486
 51
358.156114
  0
LINE
  5
11A
  8
0
 62
     7
 10
138.745
 20
73.925700000000006
 30
0.0
 11
138.745
 21
70.172899999999998
 31
0.0
  0
LINE
  5
11B
  8
0
 62
     7
 10
138.857
 20
74.856899999999996
 30
0.0
 11
138.792
 21
74.534400000000005
 31
0.0
  0
LINE
  5
11C
  8
0
 62
     7
 10
138.792
 20
74.534400000000005
 30
0.0
 11
138.745
 21
73.925700000000006
 31
0.0
  0
LINE
  5
11D
  8
0
 62
     7
 10
146.49499999999989
 20
73.925700000000006
 30
0.0
 11
146.447
 21
74.534400000000005
 31
0.0
  0
LINE
  5
11E
  8
0
 62
     7
 10
146.447
 20
74.534400000000005
 30
0.0
 11
146.364
 21
74.930599999999984
 31
0.0
  0
LINE
  5
11F
  8
0
 62
     7
 10
146.49499999999989
 20
70.172899999999998
 30
0.0
 11
146.49499999999989
 21
73.925700000000006
 31
0.0
  0
ARC
  5
120
  8
0
 62
     7
 10
142.452448
 20
224.237199
 30
0.0
 40
4.0452379999999986
 50
2.088524
 51
87.632013000000001
  0
ARC
  5
121
  8
0
 62
     7
 10
142.76989800000001
 20
224.25465600000001
 30
0.0
 40
4.0271330000000001
 50
92.139035000000007
 51
178.15057599999989
  0
LINE
  5
122
  8
0
 62
     7
 10
138.745
 20
224.38499999999999
 30
0.0
 11
138.745
 21
220.63200000000001
 31
0.0
  0
LINE
  5
123
  8
0
 62
     7
 10
146.33799999999991
 20
219.53399999999999
 30
0.0
 11
146.447
 21
220.02199999999999
 31
0.0
  0
LINE
  5
124
  8
0
 62
     7
 10
146.447
 20
220.02199999999999
 30
0.0
 11
146.49499999999989
 21
220.63200000000001
 31
0.0
  0
LINE
  5
125
  8
0
 62
     7
 10
138.745
 20
220.63200000000001
 30
0.0
 11
138.792
 21
220.02199999999999
 31
0.0
  0
LINE
  5
126
  8
0
 62
     7
 10
138.792
 20
220.02199999999999
 30
0.0
 11
138.87599999999989
 21
219.62700000000001
 31
0.0
  0
LINE
  5
127
  8
0
 62
     7
 10
146.49499999999989
 20
220.63200000000001
 30
0.0
 11
146.49499999999989
 21
224.38499999999999
 31
0.0
  0
LINE
  5
128
  8
0
 62
     7
 10
138.989
 20
207.322
 30
0.0
 11
138.9859999999999
 21
207.4969999999999
 31
0.0
  0
LINE
  5
129
  8
0
 62
     7
 10
146.25399999999991
 20
207.4969999999999
 30
0.0
 11
146.25099999999989
 21
207.322
 31
0.0
  0
LINE
  5
12A
  8
0
 62
     7
 10
138.88900000000001
 20
220.31099999999989
 30
0.0
 11
138.89099999999991
 21
220.08600000000001
 31
0.0
  0
LINE
  5
12B
  8
0
 62
     7
 10
138.89099999999991
 20
220.08600000000001
 30
0.0
 11
138.89500000000001
 21
219.6879999999999
 31
0.0
  0
LINE
  5
12C
  8
0
 62
     7
 10
138.89500000000001
 20
219.6879999999999
 30
0.0
 11
138.90100000000001
 21
218.928
 31
0.0
  0
LINE
  5
12D
  8
0
 62
     7
 10
138.90100000000001
 20
218.928
 30
0.0
 11
138.90600000000001
 21
218.20500000000001
 31
0.0
  0
LINE
  5
12E
  8
0
 62
     7
 10
138.90600000000001
 20
218.20500000000001
 30
0.0
 11
138.91
 21
217.458
 31
0.0
  0
LINE
  5
12F
  8
0
 62
     7
 10
138.91
 20
217.458
 30
0.0
 11
138.91499999999991
 21
216.25599999999989
 31
0.0
  0
LINE
  5
130
  8
0
 62
     7
 10
138.91499999999991
 20
216.25599999999989
 30
0.0
 11
138.91800000000001
 21
215.40599999999989
 31
0.0
  0
LINE
  5
131
  8
0
 62
     7
 10
138.91800000000001
 20
215.40599999999989
 30
0.0
 11
138.9189999999999
 21
215.012
 31
0.0
  0
LINE
  5
132
  8
0
 62
     7
 10
138.9189999999999
 20
215.012
 30
0.0
 11
138.9199999999999
 21
213.75200000000001
 31
0.0
  0
LINE
  5
133
  8
0
 62
     7
 10
138.9199999999999
 20
213.75200000000001
 30
0.0
 11
138.9199999999999
 21
212.88200000000001
 31
0.0
  0
LINE
  5
134
  8
0
 62
     7
 10
138.9199999999999
 20
212.88200000000001
 30
0.0
 11
138.9199999999999
 21
210.49000000000001
 31
0.0
  0
LINE
  5
135
  8
0
 62
     7
 10
138.9199999999999
 20
210.49000000000001
 30
0.0
 11
138.9199999999999
 21
207.4969999999999
 31
0.0
  0
LINE
  5
136
  8
0
 62
     7
 10
146.3189999999999
 20
207.4969999999999
 30
0.0
 11
146.3189999999999
 21
212.3009999999999
 31
0.0
  0
LINE
  5
137
  8
0
 62
     7
 10
146.3189999999999
 20
212.3009999999999
 30
0.0
 11
146.3189999999999
 21
212.47300000000001
 31
0.0
  0
LINE
  5
138
  8
0
 62
     7
 10
146.3189999999999
 20
212.47300000000001
 30
0.0
 11
146.3189999999999
 21
212.64500000000001
 31
0.0
  0
LINE
  5
139
  8
0
 62
     7
 10
146.3189999999999
 20
212.64500000000001
 30
0.0
 11
146.3189999999999
 21
212.94099999999989
 31
0.0
  0
LINE
  5
13A
  8
0
 62
     7
 10
146.3189999999999
 20
212.94099999999989
 30
0.0
 11
146.3189999999999
 21
213.26900000000001
 31
0.0
  0
LINE
  5
13B
  8
0
 62
     7
 10
146.3189999999999
 20
213.26900000000001
 30
0.0
 11
146.3189999999999
 21
213.4799999999999
 31
0.0
  0
LINE
  5
13C
  8
0
 62
     7
 10
146.3189999999999
 20
213.4799999999999
 30
0.0
 11
146.3189999999999
 21
213.72399999999999
 31
0.0
  0
LINE
  5
13D
  8
0
 62
     7
 10
146.3189999999999
 20
213.72399999999999
 30
0.0
 11
146.3189999999999
 21
214.05199999999999
 31
0.0
  0
LINE
  5
13E
  8
0
 62
     7
 10
146.3189999999999
 20
214.05199999999999
 30
0.0
 11
146.31999999999999
 21
214.37299999999999
 31
0.0
  0
LINE
  5
13F
  8
0
 62
     7
 10
146.31999999999999
 20
214.37299999999999
 30
0.0
 11
146.3239999999999
 21
216.09899999999999
 31
0.0
  0
LINE
  5
140
  8
0
 62
     7
 10
146.3239999999999
 20
216.09899999999999
 30
0.0
 11
146.33099999999999
 21
217.74100000000001
 31
0.0
  0
LINE
  5
141
  8
0
 62
     7
 10
146.33099999999999
 20
217.74100000000001
 30
0.0
 11
146.33500000000001
 21
218.5149999999999
 31
0.0
  0
LINE
  5
142
  8
0
 62
     7
 10
146.33500000000001
 20
218.5149999999999
 30
0.0
 11
146.34100000000001
 21
219.25699999999989
 31
0.0
  0
LINE
  5
143
  8
0
 62
     7
 10
146.34100000000001
 20
219.25699999999989
 30
0.0
 11
146.34399999999999
 21
219.61099999999999
 31
0.0
  0
LINE
  5
144
  8
0
 62
     7
 10
146.34399999999999
 20
219.61099999999999
 30
0.0
 11
146.34599999999989
 21
219.851
 31
0.0
  0
LINE
  5
145
  8
0
 62
     7
 10
146.34599999999989
 20
219.851
 30
0.0
 11
146.34700000000001
 21
219.95400000000001
 31
0.0
  0
LINE
  5
146
  8
0
 62
     7
 10
146.34700000000001
 20
219.95400000000001
 30
0.0
 11
146.34899999999999
 21
220.107
 31
0.0
  0
LINE
  5
147
  8
0
 62
     7
 10
146.34899999999999
 20
220.107
 30
0.0
 11
146.34999999999991
 21
220.285
 31
0.0
  0
LINE
  5
148
  8
0
 62
     7
 10
146.34999999999991
 20
220.285
 30
0.0
 11
146.352
 21
220.38499999999999
 31
0.0
  0
LINE
  5
149
  8
0
 62
     7
 10
146.352
 20
220.38499999999999
 30
0.0
 11
146.352
 21
220.4499999999999
 31
0.0
  0
LINE
  5
14A
  8
0
 62
     7
 10
146.352
 20
220.4499999999999
 30
0.0
 11
146.352
 21
220.4959999999999
 31
0.0
  0
LINE
  5
14B
  8
0
 62
     7
 10
139.24199999999999
 20
207.4969999999999
 30
0.0
 11
138.9429999999999
 21
207.4969999999999
 31
0.0
  0
ARC
  5
14C
  8
0
 62
     7
 10
13742.739999999991
 20
207.6151909999999
 30
0.0
 40
13603.790000000001
 50
179.929351
 51
180.00051599999989
  0
LINE
  5
14D
  8
0
 62
     7
 10
146.297
 20
207.4969999999999
 30
0.0
 11
145.99799999999991
 21
207.4969999999999
 31
0.0
  0
ARC
  5
14E
  8
0
 62
     7
 10
-13545.92
 20
207.56107399999999
 30
0.0
 40
13692.21999999999
 50
359.99973299999988
 51
0.070399
  0
LINE
  5
14F
  8
0
 62
     7
 10
138.95400000000001
 20
224.38999999999999
 30
0.0
 11
139.114
 21
225.251
 31
0.0
  0
LINE
  5
150
  8
0
 62
     7
 10
139.114
 20
225.251
 30
0.0
 11
139.52299999999991
 21
225.99799999999999
 31
0.0
  0
LINE
  5
151
  8
0
 62
     7
 10
139.52299999999991
 20
225.99799999999999
 30
0.0
 11
140.22
 21
226.69099999999989
 31
0.0
  0
LINE
  5
152
  8
0
 62
     7
 10
140.22
 20
226.69099999999989
 30
0.0
 11
140.70299999999989
 21
226.9959999999999
 31
0.0
  0
LINE
  5
153
  8
0
 62
     7
 10
140.70299999999989
 20
226.9959999999999
 30
0.0
 11
141.227
 21
227.22499999999999
 31
0.0
  0
LINE
  5
154
  8
0
 62
     7
 10
141.227
 20
227.22499999999999
 30
0.0
 11
141.834
 21
227.38499999999991
 31
0.0
  0
LINE
  5
155
  8
0
 62
     7
 10
141.834
 20
227.38499999999991
 30
0.0
 11
142.45799999999991
 21
227.45199999999991
 31
0.0
  0
LINE
  5
156
  8
0
 62
     7
 10
142.45799999999991
 20
227.45199999999991
 30
0.0
 11
143.14999999999989
 21
227.42400000000001
 31
0.0
  0
LINE
  5
157
  8
0
 62
     7
 10
143.14999999999989
 20
227.42400000000001
 30
0.0
 11
143.82900000000001
 21
227.28399999999999
 31
0.0
  0
LINE
  5
158
  8
0
 62
     7
 10
143.82900000000001
 20
227.28399999999999
 30
0.0
 11
144.50499999999991
 21
227.01199999999989
 31
0.0
  0
LINE
  5
159
  8
0
 62
     7
 10
144.50499999999991
 20
227.01199999999989
 30
0.0
 11
145.11699999999999
 21
226.6159999999999
 31
0.0
  0
LINE
  5
15A
  8
0
 62
     7
 10
145.11699999999999
 20
226.6159999999999
 30
0.0
 11
145.58199999999991
 21
226.166
 31
0.0
  0
LINE
  5
15B
  8
0
 62
     7
 10
145.58199999999991
 20
226.166
 30
0.0
 11
145.94999999999999
 21
225.63499999999991
 31
0.0
  0
LINE
  5
15C
  8
0
 62
     7
 10
145.94999999999999
 20
225.63499999999991
 30
0.0
 11
146.25
 21
224.79400000000001
 31
0.0
  0
LINE
  5
15D
  8
0
 62
     7
 10
146.25
 20
224.79400000000001
 30
0.0
 11
146.286
 21
224.38999999999999
 31
0.0
  0
LINE
  5
15E
  8
0
 62
     7
 10
139.24199999999999
 20
207.4969999999999
 30
0.0
 11
145.99799999999991
 21
207.4969999999999
 31
0.0
  0
LINE
  5
15F
  8
0
 62
     7
 10
146.25099999999989
 20
87.234800000000007
 30
0.0
 11
146.25399999999991
 21
87.060199999999995
 31
0.0
  0
LINE
  5
160
  8
0
 62
     7
 10
138.9859999999999
 20
87.060199999999995
 30
0.0
 11
138.989
 21
87.234800000000007
 31
0.0
  0
LINE
  5
161
  8
0
 62
     7
 10
146.352
 20
74.122
 30
0.0
 11
146.352
 21
74.180599999999998
 31
0.0
  0
LINE
  5
162
  8
0
 62
     7
 10
146.352
 20
74.180599999999998
 30
0.0
 11
146.351
 21
74.245400000000004
 31
0.0
  0
LINE
  5
163
  8
0
 62
     7
 10
146.351
 20
74.245400000000004
 30
0.0
 11
146.3479999999999
 21
74.471400000000003
 31
0.0
  0
LINE
  5
164
  8
0
 62
     7
 10
146.3479999999999
 20
74.471400000000003
 30
0.0
 11
146.34499999999991
 21
74.868899999999996
 31
0.0
  0
LINE
  5
165
  8
0
 62
     7
 10
146.34499999999991
 20
74.868899999999996
 30
0.0
 11
146.33799999999991
 21
75.628900000000002
 31
0.0
  0
LINE
  5
166
  8
0
 62
     7
 10
146.33799999999991
 20
75.628900000000002
 30
0.0
 11
146.334
 21
76.352800000000002
 31
0.0
  0
LINE
  5
167
  8
0
 62
     7
 10
146.334
 20
76.352800000000002
 30
0.0
 11
146.33000000000001
 21
77.099699999999999
 31
0.0
  0
LINE
  5
168
  8
0
 62
     7
 10
146.33000000000001
 20
77.099699999999999
 30
0.0
 11
146.3239999999999
 21
78.301699999999997
 31
0.0
  0
LINE
  5
169
  8
0
 62
     7
 10
146.3239999999999
 20
78.301699999999997
 30
0.0
 11
146.32199999999989
 21
79.150899999999993
 31
0.0
  0
LINE
  5
16A
  8
0
 62
     7
 10
146.32199999999989
 20
79.150899999999993
 30
0.0
 11
146.32099999999991
 21
79.545699999999997
 31
0.0
  0
LINE
  5
16B
  8
0
 62
     7
 10
146.32099999999991
 20
79.545699999999997
 30
0.0
 11
146.3189999999999
 21
80.804900000000004
 31
0.0
  0
LINE
  5
16C
  8
0
 62
     7
 10
146.3189999999999
 20
80.804900000000004
 30
0.0
 11
146.3189999999999
 21
81.6751
 31
0.0
  0
LINE
  5
16D
  8
0
 62
     7
 10
146.3189999999999
 20
81.6751
 30
0.0
 11
146.3189999999999
 21
84.067099999999996
 31
0.0
  0
LINE
  5
16E
  8
0
 62
     7
 10
146.3189999999999
 20
84.067099999999996
 30
0.0
 11
146.3189999999999
 21
87.060199999999995
 31
0.0
  0
LINE
  5
16F
  8
0
 62
     7
 10
138.9199999999999
 20
87.060199999999995
 30
0.0
 11
138.9199999999999
 21
82.256
 31
0.0
  0
LINE
  5
170
  8
0
 62
     7
 10
138.9199999999999
 20
82.256
 30
0.0
 11
138.9199999999999
 21
82.084400000000016
 31
0.0
  0
LINE
  5
171
  8
0
 62
     7
 10
138.9199999999999
 20
82.084400000000016
 30
0.0
 11
138.9199999999999
 21
81.912800000000004
 31
0.0
  0
LINE
  5
172
  8
0
 62
     7
 10
138.9199999999999
 20
81.912800000000004
 30
0.0
 11
138.9199999999999
 21
81.616200000000006
 31
0.0
  0
LINE
  5
173
  8
0
 62
     7
 10
138.9199999999999
 20
81.616200000000006
 30
0.0
 11
138.9199999999999
 21
81.288600000000017
 31
0.0
  0
LINE
  5
174
  8
0
 62
     7
 10
138.9199999999999
 20
81.288600000000017
 30
0.0
 11
138.9199999999999
 21
81.076700000000002
 31
0.0
  0
LINE
  5
175
  8
0
 62
     7
 10
138.9199999999999
 20
81.076700000000002
 30
0.0
 11
138.9199999999999
 21
80.833100000000002
 31
0.0
  0
LINE
  5
176
  8
0
 62
     7
 10
138.9199999999999
 20
80.833100000000002
 30
0.0
 11
138.9199999999999
 21
80.505799999999994
 31
0.0
  0
LINE
  5
177
  8
0
 62
     7
 10
138.9199999999999
 20
80.505799999999994
 30
0.0
 11
138.9199999999999
 21
80.183700000000002
 31
0.0
  0
LINE
  5
178
  8
0
 62
     7
 10
138.9199999999999
 20
80.183700000000002
 30
0.0
 11
138.91599999999991
 21
78.457400000000007
 31
0.0
  0
LINE
  5
179
  8
0
 62
     7
 10
138.91599999999991
 20
78.457400000000007
 30
0.0
 11
138.90899999999991
 21
76.816100000000006
 31
0.0
  0
LINE
  5
17A
  8
0
 62
     7
 10
138.90899999999991
 20
76.816100000000006
 30
0.0
 11
138.904
 21
76.042400000000001
 31
0.0
  0
LINE
  5
17B
  8
0
 62
     7
 10
138.904
 20
76.042400000000001
 30
0.0
 11
138.89899999999989
 21
75.299899999999994
 31
0.0
  0
LINE
  5
17C
  8
0
 62
     7
 10
138.89899999999989
 20
75.299899999999994
 30
0.0
 11
138.89599999999999
 21
74.946100000000001
 31
0.0
  0
LINE
  5
17D
  8
0
 62
     7
 10
138.89599999999999
 20
74.946100000000001
 30
0.0
 11
138.893
 21
74.603700000000003
 31
0.0
  0
LINE
  5
17E
  8
0
 62
     7
 10
138.893
 20
74.603700000000003
 30
0.0
 11
138.89099999999991
 21
74.450000000000003
 31
0.0
  0
LINE
  5
17F
  8
0
 62
     7
 10
138.89099999999991
 20
74.450000000000003
 30
0.0
 11
138.88900000000001
 21
74.272199999999998
 31
0.0
  0
LINE
  5
180
  8
0
 62
     7
 10
145.99799999999991
 20
87.060199999999995
 30
0.0
 11
146.297
 21
87.060199999999995
 31
0.0
  0
ARC
  5
181
  8
0
 62
     7
 10
-13462.87999999999
 20
86.945628999999997
 30
0.0
 40
13609.18
 50
359.92938500000002
 51
0.000482
  0
LINE
  5
182
  8
0
 62
     7
 10
138.9429999999999
 20
87.060199999999995
 30
0.0
 11
139.24199999999999
 21
87.060199999999995
 31
0.0
  0
ARC
  5
183
  8
0
 62
     7
 10
13823.469999999999
 20
86.991744999999995
 30
0.0
 40
13684.530000000001
 50
179.99969399999989
 51
180.07043899999991
  0
LINE
  5
184
  8
0
 62
     7
 10
145.99799999999991
 20
87.060199999999995
 30
0.0
 11
139.24199999999999
 21
87.060199999999995
 31
0.0
  0
LINE
  5
185
  8
0
 62
     7
 10
146.286
 20
70.166399999999996
 30
0.0
 11
146.126
 21
69.306499999999986
 31
0.0
  0
LINE
  5
186
  8
0
 62
     7
 10
146.126
 20
69.306499999999986
 30
0.0
 11
145.71700000000001
 21
68.559600000000003
 31
0.0
  0
LINE
  5
187
  8
0
 62
     7
 10
145.71700000000001
 20
68.559600000000003
 30
0.0
 11
145.01900000000001
 21
67.866100000000003
 31
0.0
  0
LINE
  5
188
  8
0
 62
     7
 10
145.01900000000001
 20
67.866100000000003
 30
0.0
 11
144.53599999999989
 21
67.5608
 31
0.0
  0
LINE
  5
189
  8
0
 62
     7
 10
144.53599999999989
 20
67.5608
 30
0.0
 11
144.012
 21
67.332099999999997
 31
0.0
  0
LINE
  5
18A
  8
0
 62
     7
 10
144.012
 20
67.332099999999997
 30
0.0
 11
143.40600000000001
 21
67.172200000000004
 31
0.0
  0
LINE
  5
18B
  8
0
 62
     7
 10
143.40600000000001
 20
67.172200000000004
 30
0.0
 11
142.78200000000001
 21
67.105000000000004
 31
0.0
  0
LINE
  5
18C
  8
0
 62
     7
 10
142.78200000000001
 20
67.105000000000004
 30
0.0
 11
142.08899999999991
 21
67.133300000000006
 31
0.0
  0
LINE
  5
18D
  8
0
 62
     7
 10
142.08899999999991
 20
67.133300000000006
 30
0.0
 11
141.41099999999989
 21
67.272499999999994
 31
0.0
  0
LINE
  5
18E
  8
0
 62
     7
 10
141.41099999999989
 20
67.272499999999994
 30
0.0
 11
140.73400000000001
 21
67.545000000000002
 31
0.0
  0
LINE
  5
18F
  8
0
 62
     7
 10
140.73400000000001
 20
67.545000000000002
 30
0.0
 11
140.12299999999991
 21
67.940799999999996
 31
0.0
  0
LINE
  5
190
  8
0
 62
     7
 10
140.12299999999991
 20
67.940799999999996
 30
0.0
 11
139.6579999999999
 21
68.390699999999995
 31
0.0
  0
LINE
  5
191
  8
0
 62
     7
 10
139.6579999999999
 20
68.390699999999995
 30
0.0
 11
139.2889999999999
 21
68.921999999999997
 31
0.0
  0
LINE
  5
192
  8
0
 62
     7
 10
139.2889999999999
 20
68.921999999999997
 30
0.0
 11
138.99000000000001
 21
69.763300000000001
 31
0.0
  0
LINE
  5
193
  8
0
 62
     7
 10
138.99000000000001
 20
69.763300000000001
 30
0.0
 11
138.95400000000001
 21
70.166399999999996
 31
0.0
  0
LINE
  5
194
  8
0
 62
     7
 10
146.34700000000001
 20
219.95400000000001
 30
0.0
 11
146.3429999999999
 21
219.52199999999999
 31
0.0
  0
ARC
  5
195
  8
0
  6
AIGENLINE001
 62
     7
 10
142.58893499999999
 20
226.22707999999989
 30
0.0
 40
0.8439250000000002
 50
2.104884999999999
 51
87.895105000000001
  0
ARC
  5
196
  8
0
  6
AIGENLINE001
 62
     7
 10
142.588596
 20
226.28905399999991
 30
0.0
 40
0.8442620000000001
 50
272.12705499999993
 51
357.89724799999999
  0
ARC
  5
197
  8
0
  6
AIGENLINE001
 62
     7
 10
142.6509519999999
 20
226.28873899999999
 30
0.0
 40
0.843936
 50
182.0822189999999
 51
267.89351799999997
  0
ARC
  5
198
  8
0
  6
AIGENLINE001
 62
     7
 10
142.65091699999991
 20
226.22709
 30
0.0
 40
0.8439140000000001
 50
92.104212000000004
 51
177.895759
  0
ARC
  5
199
  8
0
  6
AIGENLINE001
 62
     7
 10
142.58893499999999
 20
218.72705999999999
 30
0.0
 40
0.8439250000000002
 50
2.104884999999999
 51
87.895105000000001
  0
ARC
  5
19A
  8
0
  6
AIGENLINE001
 62
     7
 10
142.588596
 20
218.78903299999999
 30
0.0
 40
0.8442620000000001
 50
272.12705499999993
 51
357.89724799999999
  0
ARC
  5
19B
  8
0
  6
AIGENLINE001
 62
     7
 10
142.6509519999999
 20
218.78871899999999
 30
0.0
 40
0.843936
 50
182.0822189999999
 51
267.89351799999997
  0
ARC
  5
19C
  8
0
  6
AIGENLINE001
 62
     7
 10
142.65091699999991
 20
218.72707
 30
0.0
 40
0.8439140000000001
 50
92.104212000000004
 51
177.895759
  0
LINE
  5
19D
  8
0
  6
AIGENLINE002
 62
     7
 10
142.62
 20
225.11299999999989
 30
0.0
 11
142.62
 21
227.40299999999991
 31
0.0
  0
LINE
  5
19E
  8
0
  6
AIGENLINE002
 62
     7
 10
141.47499999999991
 20
226.2579999999999
 30
0.0
 11
143.7649999999999
 21
226.2579999999999
 31
0.0
  0
LINE
  5
19F
  8
0
  6
AIGENLINE002
 62
     7
 10
142.62
 20
217.613
 30
0.0
 11
142.62
 21
219.90299999999999
 31
0.0
  0
LINE
  5
1A0
  8
0
  6
AIGENLINE002
 62
     7
 10
141.47499999999991
 20
218.75800000000001
 30
0.0
 11
143.7649999999999
 21
218.75800000000001
 31
0.0
  0
ARC
  5
1A1
  8
0
  6
AIGENLINE001
 62
     7
 10
142.58893499999999
 20
75.768129000000002
 30
0.0
 40
0.8439250000000002
 50
2.104884999999999
 51
87.895105000000001
  0
ARC
  5
1A2
  8
0
  6
AIGENLINE001
 62
     7
 10
142.58893499999999
 20
75.830122000000003
 30
0.0
 40
0.8439250000000002
 50
272.104895
 51
357.89511499999992
  0
ARC
  5
1A3
  8
0
  6
AIGENLINE001
 62
     7
 10
142.65092699999991
 20
75.830122000000003
 30
0.0
 40
0.8439239999999999
 50
182.1048879999999
 51
267.89514199999991
  0
ARC
  5
1A4
  8
0
  6
AIGENLINE001
 62
     7
 10
142.65092699999991
 20
75.768129000000002
 30
0.0
 40
0.8439239999999999
 50
92.104857999999993
 51
177.89511200000001
  0
ARC
  5
1A5
  8
0
  6
AIGENLINE001
 62
     7
 10
142.58893499999999
 20
68.268108999999995
 30
0.0
 40
0.8439250000000002
 50
2.104884999999999
 51
87.895105000000001
  0
ARC
  5
1A6
  8
0
  6
AIGENLINE001
 62
     7
 10
142.58893499999999
 20
68.330101999999997
 30
0.0
 40
0.8439250000000002
 50
272.104895
 51
357.89511499999992
  0
ARC
  5
1A7
  8
0
  6
AIGENLINE001
 62
     7
 10
142.65092699999991
 20
68.330100999999999
 30
0.0
 40
0.8439239999999999
 50
182.1048879999999
 51
267.89514199999991
  0
ARC
  5
1A8
  8
0
  6
AIGENLINE001
 62
     7
 10
142.65092699999991
 20
68.268108999999995
 30
0.0
 40
0.8439239999999999
 50
92.104857999999993
 51
177.89511200000001
  0
LINE
  5
1A9
  8
0
  6
AIGENLINE002
 62
     7
 10
142.62
 20
74.653999999999996
 30
0.0
 11
142.62
 21
76.944299999999998
 31
0.0
  0
LINE
  5
1AA
  8
0
  6
AIGENLINE002
 62
     7
 10
141.47499999999991
 20
75.799099999999996
 30
0.0
 11
143.7649999999999
 21
75.799099999999996
 31
0.0
  0
LINE
  5
1AB
  8
0
  6
AIGENLINE002
 62
     7
 10
142.62
 20
67.153899999999993
 30
0.0
 11
142.62
 21
69.444299999999998
 31
0.0
  0
LINE
  5
1AC
  8
0
  6
AIGENLINE002
 62
     7
 10
141.47499999999991
 20
68.299099999999996
 30
0.0
 11
143.7649999999999
 21
68.299099999999996
 31
0.0
  0
LINE
  5
1AD
  8
0
 62
     7
 10
77.305300000000003
 20
226.78299999999999
 30
0.0
 11
77.728399999999993
 21
225.733
 31
0.0
  0
LINE
  5
1AE
  8
0
 62
     7
 10
77.903400000000005
 20
226.78299999999999
 30
0.0
 11
78.326499999999996
 21
225.733
 31
0.0
  0
LINE
  5
1AF
  8
0
 62
     7
 10
78.502200000000002
 20
226.78299999999999
 30
0.0
 11
78.924499999999995
 21
225.733
 31
0.0
  0
LINE
  5
1B0
  8
0
 62
     7
 10
79.100200000000001
 20
226.78299999999999
 30
0.0
 11
79.523300000000006
 21
225.733
 31
0.0
  0
LINE
  5
1B1
  8
0
 62
     7
 10
79.698300000000003
 20
226.78299999999999
 30
0.0
 11
80.121399999999994
 21
225.733
 31
0.0
  0
LINE
  5
1B2
  8
0
 62
     7
 10
80.296400000000006
 20
226.78299999999999
 30
0.0
 11
80.719399999999993
 21
225.733
 31
0.0
  0
LINE
  5
1B3
  8
0
 62
     7
 10
80.895099999999999
 20
226.78299999999999
 30
0.0
 11
81.317499999999995
 21
225.733
 31
0.0
  0
LINE
  5
1B4
  8
0
 62
     7
 10
81.493200000000016
 20
226.78299999999999
 30
0.0
 11
81.916300000000007
 21
225.733
 31
0.0
  0
LINE
  5
1B5
  8
0
 62
     7
 10
86.278499999999994
 20
226.78299999999999
 30
0.0
 11
86.701499999999996
 21
225.733
 31
0.0
  0
LINE
  5
1B6
  8
0
 62
     7
 10
85.680099999999996
 20
226.78299999999999
 30
0.0
 11
86.103499999999997
 21
225.733
 31
0.0
  0
LINE
  5
1B7
  8
0
 62
     7
 10
85.081999999999994
 20
226.78299999999999
 30
0.0
 11
85.505099999999999
 21
225.733
 31
0.0
  0
LINE
  5
1B8
  8
0
 62
     7
 10
84.483900000000006
 20
226.78299999999999
 30
0.0
 11
84.907000000000025
 21
225.733
 31
0.0
  0
LINE
  5
1B9
  8
0
 62
     7
 10
83.885800000000003
 20
226.78299999999999
 30
0.0
 11
84.308899999999994
 21
225.733
 31
0.0
  0
LINE
  5
1BA
  8
0
 62
     7
 10
83.287800000000004
 20
226.78299999999999
 30
0.0
 11
83.710800000000006
 21
225.733
 31
0.0
  0
LINE
  5
1BB
  8
0
 62
     7
 10
82.091300000000004
 20
226.78299999999999
 30
0.0
 11
82.514300000000006
 21
225.733
 31
0.0
  0
LINE
  5
1BC
  8
0
 62
     7
 10
82.689400000000006
 20
226.78299999999999
 30
0.0
 11
83.112399999999994
 21
225.733
 31
0.0
  0
LINE
  5
1BD
  8
0
 62
     7
 10
77.438699999999997
 20
226.50899999999999
 30
0.0
 11
76.823000000000008
 21
226.2579999999999
 31
0.0
  0
LINE
  5
1BE
  8
0
 62
     7
 10
77.438699999999997
 20
226.00700000000001
 30
0.0
 11
76.823000000000008
 21
226.2579999999999
 31
0.0
  0
LINE
  5
1BF
  8
0
 62
     7
 10
77.438699999999997
 20
226.00700000000001
 30
0.0
 11
86.823499999999996
 21
226.00700000000001
 31
0.0
  0
LINE
  5
1C0
  8
0
 62
     7
 10
77.438699999999997
 20
226.50899999999999
 30
0.0
 11
86.823499999999996
 21
226.50899999999999
 31
0.0
  0
LINE
  5
1C1
  8
0
  6
AIGENLINE002
 62
     7
 10
75.779799999999994
 20
226.2579999999999
 30
0.0
 11
88.127799999999993
 21
226.2579999999999
 31
0.0
  0
LINE
  5
1C2
  8
0
 62
     7
 10
77.305300000000003
 20
219.2829999999999
 30
0.0
 11
77.728399999999993
 21
218.23299999999989
 31
0.0
  0
LINE
  5
1C3
  8
0
 62
     7
 10
77.903400000000005
 20
219.2829999999999
 30
0.0
 11
78.326499999999996
 21
218.23299999999989
 31
0.0
  0
LINE
  5
1C4
  8
0
 62
     7
 10
78.502200000000002
 20
219.2829999999999
 30
0.0
 11
78.924499999999995
 21
218.23299999999989
 31
0.0
  0
LINE
  5
1C5
  8
0
 62
     7
 10
79.100200000000001
 20
219.2829999999999
 30
0.0
 11
79.523300000000006
 21
218.23299999999989
 31
0.0
  0
LINE
  5
1C6
  8
0
 62
     7
 10
79.698300000000003
 20
219.2829999999999
 30
0.0
 11
80.121399999999994
 21
218.23299999999989
 31
0.0
  0
LINE
  5
1C7
  8
0
 62
     7
 10
80.296400000000006
 20
219.2829999999999
 30
0.0
 11
80.719399999999993
 21
218.23299999999989
 31
0.0
  0
LINE
  5
1C8
  8
0
 62
     7
 10
80.895099999999999
 20
219.2829999999999
 30
0.0
 11
81.317499999999995
 21
218.23299999999989
 31
0.0
  0
LINE
  5
1C9
  8
0
 62
     7
 10
81.493200000000016
 20
219.2829999999999
 30
0.0
 11
81.916300000000007
 21
218.23299999999989
 31
0.0
  0
LINE
  5
1CA
  8
0
 62
     7
 10
86.278499999999994
 20
219.2829999999999
 30
0.0
 11
86.701499999999996
 21
218.23299999999989
 31
0.0
  0
LINE
  5
1CB
  8
0
 62
     7
 10
85.680099999999996
 20
219.2829999999999
 30
0.0
 11
86.103499999999997
 21
218.23299999999989
 31
0.0
  0
LINE
  5
1CC
  8
0
 62
     7
 10
85.081999999999994
 20
219.2829999999999
 30
0.0
 11
85.505099999999999
 21
218.23299999999989
 31
0.0
  0
LINE
  5
1CD
  8
0
 62
     7
 10
84.483900000000006
 20
219.2829999999999
 30
0.0
 11
84.907000000000025
 21
218.23299999999989
 31
0.0
  0
LINE
  5
1CE
  8
0
 62
     7
 10
83.885800000000003
 20
219.2829999999999
 30
0.0
 11
84.308899999999994
 21
218.23299999999989
 31
0.0
  0
LINE
  5
1CF
  8
0
 62
     7
 10
83.287800000000004
 20
219.2829999999999
 30
0.0
 11
83.710800000000006
 21
218.23299999999989
 31
0.0
  0
LINE
  5
1D0
  8
0
 62
     7
 10
82.091300000000004
 20
219.2829999999999
 30
0.0
 11
82.514300000000006
 21
218.23299999999989
 31
0.0
  0
LINE
  5
1D1
  8
0
 62
     7
 10
82.689400000000006
 20
219.2829999999999
 30
0.0
 11
83.112399999999994
 21
218.23299999999989
 31
0.0
  0
LINE
  5
1D2
  8
0
 62
     7
 10
77.438699999999997
 20
219.00899999999999
 30
0.0
 11
76.823000000000008
 21
218.75800000000001
 31
0.0
  0
LINE
  5
1D3
  8
0
 62
     7
 10
77.438699999999997
 20
218.50700000000001
 30
0.0
 11
76.823000000000008
 21
218.75800000000001
 31
0.0
  0
LINE
  5
1D4
  8
0
 62
     7
 10
77.438699999999997
 20
218.50700000000001
 30
0.0
 11
86.823499999999996
 21
218.50700000000001
 31
0.0
  0
LINE
  5
1D5
  8
0
 62
     7
 10
77.438699999999997
 20
219.00899999999999
 30
0.0
 11
86.823499999999996
 21
219.00899999999999
 31
0.0
  0
LINE
  5
1D6
  8
0
  6
AIGENLINE002
 62
     7
 10
75.779799999999994
 20
218.75800000000001
 30
0.0
 11
88.127799999999993
 21
218.75800000000001
 31
0.0
  0
LINE
  5
1D7
  8
0
 62
     7
 10
81.141499999999994
 20
228.65199999999999
 30
0.0
 11
79.820999999999984
 21
226.78299999999999
 31
0.0
  0
LINE
  5
1D8
  8
0
 62
     7
 10
79.820999999999984
 20
226.78299999999999
 30
0.0
 11
80.030100000000004
 21
229.06200000000001
 31
0.0
  0
LINE
  5
1D9
  8
0
 62
     7
 10
80.030100000000004
 20
229.06200000000001
 30
0.0
 11
81.141499999999994
 21
228.65199999999999
 31
0.0
  0
LINE
  5
1DA
  8
0
 62
     7
 10
79.820999999999984
 20
226.78299999999999
 30
0.0
 11
86.070099999999996
 21
244.3709999999999
 31
0.0
  0
LINE
  5
1DB
  8
0
 62
     7
 10
43.001999999999988
 20
244.3709999999999
 30
0.0
 11
86.070099999999996
 21
244.3709999999999
 31
0.0
  0
LINE
  5
1DC
  8
0
 62
     7
 10
73.106099999999998
 20
68.488200000000006
 30
0.0
 11
72.513499999999993
 21
66.277900000000002
 31
0.0
  0
LINE
  5
1DD
  8
0
 62
     7
 10
72.513499999999993
 20
66.277900000000002
 30
0.0
 11
71.921000000000006
 21
68.488200000000006
 31
0.0
  0
LINE
  5
1DE
  8
0
 62
     7
 10
71.921000000000006
 20
68.488200000000006
 30
0.0
 11
73.106099999999998
 21
68.488200000000006
 31
0.0
  0
LINE
  5
1DF
  8
0
 62
     7
 10
64.953900000000004
 20
70.509500000000003
 30
0.0
 11
64.3613
 21
68.299099999999996
 31
0.0
  0
LINE
  5
1E0
  8
0
 62
     7
 10
64.3613
 20
68.299099999999996
 30
0.0
 11
63.768799999999992
 21
70.509500000000003
 31
0.0
  0
LINE
  5
1E1
  8
0
 62
     7
 10
63.768799999999992
 20
70.509500000000003
 30
0.0
 11
64.953900000000004
 21
70.509500000000003
 31
0.0
  0
LINE
  5
1E2
  8
0
 62
     7
 10
71.921599999999998
 20
75.608999999999995
 30
0.0
 11
72.513499999999993
 21
77.819999999999993
 31
0.0
  0
LINE
  5
1E3
  8
0
 62
     7
 10
72.513499999999993
 20
77.819999999999993
 30
0.0
 11
73.106099999999998
 21
75.608999999999995
 31
0.0
  0
LINE
  5
1E4
  8
0
 62
     7
 10
73.106099999999998
 20
75.608999999999995
 30
0.0
 11
71.921599999999998
 21
75.608999999999995
 31
0.0
  0
LINE
  5
1E5
  8
0
 62
     7
 10
63.783900000000003
 20
73.588000000000008
 30
0.0
 11
64.375799999999998
 21
75.799099999999996
 31
0.0
  0
LINE
  5
1E6
  8
0
 62
     7
 10
64.375799999999998
 20
75.799099999999996
 30
0.0
 11
64.968400000000003
 21
73.588000000000008
 31
0.0
  0
LINE
  5
1E7
  8
0
 62
     7
 10
64.968400000000003
 20
73.588000000000008
 30
0.0
 11
63.783900000000003
 21
73.588000000000008
 31
0.0
  0
LINE
  5
1E8
  8
0
 62
     7
 10
75.079800000000006
 20
68.299099999999996
 30
0.0
 11
63.675800000000002
 21
68.299099999999996
 31
0.0
  0
LINE
  5
1E9
  8
0
 62
     7
 10
72.513499999999993
 20
77.819999999999993
 30
0.0
 11
72.513499999999993
 21
66.277900000000002
 31
0.0
  0
LINE
  5
1EA
  8
0
 62
     7
 10
86.123500000000007
 20
77.819999999999993
 30
0.0
 11
71.813500000000005
 21
77.819999999999993
 31
0.0
  0
LINE
  5
1EB
  8
0
 62
     7
 10
75.079800000000006
 20
75.799099999999996
 30
0.0
 11
63.675800000000002
 21
75.799099999999996
 31
0.0
  0
LINE
  5
1EC
  8
0
 62
     7
 10
64.953900000000004
 20
220.96799999999999
 30
0.0
 11
64.3613
 21
218.75800000000001
 31
0.0
  0
LINE
  5
1ED
  8
0
 62
     7
 10
64.3613
 20
218.75800000000001
 30
0.0
 11
63.768799999999992
 21
220.96799999999999
 31
0.0
  0
LINE
  5
1EE
  8
0
 62
     7
 10
63.768799999999992
 20
220.96799999999999
 30
0.0
 11
64.953900000000004
 21
220.96799999999999
 31
0.0
  0
LINE
  5
1EF
  8
0
 62
     7
 10
63.783900000000003
 20
224.047
 30
0.0
 11
64.375799999999998
 21
226.2579999999999
 31
0.0
  0
LINE
  5
1F0
  8
0
 62
     7
 10
64.375799999999998
 20
226.2579999999999
 30
0.0
 11
64.968400000000003
 21
224.047
 31
0.0
  0
LINE
  5
1F1
  8
0
 62
     7
 10
64.968400000000003
 20
224.047
 30
0.0
 11
63.783900000000003
 21
224.047
 31
0.0
  0
LINE
  5
1F2
  8
0
 62
     7
 10
64.368899999999996
 20
68.299099999999996
 30
0.0
 11
64.368899999999996
 21
226.2579999999999
 31
0.0
  0
LINE
  5
1F3
  8
0
 62
     7
 10
51.217199999999991
 20
226.06899999999999
 30
0.0
 11
51.809699999999999
 21
228.279
 31
0.0
  0
LINE
  5
1F4
  8
0
 62
     7
 10
51.809699999999999
 20
228.279
 30
0.0
 11
52.402299999999997
 21
226.06899999999999
 31
0.0
  0
LINE
  5
1F5
  8
0
 62
     7
 10
52.402299999999997
 20
226.06899999999999
 30
0.0
 11
51.217199999999991
 21
226.06899999999999
 31
0.0
  0
LINE
  5
1F6
  8
0
 62
     7
 10
52.387099999999997
 20
68.488900000000001
 30
0.0
 11
51.79529999999999
 21
66.277900000000002
 31
0.0
  0
LINE
  5
1F7
  8
0
 62
     7
 10
51.79529999999999
 20
66.277900000000002
 30
0.0
 11
51.2027
 21
68.488900000000001
 31
0.0
  0
LINE
  5
1F8
  8
0
 62
     7
 10
51.2027
 20
68.488900000000001
 30
0.0
 11
52.387099999999997
 21
68.488900000000001
 31
0.0
  0
LINE
  5
1F9
  8
0
 62
     7
 10
51.802199999999999
 20
228.279
 30
0.0
 11
51.802199999999999
 21
66.277900000000002
 31
0.0
  0
LINE
  5
1FA
  8
0
 62
     7
 10
86.123500000000007
 20
228.279
 30
0.0
 11
51.095199999999991
 21
228.279
 31
0.0
  0
LINE
  5
1FB
  8
0
 62
     7
 10
86.123500000000007
 20
66.277900000000002
 30
0.0
 11
51.095199999999991
 21
66.277900000000002
 31
0.0
  0
LINE
  5
1FC
  8
0
 62
     7
 10
75.079800000000006
 20
218.75800000000001
 30
0.0
 11
63.675800000000002
 21
218.75800000000001
 31
0.0
  0
LINE
  5
1FD
  8
0
 62
     7
 10
75.079800000000006
 20
226.2579999999999
 30
0.0
 11
63.675800000000002
 21
226.2579999999999
 31
0.0
  0
LINE
  5
1FE
  8
0
 62
     7
 10
144.28499999999991
 20
233.45099999999991
 30
0.0
 11
146.49499999999989
 21
234.04300000000001
 31
0.0
  0
LINE
  5
1FF
  8
0
 62
     7
 10
146.49499999999989
 20
234.04300000000001
 30
0.0
 11
144.28499999999991
 21
234.636
 31
0.0
  0
LINE
  5
200
  8
0
 62
     7
 10
144.28499999999991
 20
234.636
 30
0.0
 11
144.28499999999991
 21
233.45099999999991
 31
0.0
  0
LINE
  5
201
  8
0
 62
     7
 10
140.95599999999999
 20
234.6209999999999
 30
0.0
 11
138.745
 21
234.029
 31
0.0
  0
LINE
  5
202
  8
0
 62
     7
 10
138.745
 20
234.029
 30
0.0
 11
140.95599999999999
 21
233.43599999999989
 31
0.0
  0
LINE
  5
203
  8
0
 62
     7
 10
140.95599999999999
 20
233.43599999999989
 30
0.0
 11
140.95599999999999
 21
234.6209999999999
 31
0.0
  0
LINE
  5
204
  8
0
 62
     7
 10
146.49499999999989
 20
234.03599999999989
 30
0.0
 11
138.745
 21
234.03599999999989
 31
0.0
  0
LINE
  5
205
  8
0
 62
     7
 10
138.745
 20
234.74299999999999
 30
0.0
 11
138.745
 21
226.13499999999991
 31
0.0
  0
LINE
  5
206
  8
0
 62
     7
 10
146.49499999999989
 20
234.74299999999999
 30
0.0
 11
146.49499999999989
 21
226.13499999999991
 31
0.0
  0
LINE
  5
207
  8
0
 62
     7
 10
89.033899999999988
 20
233.46499999999989
 30
0.0
 11
86.823499999999996
 21
234.05799999999999
 31
0.0
  0
LINE
  5
208
  8
0
 62
     7
 10
86.823499999999996
 20
234.05799999999999
 30
0.0
 11
89.033899999999988
 21
234.65000000000001
 31
0.0
  0
LINE
  5
209
  8
0
 62
     7
 10
89.033899999999988
 20
234.65000000000001
 30
0.0
 11
89.033899999999988
 21
233.46499999999989
 31
0.0
  0
LINE
  5
20A
  8
0
 62
     7
 10
107.1089999999999
 20
234.63499999999999
 30
0.0
 11
109.31999999999989
 21
234.04300000000001
 31
0.0
  0
LINE
  5
20B
  8
0
 62
     7
 10
109.31999999999989
 20
234.04300000000001
 30
0.0
 11
107.1089999999999
 21
233.45099999999991
 31
0.0
  0
LINE
  5
20C
  8
0
 62
     7
 10
107.1089999999999
 20
233.45099999999991
 30
0.0
 11
107.1089999999999
 21
234.63499999999999
 31
0.0
  0
LINE
  5
20D
  8
0
 62
     7
 10
86.823499999999996
 20
234.05000000000001
 30
0.0
 11
109.31999999999989
 21
234.05000000000001
 31
0.0
  0
LINE
  5
20E
  8
0
 62
     7
 10
86.823499999999996
 20
234.74299999999999
 30
0.0
 11
86.823499999999996
 21
228.9789999999999
 31
0.0
  0
LINE
  5
20F
  8
0
 62
     7
 10
109.31999999999989
 20
234.74299999999999
 30
0.0
 11
109.31999999999989
 21
228.16800000000001
 31
0.0
  0
TEXT
  5
210
  8
_________2
 62
     7
 10
138.7840208333333
 20
30.627400000000002
 30
0.0
 40
4.6583899999999989
  1
GE450760R
 41
0.5
 72
     1
 11
148.489
 21
30.627400000000002
 31
0.0
  0
TEXT
  5
211
  8
_________2
 62
     7
 10
138.7840208333333
 20
20.6266
 30
0.0
 40
4.6583899999999989
  1
GE450760R
 41
0.5
 72
     1
 11
148.489
 21
20.6266
 31
0.0
  0
LINE
  5
212
  8
_________2
 62
     7
 10
210.24000000000001
 20
148.93100000000001
 30
0.0
 11
188.49000000000001
 21
148.93100000000001
 31
0.0
  0
LINE
  5
213
  8
_________2
 62
     7
 10
105.2389999999999
 20
17.4282
 30
0.0
 11
105.2389999999999
 21
0.4482100000000001
 31
0.0
  0
LINE
  5
214
  8
_________2
 62
     7
 10
105.2389999999999
 20
297.44999999999987
 30
0.0
 11
105.2389999999999
 21
280.42999999999989
 31
0.0
  0
LINE
  5
215
  8
_________2
 62
     7
 10
21.988499999999991
 20
148.93100000000001
 30
0.0
 11
0.238058
 21
148.93100000000001
 31
0.0
  0
LINE
  5
216
  8
_________2
 62
     7
 10
81.679900000000004
 20
51.323999999999998
 30
0.0
 11
79.493700000000004
 21
51.323999999999998
 31
0.0
  0
LINE
  5
217
  8
_________2
 62
     7
 10
82.172600000000017
 20
51.323999999999998
 30
0.0
 11
81.920400000000001
 21
51.323999999999998
 31
0.0
  0
LINE
  5
218
  8
_________2
 62
     7
 10
82.665199999999984
 20
51.323999999999998
 30
0.0
 11
85.590100000000007
 21
51.323999999999998
 31
0.0
  0
LINE
  5
219
  8
_________2
 62
     7
 10
82.172600000000017
 20
51.323999999999998
 30
0.0
 11
82.424800000000005
 21
51.323999999999998
 31
0.0
  0
LINE
  5
21A
  8
_________2
 62
     7
 10
75.776399999999995
 20
51.323999999999998
 30
0.0
 11
73.589399999999998
 21
51.323999999999998
 31
0.0
  0
LINE
  5
21B
  8
_________2
 62
     7
 10
76.2684
 20
51.323999999999998
 30
0.0
 11
76.016900000000007
 21
51.323999999999998
 31
0.0
  0
LINE
  5
21C
  8
_________2
 62
     7
 10
76.2684
 20
51.816600000000001
 30
0.0
 11
76.2684
 21
54.003599999999999
 31
0.0
  0
LINE
  5
21D
  8
_________2
 62
     7
 10
76.2684
 20
51.323999999999998
 30
0.0
 11
76.2684
 21
51.576500000000003
 31
0.0
  0
LINE
  5
21E
  8
_________2
 62
     7
 10
76.76100000000001
 20
51.323999999999998
 30
0.0
 11
78.947999999999993
 21
51.323999999999998
 31
0.0
  0
LINE
  5
21F
  8
_________2
 62
     7
 10
76.2684
 20
51.323999999999998
 30
0.0
 11
76.520499999999998
 21
51.323999999999998
 31
0.0
  0
LINE
  5
220
  8
_________2
 62
     7
 10
76.2684
 20
50.832000000000001
 30
0.0
 11
76.2684
 21
48.645400000000002
 31
0.0
  0
LINE
  5
221
  8
_________2
 62
     7
 10
76.2684
 20
51.323999999999998
 30
0.0
 11
76.2684
 21
51.072499999999998
 31
0.0
  0
LINE
  5
222
  8
_________2
 62
     7
 10
79.979399999999984
 20
50.104399999999998
 30
0.0
 11
85.157399999999996
 21
49.239699999999999
 31
0.0
  0
LINE
  5
223
  8
_________2
 62
     7
 10
79.979399999999984
 20
52.543900000000001
 30
0.0
 11
85.157399999999996
 21
53.409300000000002
 31
0.0
  0
LINE
  5
224
  8
_________2
 62
     7
 10
85.157399999999996
 20
49.239699999999999
 30
0.0
 11
85.157399999999996
 21
53.409300000000002
 31
0.0
  0
LINE
  5
225
  8
_________2
 62
     7
 10
79.979399999999984
 20
50.104399999999998
 30
0.0
 11
79.979399999999984
 21
52.543900000000001
 31
0.0
  0
ARC
  5
226
  8
_________2
 62
     7
 10
76.221766000000002
 20
51.277037
 30
0.0
 40
1.267714
 50
2.1220840000000001
 51
87.894083999999992
  0
ARC
  5
227
  8
_________2
 62
     7
 10
76.315297000000001
 20
51.277389999999997
 30
0.0
 40
1.267374999999999
 50
92.122849999999985
 51
177.893304
  0
ARC
  5
228
  8
_________2
 62
     7
 10
76.315273000000005
 20
51.370902000000001
 30
0.0
 40
1.267363
 50
182.12181499999991
 51
267.87821400000001
  0
ARC
  5
229
  8
_________2
 62
     7
 10
76.221461000000005
 20
51.371583999999999
 30
0.0
 40
1.2680439999999991
 50
272.11916400000001
 51
357.84848499999993
  0
ARC
  5
22A
  8
_________2
 62
     7
 10
76.187981999999991
 20
51.243968000000002
 30
0.0
 40
2.1668310000000002
 50
2.1161439999999989
 51
87.874379000000005
  0
ARC
  5
22B
  8
_________2
 62
     7
 10
76.348411999999996
 20
51.244990000000001
 30
0.0
 40
2.1657980000000001
 50
92.118487999999999
 51
177.90988599999989
  0
ARC
  5
22C
  8
_________2
 62
     7
 10
76.348354
 20
51.403983000000011
 30
0.0
 40
2.1657779999999991
 50
182.11700400000001
 51
267.88302499999992
  0
ARC
  5
22D
  8
_________2
 62
     7
 10
76.188378999999983
 20
51.404665999999992
 30
0.0
 40
2.1664590000000001
 50
272.11546800000002
 51
357.86560400000002
  0
TEXT
  5
22E
  8
_________2
 62
     7
 10
109.5439999999999
 20
23.198699999999992
 30
0.0
 40
3.660169999999999
  1
図番
 41
0.5
  0
LINE
  5
22F
  8
_________2
 62
     7
 10
108.4889999999999
 20
27.428000000000001
 30
0.0
 11
188.49000000000001
 21
27.428000000000001
 31
0.0
  0
TEXT
  5
230
  8
_________2
 62
     7
 10
109.5439999999999
 20
33.198500000000003
 30
0.0
 40
3.660169999999999
  1
品番
 41
0.5
  0
TEXT
  5
231
  8
_________2
 62
     7
 10
109.5439999999999
 20
53.337699999999998
 30
0.0
 40
3.660169999999999
  1
名称
 41
0.5
  0
TEXT
  5
232
  8
_________2
 62
     7
 10
96.504545833333353
 20
48.341500000000011
 30
0.0
 40
4.3256500000000004
  1
mm
 41
0.5
 72
     1
 11
98.306899999999999
 21
48.341500000000011
 31
0.0
  0
TEXT
  5
233
  8
_________2
 62
     7
 10
90.582099999999997
 20
53.337699999999998
 30
0.0
 40
3.660169999999999
  1
単位
 41
0.5
  0
TEXT
  5
234
  8
_________2
 62
     7
 10
90.582099999999997
 20
40.930100000000003
 30
0.0
 40
3.660169999999999
  1
尺度
 41
0.5
  0
TEXT
  5
235
  8
_________2
 62
     7
 10
94.861526666666677
 20
34.73749999999999
 30
0.0
 40
4.3256500000000004
  1
1 ： 4
 41
0.5
 72
     1
 11
98.898799999999994
 21
34.73749999999999
 31
0.0
  0
TEXT
  5
236
  8
_________2
 62
     7
 10
114.11799999999999
 20
45.7453
 30
0.0
 40
4.6583899999999989
  1
ウィンク　タオルバー
 41
0.5
  0
TEXT
  5
237
  8
_________2
 62
     7
 10
44.01748083333333
 20
35.122599999999991
 30
0.0
 40
4.3256500000000004
  1
早川
 41
0.5
 72
     1
 11
46.252400000000002
 21
35.122599999999991
 31
0.0
  0
TEXT
  5
238
  8
_________2
 62
     7
 10
25.371386666666659
 20
35.122599999999991
 30
0.0
 40
4.3256500000000004
  1
菅原
 41
0.5
 72
     1
 11
27.6784
 21
35.122599999999991
 31
0.0
  0
TEXT
  5
239
  8
_________2
 62
     7
 10
72.724699999999999
 20
34.73749999999999
 30
0.0
 40
4.3256500000000004
  1
15.02.25
 41
0.5
  0
TEXT
  5
23A
  8
_________2
 62
     7
 10
71.531999999999996
 20
40.930100000000003
 30
0.0
 40
3.660169999999999
  1
日付
 41
0.5
  0
TEXT
  5
23B
  8
_________2
 62
     7
 10
34.578299999999992
 20
40.930100000000003
 30
0.0
 40
3.660169999999999
  1
検図
 41
0.5
  0
TEXT
  5
23C
  8
_________2
 62
     7
 10
22.960000000000001
 20
26.730699999999999
 30
0.0
 40
3.660169999999999
  1
備考
 41
0.5
  0
TEXT
  5
23D
  8
_________2
 62
     7
 10
22.960000000000001
 20
40.930100000000003
 30
0.0
 40
3.660169999999999
  1
製図
 41
0.5
  0
TEXT
  5
23E
  8
_________2
 62
     7
 10
25.533730666666681
 20
49.456000000000003
 30
0.0
 40
5.3238799999999991
  1
セラトレーディング株式会社
 41
0.5
 72
     1
 11
46.119399999999992
 21
49.456000000000003
 31
0.0
  0
LINE
  5
23F
  8
_________2
 62
     7
 10
188.49000000000001
 20
17.4282
 30
0.0
 11
21.988499999999991
 21
17.4282
 31
0.0
  0
LINE
  5
240
  8
_________2
 62
     7
 10
21.988499999999991
 20
17.4282
 30
0.0
 11
21.988499999999991
 21
280.42999999999989
 31
0.0
  0
LINE
  5
241
  8
_________2
 62
     7
 10
21.988499999999991
 20
280.42999999999989
 30
0.0
 11
188.49000000000001
 21
280.42999999999989
 31
0.0
  0
LINE
  5
242
  8
_________2
 62
     7
 10
188.49000000000001
 20
280.42999999999989
 30
0.0
 11
188.49000000000001
 21
17.4282
 31
0.0
  0
LINE
  5
243
  8
_________2
 62
     7
 10
70.488799999999998
 20
30.9285
 30
0.0
 11
70.488799999999998
 21
57.428400000000011
 31
0.0
  0
LINE
  5
244
  8
_________2
 62
     7
 10
89.488600000000005
 20
30.9285
 30
0.0
 11
89.488600000000005
 21
57.428400000000011
 31
0.0
  0
LINE
  5
245
  8
_________2
 62
     7
 10
108.4889999999999
 20
17.4282
 30
0.0
 11
108.4889999999999
 21
57.428400000000011
 31
0.0
  0
LINE
  5
246
  8
_________2
 62
     7
 10
33.488300000000002
 20
30.9285
 30
0.0
 11
33.488300000000002
 21
44.928499999999993
 31
0.0
  0
LINE
  5
247
  8
_________2
 62
     7
 10
21.988499999999991
 20
30.9285
 30
0.0
 11
108.4889999999999
 21
30.9285
 31
0.0
  0
LINE
  5
248
  8
_________2
 62
     7
 10
21.988499999999991
 20
44.928499999999993
 30
0.0
 11
108.4889999999999
 21
44.928499999999993
 31
0.0
  0
LINE
  5
249
  8
_________2
 62
     7
 10
108.4889999999999
 20
37.427799999999991
 30
0.0
 11
188.49000000000001
 21
37.427799999999991
 31
0.0
  0
LINE
  5
24A
  8
_________2
 62
     7
 10
21.988499999999991
 20
57.428400000000011
 30
0.0
 11
188.49000000000001
 21
57.428400000000011
 31
0.0
  0
ENDSEC
  0
EOF
