  0
SECTION
  2
HEADER
  9
$ACADVER
  1
AC1009
  9
$INSBASE
 10
0.0
 20
0.0
 30
0.0
  9
$EXTMIN
 10
0.238058
 20
0.4482100000000001
 30
0.0
  9
$EXTMAX
 10
210.24000000000001
 20
297.44999999999987
 30
0.0
  9
$LIMMIN
 10
0.0
 20
0.0
  9
$LIMMAX
 10
12.0
 20
9.0
  9
$ORTHOMODE
 70
     0
  9
$REGENMODE
 70
     1
  9
$FILLMODE
 70
     1
  9
$QTEXTMODE
 70
     0
  9
$MIRRTEXT
 70
     1
  9
$DRAGMODE
 70
     2
  9
$LTSCALE
 40
1.0
  9
$OSMODE
 70
    37
  9
$ATTMODE
 70
     1
  9
$TEXTSIZE
 40
0.0
  9
$TRACEWID
 40
0.05
  9
$TEXTSTYLE
  7
STANDARD
  9
$CLAYER
  8
0
  9
$CELTYPE
  6
CONTINUOUS
  9
$CECOLOR
 62
   256
  9
$DIMSCALE
 40
1.0
  9
$DIMASZ
 40
0.18
  9
$DIMEXO
 40
0.0625
  9
$DIMDLI
 40
0.38
  9
$DIMRND
 40
0.0
  9
$DIMDLE
 40
0.0
  9
$DIMEXE
 40
0.18
  9
$DIMTP
 40
0.0
  9
$DIMTM
 40
0.0
  9
$DIMTXT
 40
0.18
  9
$DIMCEN
 40
0.09
  9
$DIMTSZ
 40
0.0
  9
$DIMTOL
 70
     0
  9
$DIMLIM
 70
     0
  9
$DIMTIH
 70
     1
  9
$DIMTOH
 70
     1
  9
$DIMSE1
 70
     0
  9
$DIMSE2
 70
     0
  9
$DIMTAD
 70
     0
  9
$DIMZIN
 70
     0
  9
$DIMBLK
  1

  9
$DIMASO
 70
     1
  9
$DIMSHO
 70
     1
  9
$DIMPOST
  1

  9
$DIMAPOST
  1

  9
$DIMALT
 70
     0
  9
$DIMALTD
 70
     2
  9
$DIMALTF
 40
25.399999999999999
  9
$DIMLFAC
 40
1.0
  9
$DIMTOFL
 70
     0
  9
$DIMTVP
 40
0.0
  9
$DIMTIX
 70
     0
  9
$DIMSOXD
 70
     0
  9
$DIMSAH
 70
     0
  9
$DIMBLK1
  1

  9
$DIMBLK2
  1

  9
$DIMSTYLE
  2
STANDARD
  9
$DIMCLRD
 70
     0
  9
$DIMCLRE
 70
     0
  9
$DIMCLRT
 70
     0
  9
$DIMTFAC
 40
1.0
  9
$DIMGAP
 40
0.09
  9
$LUNITS
 70
     2
  9
$LUPREC
 70
     4
  9
$SKETCHINC
 40
0.1
  9
$FILLETRAD
 40
0.0
  9
$AUNITS
 70
     0
  9
$AUPREC
 70
     0
  9
$MENU
  1
.
  9
$ELEVATION
 40
0.0
  9
$PELEVATION
 40
0.0
  9
$THICKNESS
 40
0.0
  9
$LIMCHECK
 70
     0
  9
$BLIPMODE
 70
     0
  9
$CHAMFERA
 40
0.0
  9
$CHAMFERB
 40
0.0
  9
$SKPOLY
 70
     0
  9
$TDCREATE
 40
2444972.375
  9
$TDUPDATE
 40
2457058.2485576961
  9
$TDINDWG
 40
0.0000067824
  9
$TDUSRTIMER
 40
0.0000067824
  9
$USRTIMER
 70
     1
  9
$ANGBASE
 50
0.0
  9
$ANGDIR
 70
     0
  9
$PDMODE
 70
     0
  9
$PDSIZE
 40
0.0
  9
$PLINEWID
 40
0.0
  9
$COORDS
 70
     1
  9
$SPLFRAME
 70
     0
  9
$SPLINETYPE
 70
     6
  9
$SPLINESEGS
 70
     8
  9
$ATTDIA
 70
     0
  9
$ATTREQ
 70
     1
  9
$HANDLING
 70
     1
  9
$HANDSEED
  5
34F
  9
$SURFTAB1
 70
     6
  9
$SURFTAB2
 70
     6
  9
$SURFTYPE
 70
     6
  9
$SURFU
 70
     6
  9
$SURFV
 70
     6
  9
$UCSNAME
  2

  9
$UCSORG
 10
0.0
 20
0.0
 30
0.0
  9
$UCSXDIR
 10
1.0
 20
0.0
 30
0.0
  9
$UCSYDIR
 10
0.0
 20
1.0
 30
0.0
  9
$PUCSNAME
  2

  9
$PUCSORG
 10
0.0
 20
0.0
 30
0.0
  9
$PUCSXDIR
 10
1.0
 20
0.0
 30
0.0
  9
$PUCSYDIR
 10
0.0
 20
1.0
 30
0.0
  9
$USERI1
 70
     0
  9
$USERI2
 70
     0
  9
$USERI3
 70
     0
  9
$USERI4
 70
     0
  9
$USERI5
 70
     0
  9
$USERR1
 40
0.0
  9
$USERR2
 40
0.0
  9
$USERR3
 40
0.0
  9
$USERR4
 40
0.0
  9
$USERR5
 40
0.0
  9
$WORLDVIEW
 70
     1
  9
$SHADEDGE
 70
     3
  9
$SHADEDIF
 70
    70
  9
$TILEMODE
 70
     1
  9
$MAXACTVP
 70
    48
  9
$PLIMCHECK
 70
     0
  9
$PEXTMIN
 10
1.0000000000000000E+020
 20
1.0000000000000000E+020
 30
1.0000000000000000E+020
  9
$PEXTMAX
 10
-1.0000000000000000E+020
 20
-1.0000000000000000E+020
 30
-1.0000000000000000E+020
  9
$PLIMMIN
 10
0.0
 20
0.0
  9
$PLIMMAX
 10
12.0
 20
9.0
  9
$UNITMODE
 70
     0
  9
$VISRETAIN
 70
     1
  9
$PLINEGEN
 70
     0
  9
$PSLTSCALE
 70
     1
  0
ENDSEC
  0
SECTION
  2
TABLES
  0
TABLE
  2
VPORT
 70
     2
  0
VPORT
  2
*ACTIVE
 70
     0
 10
0.0
 20
0.0
 11
1.0
 21
1.0
 12
206.64792843965131
 22
148.72499999999991
 13
0.0
 23
0.0
 14
1.0
 24
1.0
 15
0.0
 25
0.0
 16
0.0
 26
0.0
 36
1.0
 17
0.0
 27
0.0
 37
0.0
 40
299.90826446280983
 41
2.2894736842105261
 42
50.0
 43
0.0
 44
0.0
 50
0.0
 51
0.0
 71
     0
 72
   100
 73
     1
 74
     1
 75
     0
 76
     0
 77
     0
 78
     0
  0
ENDTAB
  0
TABLE
  2
LTYPE
 70
     4
  0
LTYPE
  2
CONTINUOUS
 70
     0
  3
Solid line
 72
    65
 73
     0
 40
0.0
  0
LTYPE
  2
AIGENLINE001
 70
     0
  3
generate AI->DXF Converter
 72
    65
 73
     6
 40
7.4083750000000004
 49
3.5278
 49
-0.776115
 49
0.776115
 49
-0.776115
 49
0.776115
 49
-0.776115
  0
LTYPE
  2
AIGENLINE002
 70
     0
  3
generate AI->DXF Converter
 72
    65
 73
     4
 40
5.8561449999999988
 49
3.5278
 49
-0.776115
 49
0.776115
 49
-0.776115
  0
LTYPE
  2
AIGENLINE003
 70
     0
  3
generate AI->DXF Converter
 72
    65
 73
     2
 40
1.5522299999999991
 49
0.776115
 49
-0.776115
  0
ENDTAB
  0
TABLE
  2
LAYER
 70
     2
  0
LAYER
  2
0
 70
     0
 62
     7
  6
CONTINUOUS
  0
LAYER
  2
_________2
 70
     0
 62
     7
  6
CONTINUOUS
  0
ENDTAB
  0
TABLE
  2
STYLE
 70
     1
  0
STYLE
  2
STANDARD
 70
     0
 40
0.0
 41
0.0
 50
0.0
 71
     0
 42
0.0
  3
TXT
  4
EXTFONT.SHX
  0
ENDTAB
  0
TABLE
  2
VIEW
 70
     0
  0
ENDTAB
  0
TABLE
  2
UCS
 70
     0
  0
ENDTAB
  0
TABLE
  2
APPID
 70
     1
  0
APPID
  2
ACAD
 70
     0
  0
ENDTAB
  0
TABLE
  2
DIMSTYLE
 70
     1
  0
DIMSTYLE
  2
STANDARD
 70
     0
  3

  4

  5

  6

  7

 40
1.0
 41
0.18
 42
0.0625
 43
0.38
 44
0.18
 45
0.0
 46
0.0
 47
0.0
 48
0.0
140
0.18
141
0.09
142
0.0
143
25.399999999999999
144
1.0
145
0.0
146
1.0
147
0.09
 71
     0
 72
     0
 73
     1
 74
     1
 75
     0
 76
     0
 77
     0
 78
     0
170
     0
171
     2
172
     0
173
     0
174
     0
175
     0
176
     0
177
     0
178
     0
  0
ENDTAB
  0
ENDSEC
  0
SECTION
  2
BLOCKS
  0
BLOCK
  8
0
  2
$MODEL_SPACE
 70
     0
 10
0.0
 20
0.0
 30
0.0
  3
$MODEL_SPACE
  1

  0
ENDBLK
  5
1A
  8
0
  0
BLOCK
 67
     1
  8
0
  2
$PAPER_SPACE
 70
     0
 10
0.0
 20
0.0
 30
0.0
  3
$PAPER_SPACE
  1

  0
ENDBLK
  5
17
 67
     1
  8
0
  0
ENDSEC
  0
SECTION
  2
ENTITIES
  0
TEXT
  5
24
  8
0
 62
     7
 10
105.2239999999999
 20
180.952
 30
0.0
 40
3.660169999999999
  1
10
 50
90.0
 41
0.5
  0
TEXT
  5
25
  8
0
 62
     7
 10
32.849499999999999
 20
198.98792916666659
 30
0.0
 40
3.660169999999999
  1
89
 50
90.0
 41
0.5
 72
     1
 11
32.849499999999999
 21
200.51300000000001
 31
0.0
  0
TEXT
  5
26
  8
0
 62
     7
 10
180.899
 20
126.3619433333333
 30
0.0
 40
3.660169999999999
  1
31
 50
90.0
 41
0.5
 72
     1
 11
180.899
 21
127.58199999999999
 31
0.0
  0
TEXT
  5
27
  8
0
 62
     7
 10
143.91824620724759
 20
147.0154109942244
 30
0.0
 40
3.660169999999999
  1
133
 50
341.2469999999999
 41
0.5
 72
     1
 11
145.94
 21
146.32900000000001
 31
0.0
  0
TEXT
  5
28
  8
0
 62
     7
 10
146.51292916666659
 20
153.37499999999989
 30
0.0
 40
3.660169999999999
  1
86
 41
0.5
 72
     1
 11
148.0379999999999
 21
153.37499999999989
 31
0.0
  0
TEXT
  5
29
  8
0
 62
     7
 10
46.417736249999997
 20
235.90599999999989
 30
0.0
 40
3.660169999999999
  1
30
 41
0.5
 72
     1
 11
47.790300000000002
 21
235.90599999999989
 31
0.0
  0
TEXT
  5
2A
  8
0
 62
     7
 10
46.265229166666671
 20
241.53599999999989
 30
0.0
 40
3.660169999999999
  1
45
 41
0.5
 72
     1
 11
47.790300000000002
 21
241.53599999999989
 31
0.0
  0
TEXT
  5
2B
  8
0
 62
     7
 10
67.155500833333335
 20
246.767
 30
0.0
 40
3.660169999999999
  1
174
 41
0.5
 72
     1
 11
69.290599999999984
 21
246.767
 31
0.0
  0
TEXT
  5
2C
  8
0
 62
     7
 10
111.50999999999991
 20
188.74643624999999
 30
0.0
 40
3.660169999999999
  1
20
 50
90.0
 41
0.5
 72
     1
 11
111.50999999999991
 21
190.119
 31
0.0
  0
TEXT
  5
2D
  8
0
 62
     7
 10
74.148600833333333
 20
161.94799999999989
 30
0.0
 40
3.660169999999999
  1
122
 41
0.5
 72
     1
 11
76.283699999999996
 21
161.94799999999989
 31
0.0
  0
TEXT
  5
2E
  8
0
 62
     7
 10
104.6879999999999
 20
126.38994333333331
 30
0.0
 40
3.660169999999999
  1
31
 50
90.0
 41
0.5
 72
     1
 11
104.6879999999999
 21
127.61
 31
0.0
  0
TEXT
  5
2F
  8
0
 62
     7
 10
144.25499999999991
 20
95.549999999999983
 30
0.0
 40
3.660169999999999
  1
（%%c6×35 樹脂プラグ付）
 41
0.5
  0
TEXT
  5
30
  8
0
 62
     7
 10
144.25499999999991
 20
101.39
 30
0.0
 40
3.660169999999999
  1
%%c4×44 SUS十字穴付丸頭木ネジ
 41
0.5
  0
ARC
  5
31
  8
0
 62
     7
 10
95.970799999999997
 20
210.55730899999989
 30
0.0
 40
4.1591100000000001
 50
84.381178000000006
 51
90.049765000000008
  0
ARC
  5
32
  8
0
 62
     7
 10
96.199797000000004
 20
213.00084599999991
 30
0.0
 40
1.7049299999999989
 50
73.73322300000001
 51
83.999795999999989
  0
ARC
  5
33
  8
0
 62
     7
 10
96.477580000000003
 20
213.98807899999991
 30
0.0
 40
0.67948
 50
57.433008000000001
 51
72.900791000000012
  0
ARC
  5
34
  8
0
 62
     7
 10
96.681681999999995
 20
214.31759099999999
 30
0.0
 40
0.291963
 50
19.209889999999991
 51
56.380766999999999
  0
ARC
  5
35
  8
0
 62
     7
 10
96.720879000000011
 20
214.346937
 30
0.0
 40
0.24574
 50
359.67653799999988
 51
15.753545000000001
  0
ARC
  5
36
  8
0
 62
     7
 10
73.635148999999998
 20
218.6517629999999
 30
0.0
 40
3.9353479999999998
 50
264.25471399999998
 51
270.05660999999998
  0
ARC
  5
37
  8
0
 62
     7
 10
73.448056999999991
 20
216.702517
 30
0.0
 40
1.9771849999999991
 50
254.52033499999999
 51
263.99450200000001
  0
ARC
  5
38
  8
0
 62
     7
 10
73.142798999999997
 20
215.57072199999999
 30
0.0
 40
0.805012
 50
239.4142019999999
 51
253.95893699999999
  0
ARC
  5
39
  8
0
 62
     7
 10
72.867519999999985
 20
215.09667400000001
 30
0.0
 40
0.256884
 50
212.23246
 51
238.47076000000001
  0
ARC
  5
3A
  8
0
 62
     7
 10
72.729683999999992
 20
215.002152
 30
0.0
 40
0.090107
 50
181.510244
 51
208.134299
  0
ARC
  5
3B
  8
0
 62
     7
 10
95.966858999999999
 20
139.663116
 30
0.0
 40
1.522870999999999
 50
270.01233899999988
 51
294.69836299999992
  0
ARC
  5
3C
  8
0
 62
     7
 10
96.219837000000012
 20
139.06696199999999
 30
0.0
 40
0.8757609999999999
 50
295.95866199999989
 51
316.85925099999992
  0
ARC
  5
3D
  8
0
 62
     7
 10
96.51849
 20
138.767571
 30
0.0
 40
0.4533430000000001
 50
318.65955000000002
 51
347.57918199999989
  0
ARC
  5
3E
  8
0
 62
     7
 10
96.626675000000006
 20
138.730377
 30
0.0
 40
0.33994
 50
349.779832
 51
0.002798
  0
ARC
  5
3F
  8
0
 62
     7
 10
95.966858999999999
 20
139.89187200000001
 30
0.0
 40
1.522870999999999
 50
270.01233899999988
 51
294.69836299999992
  0
ARC
  5
40
  8
0
 62
     7
 10
96.219837000000012
 20
139.29571799999999
 30
0.0
 40
0.8757609999999999
 50
295.95866199999989
 51
316.85925099999992
  0
ARC
  5
41
  8
0
 62
     7
 10
96.51849
 20
138.99632600000001
 30
0.0
 40
0.4533430000000001
 50
318.65955000000002
 51
347.57918199999989
  0
ARC
  5
42
  8
0
 62
     7
 10
96.626675000000006
 20
138.95913300000001
 30
0.0
 40
0.33994
 50
349.779832
 51
0.002798
  0
ARC
  5
43
  8
0
 62
     7
 10
56.600504000000001
 20
139.663116
 30
0.0
 40
1.522870999999999
 50
245.30165699999989
 51
269.98768100000001
  0
ARC
  5
44
  8
0
 62
     7
 10
56.347492000000003
 20
139.06689800000001
 30
0.0
 40
0.8756879999999998
 50
223.13945499999991
 51
244.04151999999999
  0
ARC
  5
45
  8
0
 62
     7
 10
56.048473999999999
 20
138.7673659999999
 30
0.0
 40
0.4529040000000001
 50
192.4065249999999
 51
221.35478199999989
  0
ARC
  5
46
  8
0
 62
     7
 10
55.941586999999998
 20
138.73048700000001
 30
0.0
 40
0.340839
 50
180.015771
 51
190.21178199999991
  0
ARC
  5
47
  8
0
 62
     7
 10
56.600504000000001
 20
139.89187200000001
 30
0.0
 40
1.522870999999999
 50
245.30165699999989
 51
269.98768100000001
  0
ARC
  5
48
  8
0
 62
     7
 10
56.347492000000003
 20
139.29565299999999
 30
0.0
 40
0.8756879999999998
 50
223.13945499999991
 51
244.04151999999999
  0
ARC
  5
49
  8
0
 62
     7
 10
56.048473999999999
 20
138.9961209999999
 30
0.0
 40
0.4529040000000001
 50
192.4065249999999
 51
221.35478199999989
  0
ARC
  5
4A
  8
0
 62
     7
 10
55.941586999999998
 20
138.9592429999999
 30
0.0
 40
0.340839
 50
180.015771
 51
190.21178199999991
  0
LINE
  5
4B
  8
0
 62
     7
 10
56.600200000000001
 20
138.369
 30
0.0
 11
95.967200000000005
 21
138.369
 31
0.0
  0
LINE
  5
4C
  8
0
 62
     7
 10
56.600200000000001
 20
138.1399999999999
 30
0.0
 11
95.967200000000005
 21
138.1399999999999
 31
0.0
  0
ARC
  5
4D
  8
0
 62
     7
 10
123.89094799999999
 20
115.4457529999999
 30
0.0
 40
39.334243999999991
 50
18.030279
 51
18.807441000000001
  0
ARC
  5
4E
  8
0
 62
     7
 10
150.60480200000001
 20
124.13094
 30
0.0
 40
11.243994000000001
 50
14.25991299999999
 51
18.080100999999999
  0
ARC
  5
4F
  8
0
 62
     7
 10
157.4170179999999
 20
125.8969329999999
 30
0.0
 40
4.2068070000000004
 50
7.1413500000000001
 51
13.802445000000001
  0
ARC
  5
50
  8
0
 62
     7
 10
159.22380999999999
 20
126.1405409999999
 30
0.0
 40
2.3838080000000001
 50
344.52724599999988
 51
6.730281999999999
  0
ARC
  5
51
  8
0
 62
     7
 10
146.729737
 20
122.634156
 30
0.0
 40
16.074837999999989
 50
18.175160000000002
 51
20.952020000000001
  0
ARC
  5
52
  8
0
 62
     7
 10
154.56589700000001
 20
125.225307
 30
0.0
 40
7.8214249999999987
 50
11.109406999999999
 51
18.046289000000002
  0
ARC
  5
53
  8
0
 62
     7
 10
158.27141099999989
 20
126.001991
 30
0.0
 40
4.0359819999999988
 50
0.730836
 51
10.425983
  0
ARC
  5
54
  8
0
 62
     7
 10
159.362312
 20
126.04781299999991
 30
0.0
 40
2.9447570000000001
 50
340.47016999999988
 51
0.110092
  0
ARC
  5
55
  8
0
 62
     7
 10
158.1077019999999
 20
126.46706
 30
0.0
 40
4.267409999999999
 50
334.03244399999988
 51
340.79625199999998
  0
ARC
  5
56
  8
0
  6
AIGENLINE001
 62
     7
 10
137.0384949999999
 20
125.4742699999999
 30
0.0
 40
7.9999079999999996
 50
0.002477
 51
90.002447999999987
  0
ARC
  5
57
  8
0
  6
AIGENLINE001
 62
     7
 10
137.03780900000001
 20
125.4742699999999
 30
0.0
 40
7.9999079999999996
 50
89.997533000000004
 51
179.99750299999991
  0
ARC
  5
58
  8
0
  6
AIGENLINE001
 62
     7
 10
137.038151
 20
125.4746149999999
 30
0.0
 40
8.0002499999999994
 50
179.99996999999991
 51
270.00002000000001
  0
ARC
  5
59
  8
0
  6
AIGENLINE001
 62
     7
 10
137.038151
 20
125.4746169999999
 30
0.0
 40
8.0002530000000007
 50
270.00002000000001
 51
359.99998999999991
  0
ARC
  5
5A
  8
0
  6
AIGENLINE001
 62
     7
 10
137.03814899999989
 20
125.47461300000001
 30
0.0
 40
18.333538999999998
 50
0.00001
 51
89.999980000000008
  0
ARC
  5
5B
  8
0
  6
AIGENLINE001
 62
     7
 10
137.03815499999999
 20
125.47461300000001
 30
0.0
 40
18.333538999999998
 50
90.0
 51
179.99996999999991
  0
ARC
  5
5C
  8
0
  6
AIGENLINE001
 62
     7
 10
137.03814899999989
 20
125.47461300000001
 30
0.0
 40
18.333532999999989
 50
179.99996999999991
 51
270.00002000000001
  0
ARC
  5
5D
  8
0
  6
AIGENLINE001
 62
     7
 10
137.03814899999989
 20
125.4746189999999
 30
0.0
 40
18.333538999999998
 50
270.00002000000001
 51
359.99998999999991
  0
LINE
  5
5E
  8
0
 62
     7
 10
160.37200000000001
 20
123.646
 30
0.0
 11
159.70500000000001
 21
124.0299999999999
 31
0.0
  0
LINE
  5
5F
  8
0
 62
     7
 10
159.70500000000001
 20
124.0299999999999
 30
0.0
 11
159.70500000000001
 21
124.7999999999999
 31
0.0
  0
LINE
  5
60
  8
0
 62
     7
 10
159.70500000000001
 20
124.7999999999999
 30
0.0
 11
160.37200000000001
 21
125.185
 31
0.0
  0
LINE
  5
61
  8
0
 62
     7
 10
160.37200000000001
 20
125.185
 30
0.0
 11
161.0389999999999
 21
124.7999999999999
 31
0.0
  0
LINE
  5
62
  8
0
 62
     7
 10
161.0389999999999
 20
124.7999999999999
 30
0.0
 11
161.0379999999999
 21
124.03100000000001
 31
0.0
  0
LINE
  5
63
  8
0
 62
     7
 10
161.0379999999999
 20
124.03100000000001
 30
0.0
 11
160.37200000000001
 21
123.646
 31
0.0
  0
ARC
  5
64
  8
0
 62
     7
 10
160.31764299999989
 20
124.46953000000001
 30
0.0
 40
1.455039
 50
272.12464499999999
 51
357.87536499999987
  0
ARC
  5
65
  8
0
 62
     7
 10
160.4255379999999
 20
124.46918100000001
 30
0.0
 40
1.45469
 50
182.1114
 51
267.87452999999999
  0
ARC
  5
66
  8
0
 62
     7
 10
160.42586299999991
 20
124.3616679999999
 30
0.0
 40
1.4550270000000001
 50
92.137783999999996
 51
177.87628699999999
  0
ARC
  5
67
  8
0
 62
     7
 10
160.31765399999989
 20
124.361654
 30
0.0
 40
1.4550289999999999
 50
2.1242480000000001
 51
87.875741999999988
  0
ARC
  5
68
  8
0
 62
     7
 10
160.31093799999999
 20
124.476236
 30
0.0
 40
1.645143
 50
272.11271399999998
 51
357.88729599999999
  0
ARC
  5
69
  8
0
 62
     7
 10
160.37158600000001
 20
124.415587
 30
0.0
 40
1.5833759999999999
 50
179.99996999999991
 51
270.00002000000001
  0
ARC
  5
6A
  8
0
 62
     7
 10
160.37158700000001
 20
124.415587
 30
0.0
 40
1.5833759999999999
 50
90.0
 51
179.99996999999991
  0
ARC
  5
6B
  8
0
 62
     7
 10
160.31093799999999
 20
124.3549379999999
 30
0.0
 40
1.645143
 50
2.1127039999999999
 51
87.887286000000003
  0
LINE
  5
6C
  8
0
  6
AIGENLINE002
 62
     7
 10
160.37200000000001
 20
126.4839999999999
 30
0.0
 11
160.37200000000001
 21
122.46899999999999
 31
0.0
  0
LINE
  5
6D
  8
0
 62
     7
 10
144.04599999999991
 20
127.1009999999999
 30
0.0
 11
143.62899999999991
 21
127.342
 31
0.0
  0
LINE
  5
6E
  8
0
 62
     7
 10
143.62899999999991
 20
127.342
 30
0.0
 11
143.62899999999991
 21
127.82299999999989
 31
0.0
  0
LINE
  5
6F
  8
0
 62
     7
 10
143.62899999999991
 20
127.82299999999989
 30
0.0
 11
144.04599999999991
 21
128.0629999999999
 31
0.0
  0
LINE
  5
70
  8
0
 62
     7
 10
144.04599999999991
 20
128.0629999999999
 30
0.0
 11
144.46299999999991
 21
127.82299999999989
 31
0.0
  0
LINE
  5
71
  8
0
 62
     7
 10
144.46299999999991
 20
127.82299999999989
 30
0.0
 11
144.46199999999999
 21
127.342
 31
0.0
  0
LINE
  5
72
  8
0
 62
     7
 10
144.46199999999999
 20
127.342
 30
0.0
 11
144.04599999999991
 21
127.1009999999999
 31
0.0
  0
ARC
  5
73
  8
0
 62
     7
 10
144.01654600000001
 20
127.611299
 30
0.0
 40
0.779859
 50
272.15454799999992
 51
357.87177500000001
  0
ARC
  5
74
  8
0
 62
     7
 10
144.07486900000001
 20
127.610985
 30
0.0
 40
0.779533
 50
182.106009
 51
267.86770799999988
  0
ARC
  5
75
  8
0
 62
     7
 10
144.0744959999999
 20
127.5533499999999
 30
0.0
 40
0.7791730000000001
 50
92.105836999999994
 51
177.86780899999999
  0
ARC
  5
76
  8
0
 62
     7
 10
144.01690899999991
 20
127.55302500000001
 30
0.0
 40
0.779509
 50
2.1551290000000001
 51
87.871185999999994
  0
ARC
  5
77
  8
0
 62
     7
 10
144.01384699999991
 20
127.6139979999999
 30
0.0
 40
0.86597
 50
272.11888999999991
 51
357.90480000000002
  0
ARC
  5
78
  8
0
 62
     7
 10
144.07755800000001
 20
127.613674
 30
0.0
 40
0.865634
 50
182.074555
 51
267.901794
  0
ARC
  5
79
  8
0
 62
     7
 10
144.07719499999999
 20
127.550651
 30
0.0
 40
0.8652840000000001
 50
92.075005000000004
 51
177.90127399999989
  0
ARC
  5
7A
  8
0
 62
     7
 10
144.01421999999991
 20
127.550336
 30
0.0
 40
0.86561
 50
2.1187559999999999
 51
87.904925000000006
  0
ARC
  5
7B
  8
0
 62
     7
 10
136.30195199999989
 20
116.4545729999999
 30
0.0
 40
27.430333000000001
 50
25.183437999999999
 51
76.596321000000003
  0
ARC
  5
7C
  8
0
 62
     7
 10
136.53316399999991
 20
116.299693
 30
0.0
 40
27.528632999999999
 50
77.13917099999999
 51
103.2557179999999
  0
ARC
  5
7D
  8
0
 62
     7
 10
136.511011
 20
117.31805299999991
 30
0.0
 40
26.533172999999991
 50
103.7133969999999
 51
128.30143100000001
  0
LINE
  5
7E
  8
0
 62
     7
 10
120.066
 20
138.1399999999999
 30
0.0
 11
119.828
 21
138.369
 31
0.0
  0
ARC
  5
7F
  8
0
 62
     7
 10
138.12662399999991
 20
115.144665
 30
0.0
 40
29.566990000000001
 50
110.386903
 51
128.23471399999991
  0
ARC
  5
80
  8
0
 62
     7
 10
136.89763199999999
 20
117.819548
 30
0.0
 40
26.632439000000002
 50
77.174070999999984
 51
109.913185
  0
ARC
  5
81
  8
0
 62
     7
 10
136.32254399999991
 20
116.47947499999989
 30
0.0
 40
28.067972999999991
 50
25.091885999999992
 51
76.636670999999993
  0
LINE
  5
82
  8
0
 62
     7
 10
161.74199999999999
 20
128.38200000000001
 30
0.0
 11
161.125
 21
128.12700000000001
 31
0.0
  0
ARC
  5
83
  8
0
  6
AIGENLINE003
 62
     7
 10
52.748897999999997
 20
127.623648
 30
0.0
 40
1.12557
 50
272.12151599999999
 51
357.89671499999992
  0
ARC
  5
84
  8
0
  6
AIGENLINE003
 62
     7
 10
52.790565000000001
 20
127.58233799999999
 30
0.0
 40
1.083488999999999
 50
179.99996999999991
 51
270.00002000000001
  0
ARC
  5
85
  8
0
  6
AIGENLINE003
 62
     7
 10
52.831559999999989
 20
127.540986
 30
0.0
 40
1.1252439999999999
 50
92.087855000000005
 51
177.8938939999999
  0
ARC
  5
86
  8
0
  6
AIGENLINE003
 62
     7
 10
52.749237000000001
 20
127.54101
 30
0.0
 40
1.125232999999999
 50
2.104884999999999
 51
87.895105000000001
  0
ARC
  5
87
  8
0
  6
AIGENLINE003
 62
     7
 10
42.79042299999999
 20
127.582339
 30
0.0
 40
1.0834900000000001
 50
270.00002000000001
 51
359.99998999999991
  0
ARC
  5
88
  8
0
  6
AIGENLINE003
 62
     7
 10
42.79042299999999
 20
127.58233799999999
 30
0.0
 40
1.083488999999999
 50
179.99996999999991
 51
270.00002000000001
  0
ARC
  5
89
  8
0
  6
AIGENLINE003
 62
     7
 10
42.831811000000002
 20
127.5405939999999
 30
0.0
 40
1.1256509999999991
 50
92.107085999999995
 51
177.874664
  0
ARC
  5
8A
  8
0
  6
AIGENLINE003
 62
     7
 10
42.749113999999992
 20
127.540671
 30
0.0
 40
1.12557
 50
2.1215060000000001
 51
87.896705000000011
  0
LINE
  5
8B
  8
0
  6
AIGENLINE002
 62
     7
 10
52.790599999999998
 20
129.52600000000001
 30
0.0
 11
52.790599999999998
 21
125.75399999999991
 31
0.0
  0
LINE
  5
8C
  8
0
  6
AIGENLINE002
 62
     7
 10
42.790399999999998
 20
129.52600000000001
 30
0.0
 11
42.790399999999998
 21
125.75399999999991
 31
0.0
  0
LINE
  5
8D
  8
0
  6
AIGENLINE002
 62
     7
 10
54.499699999999997
 20
127.58199999999999
 30
0.0
 11
50.902999999999999
 21
127.58199999999999
 31
0.0
  0
LINE
  5
8E
  8
0
  6
AIGENLINE002
 62
     7
 10
44.580199999999998
 20
127.58199999999999
 30
0.0
 11
40.983499999999992
 21
127.58199999999999
 31
0.0
  0
LINE
  5
8F
  8
0
 62
     7
 10
96.966600000000014
 20
132.55399999999989
 30
0.0
 11
55.600700000000003
 21
132.55399999999989
 31
0.0
  0
LINE
  5
90
  8
0
 62
     7
 10
96.966600000000014
 20
122.6099999999999
 30
0.0
 11
55.600700000000003
 21
122.6099999999999
 31
0.0
  0
LINE
  5
91
  8
0
 62
     7
 10
97.957400000000021
 20
132.55399999999989
 30
0.0
 11
96.966600000000014
 21
132.55399999999989
 31
0.0
  0
LINE
  5
92
  8
0
 62
     7
 10
97.957400000000021
 20
122.6099999999999
 30
0.0
 11
96.966600000000014
 21
122.6099999999999
 31
0.0
  0
LINE
  5
93
  8
0
 62
     7
 10
98.290899999999993
 20
132.221
 30
0.0
 11
98.290899999999993
 21
122.943
 31
0.0
  0
ARC
  5
94
  8
0
 62
     7
 10
97.944642000000002
 20
122.95663500000001
 30
0.0
 40
0.346525
 50
272.11501499999991
 51
357.82577500000002
  0
ARC
  5
95
  8
0
 62
     7
 10
97.944282000000001
 20
132.20769599999991
 30
0.0
 40
0.346886
 50
2.172350999999999
 51
87.827639000000005
  0
LINE
  5
96
  8
0
 62
     7
 10
174.8899999999999
 20
128.08000000000001
 30
0.0
 11
175.28899999999999
 21
127.122
 31
0.0
  0
LINE
  5
97
  8
0
 62
     7
 10
174.09599999999989
 20
128.24899999999991
 30
0.0
 11
174.65000000000001
 21
126.91500000000001
 31
0.0
  0
LINE
  5
98
  8
0
 62
     7
 10
173.3709999999999
 20
128.24899999999991
 30
0.0
 11
173.9259999999999
 21
126.91500000000001
 31
0.0
  0
LINE
  5
99
  8
0
 62
     7
 10
172.64699999999999
 20
128.24899999999991
 30
0.0
 11
173.20099999999999
 21
126.91500000000001
 31
0.0
  0
LINE
  5
9A
  8
0
 62
     7
 10
171.92199999999991
 20
128.24899999999991
 30
0.0
 11
172.477
 21
126.91500000000001
 31
0.0
  0
LINE
  5
9B
  8
0
 62
     7
 10
171.19799999999989
 20
128.24899999999991
 30
0.0
 11
171.75299999999999
 21
126.91500000000001
 31
0.0
  0
LINE
  5
9C
  8
0
 62
     7
 10
170.47399999999999
 20
128.24899999999991
 30
0.0
 11
171.02799999999999
 21
126.91500000000001
 31
0.0
  0
LINE
  5
9D
  8
0
 62
     7
 10
169.749
 20
128.24899999999991
 30
0.0
 11
170.304
 21
126.91500000000001
 31
0.0
  0
LINE
  5
9E
  8
0
 62
     7
 10
169.02499999999989
 20
128.24899999999991
 30
0.0
 11
169.57900000000001
 21
126.91500000000001
 31
0.0
  0
LINE
  5
9F
  8
0
 62
     7
 10
168.3009999999999
 20
128.24899999999991
 30
0.0
 11
168.85499999999999
 21
126.91500000000001
 31
0.0
  0
LINE
  5
A0
  8
0
 62
     7
 10
167.57599999999991
 20
128.24899999999991
 30
0.0
 11
168.13099999999989
 21
126.91500000000001
 31
0.0
  0
LINE
  5
A1
  8
0
 62
     7
 10
166.852
 20
128.24899999999991
 30
0.0
 11
167.40599999999989
 21
126.91500000000001
 31
0.0
  0
LINE
  5
A2
  8
0
 62
     7
 10
166.12700000000001
 20
128.24899999999991
 30
0.0
 11
166.68199999999999
 21
126.91500000000001
 31
0.0
  0
LINE
  5
A3
  8
0
 62
     7
 10
165.40299999999991
 20
128.24899999999991
 30
0.0
 11
165.95699999999991
 21
126.91500000000001
 31
0.0
  0
LINE
  5
A4
  8
0
 62
     7
 10
164.679
 20
128.24899999999991
 30
0.0
 11
165.233
 21
126.91500000000001
 31
0.0
  0
LINE
  5
A5
  8
0
 62
     7
 10
163.95400000000001
 20
128.24899999999991
 30
0.0
 11
164.5079999999999
 21
126.91500000000001
 31
0.0
  0
LINE
  5
A6
  8
0
 62
     7
 10
163.2299999999999
 20
128.24899999999991
 30
0.0
 11
163.78399999999991
 21
126.91500000000001
 31
0.0
  0
LINE
  5
A7
  8
0
 62
     7
 10
162.50499999999991
 20
128.24899999999991
 30
0.0
 11
163.06
 21
126.91500000000001
 31
0.0
  0
LINE
  5
A8
  8
0
 62
     7
 10
175.70500000000001
 20
127.58199999999999
 30
0.0
 11
174.71899999999999
 21
127.9229999999999
 31
0.0
  0
LINE
  5
A9
  8
0
 62
     7
 10
175.70500000000001
 20
127.58199999999999
 30
0.0
 11
174.71899999999999
 21
127.241
 31
0.0
  0
LINE
  5
AA
  8
0
  6
AIGENLINE002
 62
     7
 10
176.36500000000001
 20
127.58199999999999
 30
0.0
 11
132.01599999999999
 21
127.58199999999999
 31
0.0
  0
LINE
  5
AB
  8
0
 62
     7
 10
174.71899999999999
 20
127.241
 30
0.0
 11
162.37200000000001
 21
127.241
 31
0.0
  0
LINE
  5
AC
  8
0
 62
     7
 10
174.71899999999999
 20
127.9229999999999
 30
0.0
 11
162.37200000000001
 21
127.9229999999999
 31
0.0
  0
LINE
  5
AD
  8
0
 62
     7
 10
52.292400000000001
 20
227.86500000000001
 30
0.0
 11
53.250799999999991
 21
228.26400000000001
 31
0.0
  0
LINE
  5
AE
  8
0
 62
     7
 10
52.123600000000003
 20
227.06999999999999
 30
0.0
 11
53.4572
 21
227.625
 31
0.0
  0
LINE
  5
AF
  8
0
 62
     7
 10
52.123600000000003
 20
226.34599999999989
 30
0.0
 11
53.4572
 21
226.9009999999999
 31
0.0
  0
LINE
  5
B0
  8
0
 62
     7
 10
52.123600000000003
 20
225.62200000000001
 30
0.0
 11
53.4572
 21
226.1759999999999
 31
0.0
  0
LINE
  5
B1
  8
0
 62
     7
 10
52.123600000000003
 20
224.89699999999999
 30
0.0
 11
53.4572
 21
225.45199999999991
 31
0.0
  0
LINE
  5
B2
  8
0
 62
     7
 10
52.123600000000003
 20
224.173
 30
0.0
 11
53.4572
 21
224.72699999999989
 31
0.0
  0
LINE
  5
B3
  8
0
 62
     7
 10
52.123600000000003
 20
223.44900000000001
 30
0.0
 11
53.4572
 21
224.0029999999999
 31
0.0
  0
LINE
  5
B4
  8
0
 62
     7
 10
52.123600000000003
 20
222.72399999999999
 30
0.0
 11
53.4572
 21
223.279
 31
0.0
  0
LINE
  5
B5
  8
0
 62
     7
 10
52.123600000000003
 20
222.0
 30
0.0
 11
53.4572
 21
222.554
 31
0.0
  0
LINE
  5
B6
  8
0
 62
     7
 10
52.123600000000003
 20
221.27500000000001
 30
0.0
 11
53.4572
 21
221.83000000000001
 31
0.0
  0
LINE
  5
B7
  8
0
 62
     7
 10
52.123600000000003
 20
220.5509999999999
 30
0.0
 11
53.4572
 21
221.1049999999999
 31
0.0
  0
LINE
  5
B8
  8
0
 62
     7
 10
52.123600000000003
 20
219.82699999999991
 30
0.0
 11
53.4572
 21
220.38099999999989
 31
0.0
  0
LINE
  5
B9
  8
0
 62
     7
 10
52.123600000000003
 20
219.10199999999989
 30
0.0
 11
53.4572
 21
219.65700000000001
 31
0.0
  0
LINE
  5
BA
  8
0
 62
     7
 10
52.123600000000003
 20
218.37799999999999
 30
0.0
 11
53.4572
 21
218.93199999999999
 31
0.0
  0
LINE
  5
BB
  8
0
 62
     7
 10
52.123600000000003
 20
217.65299999999999
 30
0.0
 11
53.4572
 21
218.208
 31
0.0
  0
LINE
  5
BC
  8
0
 62
     7
 10
52.123600000000003
 20
216.929
 30
0.0
 11
53.4572
 21
217.483
 31
0.0
  0
LINE
  5
BD
  8
0
 62
     7
 10
52.123600000000003
 20
216.20500000000001
 30
0.0
 11
53.4572
 21
216.75899999999999
 31
0.0
  0
LINE
  5
BE
  8
0
 62
     7
 10
52.123600000000003
 20
215.4799999999999
 30
0.0
 11
53.4572
 21
216.035
 31
0.0
  0
LINE
  5
BF
  8
0
 62
     7
 10
52.790599999999998
 20
228.67999999999989
 30
0.0
 11
52.449199999999998
 21
227.69399999999999
 31
0.0
  0
LINE
  5
C0
  8
0
 62
     7
 10
52.790599999999998
 20
228.67999999999989
 30
0.0
 11
53.131599999999992
 21
227.69399999999999
 31
0.0
  0
LINE
  5
C1
  8
0
 62
     7
 10
52.790599999999998
 20
235.90599999999989
 30
0.0
 11
52.790599999999998
 21
230.03999999999991
 31
0.0
  0
LINE
  5
C2
  8
0
 62
     7
 10
96.080200000000005
 20
245.482
 30
0.0
 11
98.291300000000007
 21
246.07400000000001
 31
0.0
  0
LINE
  5
C3
  8
0
 62
     7
 10
98.291300000000007
 20
246.07400000000001
 30
0.0
 11
96.080200000000005
 21
246.666
 31
0.0
  0
LINE
  5
C4
  8
0
 62
     7
 10
96.080200000000005
 20
246.666
 30
0.0
 11
96.080200000000005
 21
245.482
 31
0.0
  0
LINE
  5
C5
  8
0
 62
     7
 10
42.500999999999998
 20
246.65199999999999
 30
0.0
 11
40.289999999999992
 21
246.05999999999989
 31
0.0
  0
LINE
  5
C6
  8
0
 62
     7
 10
40.289999999999992
 20
246.05999999999989
 30
0.0
 11
42.500999999999998
 21
245.46700000000001
 31
0.0
  0
LINE
  5
C7
  8
0
 62
     7
 10
42.500999999999998
 20
245.46700000000001
 30
0.0
 11
42.500999999999998
 21
246.65199999999999
 31
0.0
  0
LINE
  5
C8
  8
0
 62
     7
 10
98.290899999999993
 20
246.06699999999989
 30
0.0
 11
40.290300000000002
 21
246.06699999999989
 31
0.0
  0
LINE
  5
C9
  8
0
 62
     7
 10
53.079599999999999
 20
240.25099999999989
 30
0.0
 11
55.290700000000001
 21
240.84299999999999
 31
0.0
  0
LINE
  5
CA
  8
0
 62
     7
 10
55.290700000000001
 20
240.84299999999999
 30
0.0
 11
53.079599999999999
 21
241.43599999999989
 31
0.0
  0
LINE
  5
CB
  8
0
 62
     7
 10
53.079599999999999
 20
241.43599999999989
 30
0.0
 11
53.079599999999999
 21
240.25099999999989
 31
0.0
  0
LINE
  5
CC
  8
0
 62
     7
 10
42.500999999999998
 20
241.42099999999999
 30
0.0
 11
40.289999999999992
 21
240.82900000000001
 31
0.0
  0
LINE
  5
CD
  8
0
 62
     7
 10
40.289999999999992
 20
240.82900000000001
 30
0.0
 11
42.500999999999998
 21
240.2359999999999
 31
0.0
  0
LINE
  5
CE
  8
0
 62
     7
 10
42.500999999999998
 20
240.2359999999999
 30
0.0
 11
42.500999999999998
 21
241.42099999999999
 31
0.0
  0
LINE
  5
CF
  8
0
 62
     7
 10
55.290300000000002
 20
240.83600000000001
 30
0.0
 11
40.290300000000002
 21
240.83600000000001
 31
0.0
  0
LINE
  5
D0
  8
0
 62
     7
 10
50.579799999999999
 20
234.6209999999999
 30
0.0
 11
52.790900000000001
 21
235.21299999999991
 31
0.0
  0
LINE
  5
D1
  8
0
 62
     7
 10
52.790900000000001
 20
235.21299999999991
 30
0.0
 11
50.579799999999999
 21
235.80600000000001
 31
0.0
  0
LINE
  5
D2
  8
0
 62
     7
 10
50.579799999999999
 20
235.80600000000001
 30
0.0
 11
50.579799999999999
 21
234.6209999999999
 31
0.0
  0
LINE
  5
D3
  8
0
 62
     7
 10
45.000799999999991
 20
235.79099999999991
 30
0.0
 11
42.790399999999998
 21
235.19900000000001
 31
0.0
  0
LINE
  5
D4
  8
0
 62
     7
 10
42.790399999999998
 20
235.19900000000001
 30
0.0
 11
45.000799999999991
 21
234.607
 31
0.0
  0
LINE
  5
D5
  8
0
 62
     7
 10
45.000799999999991
 20
234.607
 30
0.0
 11
45.000799999999991
 21
235.79099999999991
 31
0.0
  0
LINE
  5
D6
  8
0
 62
     7
 10
52.790599999999998
 20
235.2059999999999
 30
0.0
 11
42.790399999999998
 21
235.2059999999999
 31
0.0
  0
LINE
  5
D7
  8
0
 62
     7
 10
42.790399999999998
 20
235.90599999999989
 30
0.0
 11
42.790399999999998
 21
230.03999999999991
 31
0.0
  0
LINE
  5
D8
  8
0
  6
AIGENLINE002
 62
     7
 10
52.790599999999998
 20
229.34
 30
0.0
 11
52.790599999999998
 21
214.197
 31
0.0
  0
LINE
  5
D9
  8
0
 62
     7
 10
53.131599999999992
 20
227.69399999999999
 30
0.0
 11
53.131599999999992
 21
215.34699999999989
 31
0.0
  0
LINE
  5
DA
  8
0
 62
     7
 10
52.449199999999998
 20
227.69399999999999
 30
0.0
 11
52.449199999999998
 21
215.34699999999989
 31
0.0
  0
LINE
  5
DB
  8
0
 62
     7
 10
42.292299999999997
 20
227.86500000000001
 30
0.0
 11
43.250700000000002
 21
228.26400000000001
 31
0.0
  0
LINE
  5
DC
  8
0
 62
     7
 10
42.123800000000003
 20
227.06999999999999
 30
0.0
 11
43.45709999999999
 21
227.625
 31
0.0
  0
LINE
  5
DD
  8
0
 62
     7
 10
42.123800000000003
 20
226.34599999999989
 30
0.0
 11
43.45709999999999
 21
226.9009999999999
 31
0.0
  0
LINE
  5
DE
  8
0
 62
     7
 10
42.123800000000003
 20
225.62200000000001
 30
0.0
 11
43.45709999999999
 21
226.1759999999999
 31
0.0
  0
LINE
  5
DF
  8
0
 62
     7
 10
42.123800000000003
 20
224.89699999999999
 30
0.0
 11
43.45709999999999
 21
225.45199999999991
 31
0.0
  0
LINE
  5
E0
  8
0
 62
     7
 10
42.123800000000003
 20
224.173
 30
0.0
 11
43.45709999999999
 21
224.72699999999989
 31
0.0
  0
LINE
  5
E1
  8
0
 62
     7
 10
42.123800000000003
 20
223.44900000000001
 30
0.0
 11
43.45709999999999
 21
224.0029999999999
 31
0.0
  0
LINE
  5
E2
  8
0
 62
     7
 10
42.123800000000003
 20
222.72399999999999
 30
0.0
 11
43.45709999999999
 21
223.279
 31
0.0
  0
LINE
  5
E3
  8
0
 62
     7
 10
42.123800000000003
 20
222.0
 30
0.0
 11
43.45709999999999
 21
222.554
 31
0.0
  0
LINE
  5
E4
  8
0
 62
     7
 10
42.123800000000003
 20
221.27500000000001
 30
0.0
 11
43.45709999999999
 21
221.83000000000001
 31
0.0
  0
LINE
  5
E5
  8
0
 62
     7
 10
42.123800000000003
 20
220.5509999999999
 30
0.0
 11
43.45709999999999
 21
221.1049999999999
 31
0.0
  0
LINE
  5
E6
  8
0
 62
     7
 10
42.123800000000003
 20
219.82699999999991
 30
0.0
 11
43.45709999999999
 21
220.38099999999989
 31
0.0
  0
LINE
  5
E7
  8
0
 62
     7
 10
42.123800000000003
 20
219.10199999999989
 30
0.0
 11
43.45709999999999
 21
219.65700000000001
 31
0.0
  0
LINE
  5
E8
  8
0
 62
     7
 10
42.123800000000003
 20
218.37799999999999
 30
0.0
 11
43.45709999999999
 21
218.93199999999999
 31
0.0
  0
LINE
  5
E9
  8
0
 62
     7
 10
42.123800000000003
 20
217.65299999999999
 30
0.0
 11
43.45709999999999
 21
218.208
 31
0.0
  0
LINE
  5
EA
  8
0
 62
     7
 10
42.123800000000003
 20
216.929
 30
0.0
 11
43.45709999999999
 21
217.483
 31
0.0
  0
LINE
  5
EB
  8
0
 62
     7
 10
42.123800000000003
 20
216.20500000000001
 30
0.0
 11
43.45709999999999
 21
216.75899999999999
 31
0.0
  0
LINE
  5
EC
  8
0
 62
     7
 10
42.123800000000003
 20
215.4799999999999
 30
0.0
 11
43.45709999999999
 21
216.035
 31
0.0
  0
LINE
  5
ED
  8
0
 62
     7
 10
42.790399999999998
 20
228.67999999999989
 30
0.0
 11
42.448999999999998
 21
227.69399999999999
 31
0.0
  0
LINE
  5
EE
  8
0
 62
     7
 10
42.790399999999998
 20
228.67999999999989
 30
0.0
 11
43.131799999999998
 21
227.69399999999999
 31
0.0
  0
LINE
  5
EF
  8
0
  6
AIGENLINE002
 62
     7
 10
42.790399999999998
 20
229.34
 30
0.0
 11
42.790399999999998
 21
214.197
 31
0.0
  0
LINE
  5
F0
  8
0
 62
     7
 10
43.131799999999998
 20
227.69399999999999
 30
0.0
 11
43.131799999999998
 21
215.34699999999989
 31
0.0
  0
LINE
  5
F1
  8
0
 62
     7
 10
42.448999999999998
 20
227.69399999999999
 30
0.0
 11
42.448999999999998
 21
215.34699999999989
 31
0.0
  0
ARC
  5
F2
  8
0
 62
     7
 10
73.971677999999997
 20
193.78182699999991
 30
0.0
 40
33.526470000000003
 50
187.46751
 51
193.57425199999989
  0
LINE
  5
F3
  8
0
  6
AIGENLINE003
 62
     7
 10
59.754899999999999
 20
186.78599999999989
 30
0.0
 11
55.600700000000003
 21
186.72699999999989
 31
0.0
  0
ARC
  5
F4
  8
0
  6
AIGENLINE003
 62
     7
 10
58.458442000000012
 20
202.453318
 30
0.0
 40
12.333831999999999
 50
262.81184100000002
 51
269.99534899999998
  0
ARC
  5
F5
  8
0
  6
AIGENLINE003
 62
     7
 10
58.442156999999987
 20
203.03012699999991
 30
0.0
 40
12.904373
 50
257.27983899999998
 51
263.20404400000001
  0
ARC
  5
F6
  8
0
  6
AIGENLINE003
 62
     7
 10
59.755082999999999
 20
192.52121699999989
 30
0.0
 40
2.4017319999999991
 50
266.59424300000001
 51
269.9949299999999
  0
ARC
  5
F7
  8
0
  6
AIGENLINE003
 62
     7
 10
59.862314000000012
 20
194.33713299999991
 30
0.0
 40
4.2208100000000002
 50
260.38464099999999
 51
266.60559499999999
  0
ARC
  5
F8
  8
0
  6
AIGENLINE003
 62
     7
 10
60.473677999999992
 20
198.18842599999991
 30
0.0
 40
8.1202170000000002
 50
242.24918099999991
 51
260.67053900000002
  0
ARC
  5
F9
  8
0
  6
AIGENLINE003
 62
     7
 10
59.064588000000001
 20
195.424699
 30
0.0
 40
5.0184189999999997
 50
233.4926549999999
 51
241.794217
  0
ARC
  5
FA
  8
0
  6
AIGENLINE003
 62
     7
 10
57.872044999999993
 20
193.77641
 30
0.0
 40
2.9841630000000001
 50
220.43724700000001
 51
233.068962
  0
LINE
  5
FB
  8
0
 62
     7
 10
106.51600000000001
 20
184.57400000000001
 30
0.0
 11
105.92399999999989
 21
186.78599999999989
 31
0.0
  0
LINE
  5
FC
  8
0
 62
     7
 10
105.92399999999989
 20
186.78599999999989
 30
0.0
 11
105.3309999999999
 21
184.57400000000001
 31
0.0
  0
LINE
  5
FD
  8
0
 62
     7
 10
105.3309999999999
 20
184.57400000000001
 30
0.0
 11
106.51600000000001
 21
184.57400000000001
 31
0.0
  0
LINE
  5
FE
  8
0
 62
     7
 10
105.3309999999999
 20
192.3309999999999
 30
0.0
 11
105.92399999999989
 21
190.119
 31
0.0
  0
LINE
  5
FF
  8
0
 62
     7
 10
105.92399999999989
 20
190.119
 30
0.0
 11
106.51600000000001
 21
192.3309999999999
 31
0.0
  0
LINE
  5
100
  8
0
 62
     7
 10
106.51600000000001
 20
192.3309999999999
 30
0.0
 11
105.3309999999999
 21
192.3309999999999
 31
0.0
  0
LINE
  5
101
  8
0
 62
     7
 10
105.92399999999989
 20
192.92699999999999
 30
0.0
 11
105.92399999999989
 21
180.952
 31
0.0
  0
LINE
  5
102
  8
0
 62
     7
 10
34.134900000000002
 20
213.13599999999991
 30
0.0
 11
33.542400000000001
 21
215.34800000000001
 31
0.0
  0
LINE
  5
103
  8
0
 62
     7
 10
33.542400000000001
 20
215.34800000000001
 30
0.0
 11
32.949800000000003
 21
213.13599999999991
 31
0.0
  0
LINE
  5
104
  8
0
 62
     7
 10
32.949800000000003
 20
213.13599999999991
 30
0.0
 11
34.134900000000002
 21
213.13599999999991
 31
0.0
  0
LINE
  5
105
  8
0
 62
     7
 10
32.964300000000001
 20
187.8899999999999
 30
0.0
 11
33.556800000000003
 21
185.678
 31
0.0
  0
LINE
  5
106
  8
0
 62
     7
 10
33.556800000000003
 20
185.678
 30
0.0
 11
34.1494
 21
187.8899999999999
 31
0.0
  0
LINE
  5
107
  8
0
 62
     7
 10
34.1494
 20
187.8899999999999
 30
0.0
 11
32.964300000000001
 21
187.8899999999999
 31
0.0
  0
LINE
  5
108
  8
0
 62
     7
 10
33.549599999999998
 20
215.34699999999989
 30
0.0
 11
33.549599999999998
 21
185.67999999999989
 31
0.0
  0
LINE
  5
109
  8
0
 62
     7
 10
40.746099999999991
 20
185.67999999999989
 30
0.0
 11
32.849499999999999
 21
185.67999999999989
 31
0.0
  0
LINE
  5
10A
  8
0
 62
     7
 10
112.917
 20
186.78599999999989
 30
0.0
 11
99.235900000000001
 21
186.78599999999989
 31
0.0
  0
LINE
  5
10B
  8
0
 62
     7
 10
106.624
 20
190.119
 30
0.0
 11
97.666700000000006
 21
190.119
 31
0.0
  0
LINE
  5
10C
  8
0
 62
     7
 10
39.590299999999999
 20
215.34699999999989
 30
0.0
 11
32.842300000000002
 21
215.34699999999989
 31
0.0
  0
LINE
  5
10D
  8
0
 62
     7
 10
55.290300000000002
 20
241.53599999999989
 30
0.0
 11
55.290300000000002
 21
216.047
 31
0.0
  0
LINE
  5
10E
  8
0
 62
     7
 10
98.290899999999993
 20
246.767
 30
0.0
 11
98.290899999999993
 21
194.15199999999999
 31
0.0
  0
LINE
  5
10F
  8
0
 62
     7
 10
40.290300000000002
 20
246.767
 30
0.0
 11
40.290300000000002
 21
216.047
 31
0.0
  0
LINE
  5
110
  8
0
 62
     7
 10
112.795
 20
191.2409999999999
 30
0.0
 11
112.202
 21
193.453
 31
0.0
  0
LINE
  5
111
  8
0
 62
     7
 10
112.202
 20
193.453
 30
0.0
 11
111.61
 21
191.2409999999999
 31
0.0
  0
LINE
  5
112
  8
0
 62
     7
 10
111.61
 20
191.2409999999999
 30
0.0
 11
112.795
 21
191.2409999999999
 31
0.0
  0
LINE
  5
113
  8
0
 62
     7
 10
111.6239999999999
 20
188.99700000000001
 30
0.0
 11
112.217
 21
186.78499999999991
 31
0.0
  0
LINE
  5
114
  8
0
 62
     7
 10
112.217
 20
186.78499999999991
 30
0.0
 11
112.809
 21
188.99700000000001
 31
0.0
  0
LINE
  5
115
  8
0
 62
     7
 10
112.809
 20
188.99700000000001
 30
0.0
 11
111.6239999999999
 21
188.99700000000001
 31
0.0
  0
LINE
  5
116
  8
0
 62
     7
 10
112.20999999999989
 20
193.45099999999991
 30
0.0
 11
112.20999999999989
 21
186.78599999999989
 31
0.0
  0
LINE
  5
117
  8
0
 62
     7
 10
99.227599999999995
 20
193.453
 30
0.0
 11
112.9099999999999
 21
193.453
 31
0.0
  0
LINE
  5
118
  8
0
 62
     7
 10
94.756200000000007
 20
160.6629999999999
 30
0.0
 11
96.967999999999989
 21
161.256
 31
0.0
  0
LINE
  5
119
  8
0
 62
     7
 10
96.967999999999989
 20
161.256
 30
0.0
 11
94.756200000000007
 21
161.8479999999999
 31
0.0
  0
LINE
  5
11A
  8
0
 62
     7
 10
94.756200000000007
 20
161.8479999999999
 30
0.0
 11
94.756200000000007
 21
160.6629999999999
 31
0.0
  0
LINE
  5
11B
  8
0
 62
     7
 10
57.811100000000003
 20
161.834
 30
0.0
 11
55.599400000000003
 21
161.24100000000001
 31
0.0
  0
LINE
  5
11C
  8
0
 62
     7
 10
55.599400000000003
 20
161.24100000000001
 30
0.0
 11
57.811100000000003
 21
160.64899999999989
 31
0.0
  0
LINE
  5
11D
  8
0
 62
     7
 10
57.811100000000003
 20
160.64899999999989
 30
0.0
 11
57.811100000000003
 21
161.834
 31
0.0
  0
LINE
  5
11E
  8
0
 62
     7
 10
96.966600000000014
 20
161.24799999999991
 30
0.0
 11
55.600700000000003
 21
161.24799999999991
 31
0.0
  0
LINE
  5
11F
  8
0
 62
     7
 10
55.600700000000003
 20
172.28700000000001
 30
0.0
 11
55.600700000000003
 21
160.548
 31
0.0
  0
LINE
  5
120
  8
0
 62
     7
 10
96.966600000000014
 20
171.9559999999999
 30
0.0
 11
96.966600000000014
 21
160.548
 31
0.0
  0
LINE
  5
121
  8
0
 62
     7
 10
105.973
 20
130.40000000000001
 30
0.0
 11
105.3809999999999
 21
132.61199999999991
 31
0.0
  0
LINE
  5
122
  8
0
 62
     7
 10
105.3809999999999
 20
132.61199999999991
 30
0.0
 11
104.7879999999999
 21
130.40000000000001
 31
0.0
  0
LINE
  5
123
  8
0
 62
     7
 10
104.7879999999999
 20
130.40000000000001
 30
0.0
 11
105.973
 21
130.40000000000001
 31
0.0
  0
LINE
  5
124
  8
0
 62
     7
 10
104.803
 20
124.821
 30
0.0
 11
105.3949999999999
 21
122.6089999999999
 31
0.0
  0
LINE
  5
125
  8
0
 62
     7
 10
105.3949999999999
 20
122.6089999999999
 30
0.0
 11
105.9879999999999
 21
124.821
 31
0.0
  0
LINE
  5
126
  8
0
 62
     7
 10
105.9879999999999
 20
124.821
 30
0.0
 11
104.803
 21
124.821
 31
0.0
  0
LINE
  5
127
  8
0
 62
     7
 10
105.38799999999991
 20
132.61000000000001
 30
0.0
 11
105.38799999999991
 21
122.6099999999999
 31
0.0
  0
LINE
  5
128
  8
0
 62
     7
 10
98.944100000000006
 20
122.6099999999999
 30
0.0
 11
106.08799999999999
 21
122.6099999999999
 31
0.0
  0
LINE
  5
129
  8
0
 62
     7
 10
99.274799999999999
 20
132.61000000000001
 30
0.0
 11
106.08799999999999
 21
132.61000000000001
 31
0.0
  0
LINE
  5
12A
  8
0
  6
AIGENLINE002
 62
     7
 10
158.29599999999991
 20
124.4159999999999
 30
0.0
 11
162.2889999999999
 21
124.4159999999999
 31
0.0
  0
LINE
  5
12B
  8
0
 62
     7
 10
133.70500000000001
 20
122.41500000000001
 30
0.0
 11
162.37200000000001
 21
122.41500000000001
 31
0.0
  0
LINE
  5
12C
  8
0
 62
     7
 10
133.70500000000001
 20
132.749
 30
0.0
 11
158.411
 21
132.749
 31
0.0
  0
LINE
  5
12D
  8
0
 62
     7
 10
159.23199999999991
 20
132.749
 30
0.0
 11
162.37200000000001
 21
132.749
 31
0.0
  0
LINE
  5
12E
  8
0
  6
AIGENLINE002
 62
     7
 10
144.04599999999991
 20
129.017
 30
0.0
 11
144.04599999999991
 21
126.077
 31
0.0
  0
LINE
  5
12F
  8
0
 62
     7
 10
140.71199999999999
 20
132.749
 30
0.0
 11
140.71199999999999
 21
122.41500000000001
 31
0.0
  0
LINE
  5
130
  8
0
 62
     7
 10
140.477
 20
132.749
 30
0.0
 11
140.477
 21
122.41500000000001
 31
0.0
  0
LINE
  5
131
  8
0
 62
     7
 10
140.37200000000001
 20
132.749
 30
0.0
 11
140.37200000000001
 21
122.41500000000001
 31
0.0
  0
LINE
  5
132
  8
0
 62
     7
 10
133.70500000000001
 20
132.749
 30
0.0
 11
133.70500000000001
 21
122.41500000000001
 31
0.0
  0
LINE
  5
133
  8
0
 62
     7
 10
162.37200000000001
 20
132.749
 30
0.0
 11
162.37200000000001
 21
122.41500000000001
 31
0.0
  0
LINE
  5
134
  8
0
 62
     7
 10
182.29900000000001
 20
122.41500000000001
 30
0.0
 11
163.072
 21
122.41500000000001
 31
0.0
  0
LINE
  5
135
  8
0
 62
     7
 10
124.95099999999999
 20
153.45599999999999
 30
0.0
 11
120.1149999999999
 21
139.21399999999991
 31
0.0
  0
LINE
  5
136
  8
0
 62
     7
 10
166.92999999999989
 20
139.202
 30
0.0
 11
162.548
 21
126.2939999999999
 31
0.0
  0
LINE
  5
137
  8
0
 62
     7
 10
164.42400000000001
 20
138.69499999999991
 30
0.0
 11
166.70899999999989
 21
138.5449999999999
 31
0.0
  0
LINE
  5
138
  8
0
 62
     7
 10
166.70899999999989
 20
138.5449999999999
 30
0.0
 11
164.80500000000001
 21
139.8179999999999
 31
0.0
  0
LINE
  5
139
  8
0
 62
     7
 10
164.80500000000001
 20
139.8179999999999
 30
0.0
 11
164.42400000000001
 21
138.69499999999991
 31
0.0
  0
LINE
  5
13A
  8
0
 62
     7
 10
127.00700000000001
 20
152.63599999999991
 30
0.0
 11
124.72199999999999
 21
152.78599999999989
 31
0.0
  0
LINE
  5
13B
  8
0
 62
     7
 10
124.72199999999999
 20
152.78599999999989
 30
0.0
 11
126.626
 21
151.51400000000001
 31
0.0
  0
LINE
  5
13C
  8
0
 62
     7
 10
126.626
 20
151.51400000000001
 30
0.0
 11
127.00700000000001
 21
152.63599999999991
 31
0.0
  0
LINE
  5
13D
  8
0
 62
     7
 10
166.70500000000001
 20
138.5389999999999
 30
0.0
 11
124.726
 21
152.79300000000001
 31
0.0
  0
LINE
  5
13E
  8
0
 62
     7
 10
133.70500000000001
 20
153.37499999999989
 30
0.0
 11
133.70500000000001
 21
133.4489999999999
 31
0.0
  0
LINE
  5
13F
  8
0
 62
     7
 10
162.37200000000001
 20
153.37499999999989
 30
0.0
 11
162.37200000000001
 21
133.4489999999999
 31
0.0
  0
LINE
  5
140
  8
0
 62
     7
 10
182.184
 20
130.5379999999999
 30
0.0
 11
181.59200000000001
 21
132.75
 31
0.0
  0
LINE
  5
141
  8
0
 62
     7
 10
181.59200000000001
 20
132.75
 30
0.0
 11
180.999
 21
130.5379999999999
 31
0.0
  0
LINE
  5
142
  8
0
 62
     7
 10
180.999
 20
130.5379999999999
 30
0.0
 11
182.184
 21
130.5379999999999
 31
0.0
  0
LINE
  5
143
  8
0
 62
     7
 10
181.01400000000001
 20
124.626
 30
0.0
 11
181.60599999999999
 21
122.414
 31
0.0
  0
LINE
  5
144
  8
0
 62
     7
 10
181.60599999999999
 20
122.414
 30
0.0
 11
182.19900000000001
 21
124.626
 31
0.0
  0
LINE
  5
145
  8
0
 62
     7
 10
182.19900000000001
 20
124.626
 30
0.0
 11
181.01400000000001
 21
124.626
 31
0.0
  0
LINE
  5
146
  8
0
 62
     7
 10
181.59899999999999
 20
132.749
 30
0.0
 11
181.59899999999999
 21
122.41500000000001
 31
0.0
  0
LINE
  5
147
  8
0
 62
     7
 10
160.16099999999989
 20
152.09
 30
0.0
 11
162.37299999999991
 21
152.68199999999999
 31
0.0
  0
LINE
  5
148
  8
0
 62
     7
 10
162.37299999999991
 20
152.68199999999999
 30
0.0
 11
160.16099999999989
 21
153.27500000000001
 31
0.0
  0
LINE
  5
149
  8
0
 62
     7
 10
160.16099999999989
 20
153.27500000000001
 30
0.0
 11
160.16099999999989
 21
152.09
 31
0.0
  0
LINE
  5
14A
  8
0
 62
     7
 10
135.91499999999991
 20
153.25999999999991
 30
0.0
 11
133.70400000000001
 21
152.66799999999989
 31
0.0
  0
LINE
  5
14B
  8
0
 62
     7
 10
133.70400000000001
 20
152.66799999999989
 30
0.0
 11
135.91499999999991
 21
152.0749999999999
 31
0.0
  0
LINE
  5
14C
  8
0
 62
     7
 10
135.91499999999991
 20
152.0749999999999
 30
0.0
 11
135.91499999999991
 21
153.25999999999991
 31
0.0
  0
LINE
  5
14D
  8
0
 62
     7
 10
162.37200000000001
 20
152.67500000000001
 30
0.0
 11
133.70500000000001
 21
152.67500000000001
 31
0.0
  0
LINE
  5
14E
  8
0
 62
     7
 10
182.29900000000001
 20
132.749
 30
0.0
 11
163.072
 21
132.749
 31
0.0
  0
LINE
  5
14F
  8
0
 62
     7
 10
45.479300000000002
 20
215.34699999999989
 30
0.0
 11
40.290300000000002
 21
215.34699999999989
 31
0.0
  0
LINE
  5
150
  8
0
 62
     7
 10
45.479300000000002
 20
193.68700000000001
 30
0.0
 11
40.47979999999999
 21
193.68700000000001
 31
0.0
  0
LINE
  5
151
  8
0
 62
     7
 10
50.101300000000002
 20
215.34699999999989
 30
0.0
 11
45.479300000000002
 21
215.34699999999989
 31
0.0
  0
LINE
  5
152
  8
0
 62
     7
 10
50.101300000000002
 20
193.68700000000001
 30
0.0
 11
45.479300000000002
 21
193.68700000000001
 31
0.0
  0
LINE
  5
153
  8
0
 62
     7
 10
55.290300000000002
 20
215.34699999999989
 30
0.0
 11
50.101300000000002
 21
215.34699999999989
 31
0.0
  0
ARC
  5
154
  8
0
 62
     7
 10
54.988073
 20
197.552853
 30
0.0
 40
0.145898
 50
341.83435400000002
 51
358.71049099999988
  0
ARC
  5
155
  8
0
 62
     7
 10
56.669288000000002
 20
197.2026469999999
 30
0.0
 40
1.572397
 50
168.82574199999999
 51
173.70432099999991
  0
ARC
  5
156
  8
0
 62
     7
 10
60.892158999999999
 20
196.51890800000001
 30
0.0
 40
5.848789
 50
171.58257699999999
 51
173.68913199999989
  0
ARC
  5
157
  8
0
 62
     7
 10
58.741487999999997
 20
196.7550709999999
 30
0.0
 40
3.6851919999999989
 50
173.66308000000001
 51
177.87485899999999
  0
ARC
  5
158
  8
0
 62
     7
 10
59.459305999999998
 20
196.63178300000001
 30
0.0
 40
4.4081469999999996
 50
176.61937800000001
 51
180.36935099999999
  0
ARC
  5
159
  8
0
 62
     7
 10
62.683501999999997
 20
196.770633
 30
0.0
 40
7.6340830000000004
 50
181.25548599999991
 51
183.32577299999991
  0
ARC
  5
15A
  8
0
 62
     7
 10
60.062927000000002
 20
196.632869
 30
0.0
 40
5.009951
 50
183.49153699999999
 51
186.23403999999991
  0
ARC
  5
15B
  8
0
 62
     7
 10
58.506366999999997
 20
196.432817
 30
0.0
 40
3.441001
 50
185.737134
 51
188.66605899999999
  0
ARC
  5
15C
  8
0
 62
     7
 10
51.815329999999989
 20
195.3939169999999
 30
0.0
 40
3.3302360000000002
 50
7.4574889999999989
 51
8.9906710000000007
  0
LINE
  5
15D
  8
0
 62
     7
 10
55.100900000000003
 20
193.68700000000001
 30
0.0
 11
50.101300000000002
 21
193.68700000000001
 31
0.0
  0
LINE
  5
15E
  8
0
 62
     7
 10
72.639600000000002
 20
215.0
 30
0.0
 11
72.639600000000002
 21
215.279
 31
0.0
  0
LINE
  5
15F
  8
0
 62
     7
 10
55.600700000000003
 20
215.279
 30
0.0
 11
55.600700000000003
 21
214.15000000000001
 31
0.0
  0
LINE
  5
160
  8
0
 62
     7
 10
96.966600000000014
 20
214.34599999999989
 30
0.0
 11
96.966600000000014
 21
173.1759999999999
 31
0.0
  0
LINE
  5
161
  8
0
 62
     7
 10
95.967200000000005
 20
214.71599999999989
 30
0.0
 11
73.638999999999996
 21
214.71599999999989
 31
0.0
  0
LINE
  5
162
  8
0
 62
     7
 10
55.600700000000003
 20
214.15000000000001
 30
0.0
 11
55.600700000000003
 21
173.1759999999999
 31
0.0
  0
ARC
  5
163
  8
0
 62
     7
 10
56.285255999999997
 20
173.3522209999999
 30
0.0
 40
0.706857
 50
194.44609899999989
 51
200.29970999999989
  0
ARC
  5
164
  8
0
 62
     7
 10
55.807575999999997
 20
173.184234
 30
0.0
 40
0.200732
 50
202.63190900000001
 51
221.652919
  0
ARC
  5
165
  8
0
 62
     7
 10
55.826197999999991
 20
173.18280899999999
 30
0.0
 40
0.214122
 50
218.05389099999999
 51
229.08459500000001
  0
ARC
  5
166
  8
0
 62
     7
 10
55.961553000000002
 20
173.33690999999999
 30
0.0
 40
0.419224
 50
228.89914300000001
 51
238.6569189999999
  0
ARC
  5
167
  8
0
 62
     7
 10
56.251854999999999
 20
173.80772699999989
 30
0.0
 40
0.972342
 50
238.47797600000001
 51
243.599706
  0
ARC
  5
168
  8
0
 62
     7
 10
56.336224999999999
 20
174.137844
 30
0.0
 40
1.3074870000000001
 50
246.72186499999989
 51
258.21945799999997
  0
ARC
  5
169
  8
0
 62
     7
 10
56.453795999999997
 20
174.39173099999999
 30
0.0
 40
1.5812959999999989
 50
255.92670799999999
 51
267.38882799999988
  0
ARC
  5
16A
  8
0
 62
     7
 10
56.576601000000011
 20
174.81826699999999
 30
0.0
 40
2.0156290000000001
 50
264.452721
 51
270.67016399999989
  0
LINE
  5
16B
  8
0
 62
     7
 10
95.967200000000005
 20
172.80299999999991
 30
0.0
 11
56.600200000000001
 21
172.80299999999991
 31
0.0
  0
ARC
  5
16C
  8
0
 62
     7
 10
95.777055000000004
 20
178.64150699999999
 30
0.0
 40
5.8418260000000002
 50
271.865118
 51
275.13230699999991
  0
ARC
  5
16D
  8
0
 62
     7
 10
96.130020000000016
 20
174.473994
 30
0.0
 40
1.659583
 50
275.86624399999999
 51
286.15532200000001
  0
ARC
  5
16E
  8
0
 62
     7
 10
96.119894999999985
 20
174.42520899999991
 30
0.0
 40
1.6157099999999991
 50
286.98158799999987
 51
290.79831000000001
  0
ARC
  5
16F
  8
0
 62
     7
 10
96.431004000000016
 20
173.60663099999999
 30
0.0
 40
0.7400050000000001
 50
290.784694
 51
301.19946299999992
  0
ARC
  5
170
  8
0
 62
     7
 10
96.594956999999994
 20
173.35681899999989
 30
0.0
 40
0.441526
 50
299.79354799999987
 51
316.86455799999987
  0
ARC
  5
171
  8
0
 62
     7
 10
96.764921000000001
 20
173.19018999999989
 30
0.0
 40
0.20364
 50
318.38045099999988
 51
330.89317099999988
  0
ARC
  5
172
  8
0
 62
     7
 10
96.810001
 20
173.162218
 30
0.0
 40
0.150666
 50
331.84812599999992
 51
344.83148699999998
  0
ARC
  5
173
  8
0
 62
     7
 10
96.360705000000024
 20
173.27594999999999
 30
0.0
 40
0.6141180000000001
 50
345.55850600000002
 51
350.62202100000002
  0
LINE
  5
174
  8
0
 62
     7
 10
55.0623
 20
196.3179999999999
 30
0.0
 11
55.0623
 21
196.95199999999991
 31
0.0
  0
LINE
  5
175
  8
0
 62
     7
 10
55.100900000000003
 20
197.34200000000001
 30
0.0
 11
55.100900000000003
 21
197.05199999999999
 31
0.0
  0
LINE
  5
176
  8
0
 62
     7
 10
55.100900000000003
 20
197.05199999999999
 30
0.0
 11
55.100900000000003
 21
195.999
 31
0.0
  0
ARC
  5
177
  8
0
 62
     7
 10
98.023838000000012
 20
187.13298499999999
 30
0.0
 40
0.347036
 50
272.00501200000002
 51
357.34223100000003
  0
LINE
  5
178
  8
0
  6
AIGENLINE003
 62
     7
 10
59.754899999999999
 20
186.78599999999989
 30
0.0
 11
59.754899999999999
 21
190.119
 31
0.0
  0
LINE
  5
179
  8
0
  6
AIGENLINE003
 62
     7
 10
60.0884
 20
186.78599999999989
 30
0.0
 11
60.0884
 21
190.119
 31
0.0
  0
LINE
  5
17A
  8
0
  6
AIGENLINE003
 62
     7
 10
59.754899999999999
 20
190.119
 30
0.0
 11
58.4574
 21
190.119
 31
0.0
  0
LINE
  5
17B
  8
0
  6
AIGENLINE003
 62
     7
 10
96.966600000000014
 20
190.119
 30
0.0
 11
59.754899999999999
 21
190.119
 31
0.0
  0
LINE
  5
17C
  8
0
  6
AIGENLINE003
 62
     7
 10
96.966600000000014
 20
186.78599999999989
 30
0.0
 11
59.754899999999999
 21
186.78599999999989
 31
0.0
  0
LINE
  5
17D
  8
0
 62
     7
 10
98.036000000000016
 20
186.78599999999989
 30
0.0
 11
96.966600000000014
 21
186.78599999999989
 31
0.0
  0
ARC
  5
17E
  8
0
 62
     7
 10
58.305860000000003
 20
105.27960299999999
 30
0.0
 40
81.492558000000002
 50
91.902248999999983
 51
93.235981000000024
  0
ARC
  5
17F
  8
0
 62
     7
 10
62.963864000000001
 20
17.43214
 30
0.0
 40
169.46316599999989
 50
93.131744999999995
 51
94.169769999999986
  0
ARC
  5
180
  8
0
 62
     7
 10
71.882326000000006
 20
-109.31639199999999
 30
0.0
 40
296.52484500000003
 50
94.107686000000015
 51
94.894289000000001
  0
ARC
  5
181
  8
0
 62
     7
 10
80.083536999999978
 20
-207.941293
 30
0.0
 40
395.48992399999997
 50
94.859063000000006
 51
95.572493999999992
  0
ARC
  5
182
  8
0
 62
     7
 10
96.717140000000015
 20
190.31516099999999
 30
0.0
 40
0.319412
 50
321.35630499999991
 51
0.1558
  0
LINE
  5
183
  8
0
 62
     7
 10
98.421800000000005
 20
193.11799999999991
 30
0.0
 11
98.370500000000007
 21
187.11699999999999
 31
0.0
  0
LINE
  5
184
  8
0
 62
     7
 10
97.036600000000007
 20
190.31599999999989
 30
0.0
 11
97.060299999999998
 21
193.1209999999999
 31
0.0
  0
ARC
  5
185
  8
0
 62
     7
 10
98.078326000000004
 20
193.10873199999989
 30
0.0
 40
0.343625
 50
1.507331999999999
 51
87.869399999999985
  0
ARC
  5
186
  8
0
 62
     7
 10
97.405309000000017
 20
193.1070499999999
 30
0.0
 40
0.345285
 50
92.022942999999998
 51
177.620045
  0
LINE
  5
187
  8
0
 62
     7
 10
97.393100000000004
 20
193.452
 30
0.0
 11
98.089399999999983
 21
193.452
 31
0.0
  0
LINE
  5
188
  8
0
 62
     7
 10
45.479300000000002
 20
193.452
 30
0.0
 11
44.736899999999999
 21
193.452
 31
0.0
  0
LINE
  5
189
  8
0
 62
     7
 10
44.736899999999999
 20
193.452
 30
0.0
 11
44.009300000000003
 21
193.452
 31
0.0
  0
LINE
  5
18A
  8
0
 62
     7
 10
44.009300000000003
 20
193.452
 30
0.0
 11
43.22829999999999
 21
193.452
 31
0.0
  0
LINE
  5
18B
  8
0
 62
     7
 10
43.22829999999999
 20
193.452
 30
0.0
 11
42.511699999999998
 21
193.452
 31
0.0
  0
LINE
  5
18C
  8
0
 62
     7
 10
42.511699999999998
 20
193.452
 30
0.0
 11
41.877800000000001
 21
193.452
 31
0.0
  0
LINE
  5
18D
  8
0
 62
     7
 10
41.877800000000001
 20
193.452
 30
0.0
 11
41.346899999999991
 21
193.452
 31
0.0
  0
LINE
  5
18E
  8
0
 62
     7
 10
41.346899999999991
 20
193.452
 30
0.0
 11
40.933500000000002
 21
193.452
 31
0.0
  0
LINE
  5
18F
  8
0
 62
     7
 10
40.933500000000002
 20
193.452
 30
0.0
 11
40.648600000000002
 21
193.452
 31
0.0
  0
LINE
  5
190
  8
0
 62
     7
 10
40.648600000000002
 20
193.452
 30
0.0
 11
40.501800000000003
 21
193.452
 31
0.0
  0
LINE
  5
191
  8
0
 62
     7
 10
55.100900000000003
 20
193.452
 30
0.0
 11
55.005400000000002
 21
193.452
 31
0.0
  0
LINE
  5
192
  8
0
 62
     7
 10
55.005400000000002
 20
193.452
 30
0.0
 11
54.720500000000001
 21
193.452
 31
0.0
  0
LINE
  5
193
  8
0
 62
     7
 10
54.720500000000001
 20
193.452
 30
0.0
 11
54.2575
 21
193.452
 31
0.0
  0
LINE
  5
194
  8
0
 62
     7
 10
54.2575
 20
193.452
 30
0.0
 11
53.63669999999999
 21
193.452
 31
0.0
  0
LINE
  5
195
  8
0
 62
     7
 10
53.63669999999999
 20
193.452
 30
0.0
 11
52.87939999999999
 21
193.452
 31
0.0
  0
LINE
  5
196
  8
0
 62
     7
 10
52.87939999999999
 20
193.452
 30
0.0
 11
52.013999999999989
 21
193.452
 31
0.0
  0
LINE
  5
197
  8
0
 62
     7
 10
52.013999999999989
 20
193.452
 30
0.0
 11
51.076999999999998
 21
193.452
 31
0.0
  0
LINE
  5
198
  8
0
 62
     7
 10
51.076999999999998
 20
193.452
 30
0.0
 11
50.101300000000002
 21
193.452
 31
0.0
  0
ARC
  5
199
  8
0
 62
     7
 10
50.136904000000001
 20
193.546942
 30
0.0
 40
0.097746
 50
248.6425899999999
 51
261.01160199999993
  0
ARC
  5
19A
  8
0
 62
     7
 10
50.103242000000002
 20
193.399304
 30
0.0
 40
0.054302
 50
47.551456999999992
 51
70.203590000000005
  0
ARC
  5
19B
  8
0
 62
     7
 10
49.845444999999998
 20
193.09313700000001
 30
0.0
 40
0.454509
 50
44.518650000000001
 51
49.621400999999999
  0
ARC
  5
19C
  8
0
 62
     7
 10
49.477510000000002
 20
192.79138099999989
 30
0.0
 40
0.929415
 50
36.88939899999999
 51
41.878245999999997
  0
ARC
  5
19D
  8
0
 62
     7
 10
48.916502000000001
 20
192.28220799999991
 30
0.0
 40
1.685222999999999
 50
33.837509999999988
 51
39.286198999999989
  0
ARC
  5
19E
  8
0
 62
     7
 10
52.407561999999992
 20
194.81597500000001
 30
0.0
 40
2.6303320000000001
 50
217.33880899999991
 51
224.2678939999999
  0
ARC
  5
19F
  8
0
 62
     7
 10
54.023056999999987
 20
196.26747399999991
 30
0.0
 40
4.8011400000000002
 50
223.21476799999999
 51
230.77615399999999
  0
ARC
  5
1A0
  8
0
 62
     7
 10
54.687916000000001
 20
197.11840799999999
 30
0.0
 40
5.880812999999999
 50
231.000595
 51
238.689943
  0
ARC
  5
1A1
  8
0
 62
     7
 10
56.798788000000002
 20
200.42992499999991
 30
0.0
 40
9.8073689999999996
 50
238.20757
 51
240.98341499999989
  0
ARC
  5
1A2
  8
0
 62
     7
 10
59.03584399999999
 20
204.6209429999999
 30
0.0
 40
14.557641
 50
241.28509099999991
 51
246.20630199999991
  0
ARC
  5
1A3
  8
0
 62
     7
 10
59.790053
 20
206.36415400000001
 30
0.0
 40
16.456973000000001
 50
246.25220699999991
 51
249.14309199999991
  0
ARC
  5
1A4
  8
0
 62
     7
 10
67.973991999999996
 20
227.40270599999991
 30
0.0
 40
39.031008999999997
 50
248.91233699999989
 51
249.53239599999989
  0
ARC
  5
1A5
  8
0
 62
     7
 10
61.582818999999994
 20
210.14385799999991
 30
0.0
 40
20.626915
 50
249.40089900000001
 51
250.46508899999989
  0
ARC
  5
1A6
  8
0
 62
     7
 10
57.235740999999997
 20
197.875204
 30
0.0
 40
7.6108909999999996
 50
250.42324300000001
 51
257.01265399999988
  0
ARC
  5
1A7
  8
0
 62
     7
 10
55.964780000000012
 20
192.2837449999999
 30
0.0
 40
1.876920999999999
 50
256.45851800000003
 51
258.81652000000003
  0
LINE
  5
1A8
  8
0
 62
     7
 10
50.101300000000002
 20
193.452
 30
0.0
 11
45.479300000000002
 21
193.452
 31
0.0
  0
LINE
  5
1A9
  8
0
 62
     7
 10
40.290300000000002
 20
215.34699999999989
 30
0.0
 11
40.47979999999999
 21
193.68700000000001
 31
0.0
  0
LINE
  5
1AA
  8
0
 62
     7
 10
55.100900000000003
 20
193.68700000000001
 30
0.0
 11
55.119500000000002
 21
195.83000000000001
 31
0.0
  0
LINE
  5
1AB
  8
0
 62
     7
 10
55.133899999999997
 20
197.55000000000001
 30
0.0
 11
55.290300000000002
 21
215.34699999999989
 31
0.0
  0
LINE
  5
1AC
  8
0
 62
     7
 10
55.600700000000003
 20
214.51400000000001
 30
0.0
 11
55.282800000000002
 21
214.51400000000001
 31
0.0
  0
LINE
  5
1AD
  8
0
 62
     7
 10
55.255200000000002
 20
211.51599999999991
 30
0.0
 11
55.600700000000003
 21
211.51599999999991
 31
0.0
  0
LINE
  5
1AE
  8
0
 62
     7
 10
72.639600000000002
 20
215.279
 30
0.0
 11
55.600700000000003
 21
215.279
 31
0.0
  0
LINE
  5
1AF
  8
0
 62
     7
 10
40.817700000000002
 20
193.68700000000001
 30
0.0
 11
40.816000000000003
 21
193.6509999999999
 31
0.0
  0
LINE
  5
1B0
  8
0
 62
     7
 10
40.816000000000003
 20
193.6509999999999
 30
0.0
 11
40.816000000000003
 21
193.6159999999999
 31
0.0
  0
LINE
  5
1B1
  8
0
 62
     7
 10
54.764600000000002
 20
193.6159999999999
 30
0.0
 11
54.764600000000002
 21
193.6509999999999
 31
0.0
  0
LINE
  5
1B2
  8
0
 62
     7
 10
54.764600000000002
 20
193.6509999999999
 30
0.0
 11
54.762900000000002
 21
193.68700000000001
 31
0.0
  0
ARC
  5
1B3
  8
0
 62
     7
 10
41.593685999999991
 20
185.9575669999999
 30
0.0
 40
0.216606
 50
191.87439900000001
 51
222.26635499999989
  0
ARC
  5
1B4
  8
0
 62
     7
 10
41.783019000000003
 20
186.105647
 30
0.0
 40
0.456658
 50
220.037668
 51
231.62737999999999
  0
ARC
  5
1B5
  8
0
 62
     7
 10
41.672189000000003
 20
185.955468
 30
0.0
 40
0.270194
 50
230.28337200000001
 51
246.78512699999999
  0
ARC
  5
1B6
  8
0
 62
     7
 10
41.696126999999997
 20
185.99830800000001
 30
0.0
 40
0.3190409999999999
 50
245.86684199999991
 51
257.36097599999999
  0
ARC
  5
1B7
  8
0
 62
     7
 10
41.696551999999997
 20
185.99634900000001
 30
0.0
 40
0.3172239999999999
 50
257.20878900000002
 51
266.895802
  0
ARC
  5
1B8
  8
0
 62
     7
 10
209.25888699999999
 20
197.59456899999989
 30
0.0
 40
168.82993099999999
 50
181.40598299999999
 51
181.775203
  0
ARC
  5
1B9
  8
0
 62
     7
 10
81.623383000000004
 20
193.73170200000001
 30
0.0
 40
41.136125
 50
181.90454099999999
 51
183.20108400000001
  0
ARC
  5
1BA
  8
0
 62
     7
 10
70.232438000000002
 20
193.144632
 30
0.0
 40
29.730211999999991
 50
183.29728399999999
 51
185.4233109999999
  0
ARC
  5
1BB
  8
0
 62
     7
 10
86.223136999999994
 20
194.595461
 30
0.0
 40
45.786503000000003
 50
185.33947599999999
 51
186.48449899999989
  0
ARC
  5
1BC
  8
0
 62
     7
 10
69.216875999999999
 20
200.01373199999989
 30
0.0
 40
15.880653000000001
 50
209.77824799999999
 51
210.97372299999989
  0
ARC
  5
1BD
  8
0
 62
     7
 10
57.981893999999997
 20
193.554901
 30
0.0
 40
2.9215800000000001
 50
201.9311469999999
 51
209.264827
  0
ARC
  5
1BE
  8
0
 62
     7
 10
57.363765000000001
 20
193.27285199999989
 30
0.0
 40
2.2430500000000002
 50
189.06803899999991
 51
201.14509099999989
  0
ARC
  5
1BF
  8
0
 62
     7
 10
57.610829000000003
 20
193.33285699999999
 30
0.0
 40
2.4965669999999989
 50
186.383441
 51
189.53428
  0
ARC
  5
1C0
  8
0
 62
     7
 10
60.526086999999997
 20
193.6474739999999
 30
0.0
 40
5.4287419999999988
 50
182.06226899999999
 51
186.26253700000001
  0
ARC
  5
1C1
  8
0
 62
     7
 10
40.643751999999992
 20
193.62439399999991
 30
0.0
 40
0.172414
 50
272.29673500000001
 51
357.70327500000002
  0
ARC
  5
1C2
  8
0
 62
     7
 10
54.938042000000003
 20
193.62572599999999
 30
0.0
 40
0.17371
 50
183.28815499999999
 51
268.02347900000001
  0
LINE
  5
1C3
  8
0
 62
     7
 10
46.309600000000003
 20
132.7579999999999
 30
0.0
 11
46.309600000000003
 21
132.75999999999991
 31
0.0
  0
LINE
  5
1C4
  8
0
 62
     7
 10
48.180300000000003
 20
132.75999999999991
 30
0.0
 11
48.180300000000003
 21
132.762
 31
0.0
  0
LINE
  5
1C5
  8
0
 62
     7
 10
47.882699999999993
 20
132.762
 30
0.0
 11
48.180300000000003
 21
132.762
 31
0.0
  0
LINE
  5
1C6
  8
0
 62
     7
 10
48.180300000000003
 20
132.762
 30
0.0
 11
48.161700000000003
 21
132.762
 31
0.0
  0
LINE
  5
1C7
  8
0
 62
     7
 10
48.161700000000003
 20
132.762
 30
0.0
 11
48.137900000000002
 21
132.762
 31
0.0
  0
LINE
  5
1C8
  8
0
 62
     7
 10
48.137900000000002
 20
132.762
 30
0.0
 11
48.1066
 21
132.762
 31
0.0
  0
LINE
  5
1C9
  8
0
 62
     7
 10
48.1066
 20
132.762
 30
0.0
 11
48.070099999999996
 21
132.762
 31
0.0
  0
LINE
  5
1CA
  8
0
 62
     7
 10
48.070099999999996
 20
132.762
 30
0.0
 11
48.029400000000003
 21
132.762
 31
0.0
  0
LINE
  5
1CB
  8
0
 62
     7
 10
48.029400000000003
 20
132.762
 30
0.0
 11
47.9908
 21
132.762
 31
0.0
  0
LINE
  5
1CC
  8
0
 62
     7
 10
47.9908
 20
132.762
 30
0.0
 11
47.954300000000003
 21
132.762
 31
0.0
  0
LINE
  5
1CD
  8
0
 62
     7
 10
47.954300000000003
 20
132.762
 30
0.0
 11
47.923000000000002
 21
132.762
 31
0.0
  0
LINE
  5
1CE
  8
0
 62
     7
 10
47.923000000000002
 20
132.762
 30
0.0
 11
47.897100000000002
 21
132.762
 31
0.0
  0
LINE
  5
1CF
  8
0
 62
     7
 10
47.897100000000002
 20
132.762
 30
0.0
 11
47.882699999999993
 21
132.762
 31
0.0
  0
LINE
  5
1D0
  8
0
 62
     7
 10
47.403100000000002
 20
132.75999999999991
 30
0.0
 11
47.403100000000002
 21
132.762
 31
0.0
  0
LINE
  5
1D1
  8
0
 62
     7
 10
47.105400000000003
 20
132.762
 30
0.0
 11
47.403100000000002
 21
132.762
 31
0.0
  0
LINE
  5
1D2
  8
0
 62
     7
 10
47.403100000000002
 20
132.762
 30
0.0
 11
47.378999999999991
 21
132.762
 31
0.0
  0
LINE
  5
1D3
  8
0
 62
     7
 10
47.378999999999991
 20
132.762
 30
0.0
 11
47.355200000000004
 21
132.762
 31
0.0
  0
LINE
  5
1D4
  8
0
 62
     7
 10
47.355200000000004
 20
132.762
 30
0.0
 11
47.323900000000002
 21
132.762
 31
0.0
  0
LINE
  5
1D5
  8
0
 62
     7
 10
47.323900000000002
 20
132.762
 30
0.0
 11
47.287300000000002
 21
132.762
 31
0.0
  0
LINE
  5
1D6
  8
0
 62
     7
 10
47.287300000000002
 20
132.762
 30
0.0
 11
47.248699999999999
 21
132.762
 31
0.0
  0
LINE
  5
1D7
  8
0
 62
     7
 10
47.248699999999999
 20
132.762
 30
0.0
 11
47.2102
 21
132.762
 31
0.0
  0
LINE
  5
1D8
  8
0
 62
     7
 10
47.2102
 20
132.762
 30
0.0
 11
47.17329999999999
 21
132.762
 31
0.0
  0
LINE
  5
1D9
  8
0
 62
     7
 10
47.17329999999999
 20
132.762
 30
0.0
 11
47.141999999999989
 21
132.762
 31
0.0
  0
LINE
  5
1DA
  8
0
 62
     7
 10
47.141999999999989
 20
132.762
 30
0.0
 11
47.118200000000002
 21
132.762
 31
0.0
  0
LINE
  5
1DB
  8
0
 62
     7
 10
47.118200000000002
 20
132.762
 30
0.0
 11
47.105400000000003
 21
132.762
 31
0.0
  0
LINE
  5
1DC
  8
0
 62
     7
 10
46.587299999999999
 20
132.75999999999991
 30
0.0
 11
46.587299999999999
 21
132.762
 31
0.0
  0
LINE
  5
1DD
  8
0
 62
     7
 10
46.269300000000001
 20
132.75999999999991
 30
0.0
 11
46.309600000000003
 21
132.75999999999991
 31
0.0
  0
LINE
  5
1DE
  8
0
 62
     7
 10
46.587299999999999
 20
132.762
 30
0.0
 11
46.502499999999991
 21
132.762
 31
0.0
  0
LINE
  5
1DF
  8
0
 62
     7
 10
46.502499999999991
 20
132.762
 30
0.0
 11
46.430899999999987
 21
132.762
 31
0.0
  0
LINE
  5
1E0
  8
0
 62
     7
 10
46.430899999999987
 20
132.762
 30
0.0
 11
46.372300000000003
 21
132.762
 31
0.0
  0
LINE
  5
1E1
  8
0
 62
     7
 10
46.372300000000003
 20
132.762
 30
0.0
 11
46.328200000000002
 21
132.762
 31
0.0
  0
LINE
  5
1E2
  8
0
 62
     7
 10
46.328200000000002
 20
132.762
 30
0.0
 11
46.295099999999991
 21
132.762
 31
0.0
  0
LINE
  5
1E3
  8
0
 62
     7
 10
46.295099999999991
 20
132.762
 30
0.0
 11
46.276499999999999
 21
132.762
 31
0.0
  0
LINE
  5
1E4
  8
0
 62
     7
 10
46.309600000000003
 20
132.75999999999991
 30
0.0
 11
46.348199999999999
 21
132.7579999999999
 31
0.0
  0
LINE
  5
1E5
  8
0
 62
     7
 10
46.348199999999999
 20
132.7579999999999
 30
0.0
 11
46.39439999999999
 21
132.7579999999999
 31
0.0
  0
LINE
  5
1E6
  8
0
 62
     7
 10
46.39439999999999
 20
132.7579999999999
 30
0.0
 11
46.412599999999991
 21
132.7579999999999
 31
0.0
  0
LINE
  5
1E7
  8
0
 62
     7
 10
46.412599999999991
 20
132.7579999999999
 30
0.0
 11
46.434699999999992
 21
132.7579999999999
 31
0.0
  0
LINE
  5
1E8
  8
0
 62
     7
 10
46.434699999999992
 20
132.7579999999999
 30
0.0
 11
46.471499999999992
 21
132.7579999999999
 31
0.0
  0
LINE
  5
1E9
  8
0
 62
     7
 10
46.471499999999992
 20
132.7579999999999
 30
0.0
 11
46.502499999999991
 21
132.75999999999991
 31
0.0
  0
LINE
  5
1EA
  8
0
 62
     7
 10
46.502499999999991
 20
132.75999999999991
 30
0.0
 11
46.552100000000003
 21
132.75999999999991
 31
0.0
  0
LINE
  5
1EB
  8
0
 62
     7
 10
46.552100000000003
 20
132.75999999999991
 30
0.0
 11
46.581800000000001
 21
132.75999999999991
 31
0.0
  0
LINE
  5
1EC
  8
0
 62
     7
 10
49.5839
 20
132.75999999999991
 30
0.0
 11
49.560099999999998
 21
132.75999999999991
 31
0.0
  0
LINE
  5
1ED
  8
0
 62
     7
 10
49.560099999999998
 20
132.75999999999991
 30
0.0
 11
49.414999999999999
 21
132.75999999999991
 31
0.0
  0
LINE
  5
1EE
  8
0
 62
     7
 10
49.414999999999999
 20
132.75999999999991
 30
0.0
 11
49.3506
 21
132.75999999999991
 31
0.0
  0
LINE
  5
1EF
  8
0
 62
     7
 10
49.3506
 20
132.75999999999991
 30
0.0
 11
49.335799999999999
 21
132.75999999999991
 31
0.0
  0
LINE
  5
1F0
  8
0
 62
     7
 10
49.335799999999999
 20
132.75999999999991
 30
0.0
 11
49.323099999999997
 21
132.75999999999991
 31
0.0
  0
LINE
  5
1F1
  8
0
 62
     7
 10
49.323099999999997
 20
132.75999999999991
 30
0.0
 11
49.3489
 21
132.7579999999999
 31
0.0
  0
LINE
  5
1F2
  8
0
 62
     7
 10
49.3489
 20
132.7579999999999
 30
0.0
 11
49.372700000000002
 21
132.7579999999999
 31
0.0
  0
LINE
  5
1F3
  8
0
 62
     7
 10
49.372700000000002
 20
132.7579999999999
 30
0.0
 11
49.393000000000001
 21
132.7579999999999
 31
0.0
  0
LINE
  5
1F4
  8
0
 62
     7
 10
49.393000000000001
 20
132.7579999999999
 30
0.0
 11
49.412999999999997
 21
132.7579999999999
 31
0.0
  0
LINE
  5
1F5
  8
0
 62
     7
 10
49.412999999999997
 20
132.7579999999999
 30
0.0
 11
49.446000000000012
 21
132.7579999999999
 31
0.0
  0
LINE
  5
1F6
  8
0
 62
     7
 10
49.446000000000012
 20
132.7579999999999
 30
0.0
 11
49.495699999999999
 21
132.75999999999991
 31
0.0
  0
LINE
  5
1F7
  8
0
 62
     7
 10
49.495699999999999
 20
132.75999999999991
 30
0.0
 11
49.561799999999991
 21
132.75999999999991
 31
0.0
  0
LINE
  5
1F8
  8
0
 62
     7
 10
49.561799999999991
 20
132.75999999999991
 30
0.0
 11
49.5839
 21
132.75999999999991
 31
0.0
  0
LINE
  5
1F9
  8
0
 62
     7
 10
48.268500000000003
 20
132.7579999999999
 30
0.0
 11
48.268500000000003
 21
132.75999999999991
 31
0.0
  0
LINE
  5
1FA
  8
0
 62
     7
 10
47.491300000000003
 20
132.7579999999999
 30
0.0
 11
47.491300000000003
 21
132.75999999999991
 31
0.0
  0
LINE
  5
1FB
  8
0
 62
     7
 10
48.555100000000003
 20
132.7579999999999
 30
0.0
 11
48.555100000000003
 21
132.75999999999991
 31
0.0
  0
LINE
  5
1FC
  8
0
 62
     7
 10
47.105400000000003
 20
132.75999999999991
 30
0.0
 11
47.044800000000002
 21
132.75999999999991
 31
0.0
  0
LINE
  5
1FD
  8
0
 62
     7
 10
47.044800000000002
 20
132.75999999999991
 30
0.0
 11
47.018999999999998
 21
132.75999999999991
 31
0.0
  0
LINE
  5
1FE
  8
0
 62
     7
 10
47.882699999999993
 20
132.75999999999991
 30
0.0
 11
47.808900000000001
 21
132.75999999999991
 31
0.0
  0
LINE
  5
1FF
  8
0
 62
     7
 10
48.920699999999997
 20
132.75999999999991
 30
0.0
 11
48.801099999999998
 21
132.75999999999991
 31
0.0
  0
LINE
  5
200
  8
0
 62
     7
 10
48.801099999999998
 20
132.75999999999991
 30
0.0
 11
48.7515
 21
132.75999999999991
 31
0.0
  0
LINE
  5
201
  8
0
 62
     7
 10
48.755299999999998
 20
132.7579999999999
 30
0.0
 11
48.696399999999997
 21
132.7579999999999
 31
0.0
  0
LINE
  5
202
  8
0
 62
     7
 10
48.696399999999997
 20
132.7579999999999
 30
0.0
 11
48.676400000000001
 21
132.7579999999999
 31
0.0
  0
ARC
  5
203
  8
0
 62
     7
 10
49.689619999999998
 20
132.733316
 30
0.0
 40
0.026724
 50
58.97126999999999
 51
99.658888000000005
  0
LINE
  5
204
  8
0
 62
     7
 10
49.685099999999998
 20
132.75999999999991
 30
0.0
 11
49.659300000000002
 21
132.75999999999991
 31
0.0
  0
LINE
  5
205
  8
0
 62
     7
 10
49.659300000000002
 20
132.75999999999991
 30
0.0
 11
49.624499999999998
 21
132.75999999999991
 31
0.0
  0
LINE
  5
206
  8
0
 62
     7
 10
49.624499999999998
 20
132.75999999999991
 30
0.0
 11
49.5839
 21
132.75999999999991
 31
0.0
  0
LINE
  5
207
  8
0
 62
     7
 10
49.596899999999998
 20
132.7579999999999
 30
0.0
 11
49.596899999999998
 21
132.75999999999991
 31
0.0
  0
LINE
  5
208
  8
0
 62
     7
 10
46.590699999999991
 20
132.756
 30
0.0
 11
46.590699999999991
 21
132.75999999999991
 31
0.0
  0
LINE
  5
209
  8
0
 62
     7
 10
46.5852
 20
132.75999999999991
 30
0.0
 11
46.587299999999999
 21
132.75999999999991
 31
0.0
  0
LINE
  5
20A
  8
0
 62
     7
 10
46.269300000000001
 20
132.75999999999991
 30
0.0
 11
46.19939999999999
 21
132.75999999999991
 31
0.0
  0
LINE
  5
20B
  8
0
 62
     7
 10
46.704799999999999
 20
132.75999999999991
 30
0.0
 11
46.587299999999999
 21
132.75999999999991
 31
0.0
  0
ARC
  5
20C
  8
0
 62
     7
 10
45.677688000000003
 20
127.38184200000001
 30
0.0
 40
5.3911150000000001
 50
92.108496000000017
 51
177.8686459999999
  0
ARC
  5
20D
  8
0
 62
     7
 10
45.678218999999999
 20
127.78121999999991
 30
0.0
 40
5.3915870000000004
 50
182.113991
 51
267.88603899999998
  0
ARC
  5
20E
  8
0
 62
     7
 10
45.670915999999998
 20
127.39076
 30
0.0
 40
5.194666999999999
 50
92.113531999999992
 51
177.88643799999991
  0
ARC
  5
20F
  8
0
 62
     7
 10
45.670945999999986
 20
127.773948
 30
0.0
 40
5.1946979999999998
 50
182.11388099999991
 51
267.88614799999999
  0
ARC
  5
210
  8
0
 62
     7
 10
50.479463000000003
 20
127.55659799999989
 30
0.0
 40
5.2127089999999994
 50
74.36306900000001
 51
90.028994999999995
  0
ARC
  5
211
  8
0
 62
     7
 10
50.476286000000002
 20
127.57574700000001
 30
0.0
 40
5.1824440000000003
 50
270.00596300000001
 51
285.76710700000001
  0
ARC
  5
212
  8
0
 62
     7
 10
48.286638000000011
 20
132.74621799999991
 30
0.0
 40
0.016419
 50
54.959144999999992
 51
109.153893
  0
LINE
  5
213
  8
0
 62
     7
 10
48.281300000000002
 20
132.762
 30
0.0
 11
48.246499999999997
 21
132.762
 31
0.0
  0
LINE
  5
214
  8
0
 62
     7
 10
48.246499999999997
 20
132.762
 30
0.0
 11
48.20409999999999
 21
132.762
 31
0.0
  0
LINE
  5
215
  8
0
 62
     7
 10
48.20409999999999
 20
132.762
 30
0.0
 11
48.145200000000003
 21
132.7649999999999
 31
0.0
  0
LINE
  5
216
  8
0
 62
     7
 10
48.145200000000003
 20
132.7649999999999
 30
0.0
 11
48.090000000000011
 21
132.7649999999999
 31
0.0
  0
LINE
  5
217
  8
0
 62
     7
 10
48.090000000000011
 20
132.7649999999999
 30
0.0
 11
48.026000000000003
 21
132.7649999999999
 31
0.0
  0
LINE
  5
218
  8
0
 62
     7
 10
48.026000000000003
 20
132.7649999999999
 30
0.0
 11
47.957799999999992
 21
132.7649999999999
 31
0.0
  0
LINE
  5
219
  8
0
 62
     7
 10
47.957799999999992
 20
132.7649999999999
 30
0.0
 11
47.9285
 21
132.7649999999999
 31
0.0
  0
ARC
  5
21A
  8
0
 62
     7
 10
47.927196000000002
 20
132.74458899999991
 30
0.0
 40
0.020624
 50
86.45372900000001
 51
123.794262
  0
ARC
  5
21B
  8
0
 62
     7
 10
47.862324999999991
 20
131.9966949999999
 30
0.0
 40
0.766895
 50
86.007221999999985
 51
93.992757999999995
  0
LINE
  5
21C
  8
0
 62
     7
 10
47.808900000000001
 20
132.762
 30
0.0
 11
47.759300000000003
 21
132.762
 31
0.0
  0
LINE
  5
21D
  8
0
 62
     7
 10
47.759300000000003
 20
132.762
 30
0.0
 11
47.801699999999997
 21
132.75999999999991
 31
0.0
  0
LINE
  5
21E
  8
0
 62
     7
 10
47.801699999999997
 20
132.75999999999991
 30
0.0
 11
47.858499999999992
 21
132.7579999999999
 31
0.0
  0
LINE
  5
21F
  8
0
 62
     7
 10
47.858499999999992
 20
132.7579999999999
 30
0.0
 11
47.932299999999998
 21
132.7579999999999
 31
0.0
  0
LINE
  5
220
  8
0
 62
     7
 10
47.932299999999998
 20
132.7579999999999
 30
0.0
 11
48.026000000000003
 21
132.7579999999999
 31
0.0
  0
LINE
  5
221
  8
0
 62
     7
 10
48.026000000000003
 20
132.7579999999999
 30
0.0
 11
48.275700000000001
 21
132.7579999999999
 31
0.0
  0
LINE
  5
222
  8
0
 62
     7
 10
47.877099999999992
 20
132.75999999999991
 30
0.0
 11
48.296100000000003
 21
132.75999999999991
 31
0.0
  0
LINE
  5
223
  8
0
 62
     7
 10
48.268500000000003
 20
132.75999999999991
 30
0.0
 11
48.139699999999998
 21
132.7579999999999
 31
0.0
  0
LINE
  5
224
  8
0
 62
     7
 10
48.139699999999998
 20
132.7579999999999
 30
0.0
 11
48.005600000000001
 21
132.7579999999999
 31
0.0
  0
LINE
  5
225
  8
0
 62
     7
 10
48.005600000000001
 20
132.7579999999999
 30
0.0
 11
47.956000000000003
 21
132.75999999999991
 31
0.0
  0
LINE
  5
226
  8
0
 62
     7
 10
47.956000000000003
 20
132.75999999999991
 30
0.0
 11
47.923000000000002
 21
132.75999999999991
 31
0.0
  0
LINE
  5
227
  8
0
 62
     7
 10
47.923000000000002
 20
132.75999999999991
 30
0.0
 11
47.8992
 21
132.75999999999991
 31
0.0
  0
LINE
  5
228
  8
0
 62
     7
 10
47.8992
 20
132.75999999999991
 30
0.0
 11
47.877099999999992
 21
132.75999999999991
 31
0.0
  0
LINE
  5
229
  8
0
 62
     7
 10
48.275700000000001
 20
132.7579999999999
 30
0.0
 11
48.268500000000003
 21
132.75999999999991
 31
0.0
  0
ARC
  5
22A
  8
0
 62
     7
 10
47.510750999999999
 20
132.750878
 30
0.0
 40
0.011945
 50
47.330876999999987
 51
114.72385199999999
  0
LINE
  5
22B
  8
0
 62
     7
 10
47.505800000000001
 20
132.762
 30
0.0
 11
47.493000000000002
 21
132.762
 31
0.0
  0
LINE
  5
22C
  8
0
 62
     7
 10
47.493000000000002
 20
132.762
 30
0.0
 11
47.456099999999999
 21
132.762
 31
0.0
  0
LINE
  5
22D
  8
0
 62
     7
 10
47.456099999999999
 20
132.762
 30
0.0
 11
47.4086
 21
132.762
 31
0.0
  0
ARC
  5
22E
  8
0
 62
     7
 10
47.343752999999992
 20
132.232191
 30
0.0
 40
0.533493
 50
83.018022000000002
 51
92.507999999999996
  0
LINE
  5
22F
  8
0
 62
     7
 10
47.320399999999999
 20
132.7649999999999
 30
0.0
 11
47.224600000000002
 21
132.7649999999999
 31
0.0
  0
ARC
  5
230
  8
0
 62
     7
 10
47.222966999999997
 20
130.28745399999991
 30
0.0
 40
2.4777200000000001
 50
89.961438000000001
 51
93.022023000000019
  0
LINE
  5
231
  8
0
 62
     7
 10
47.092300000000002
 20
132.762
 30
0.0
 11
47.044800000000002
 21
132.762
 31
0.0
  0
LINE
  5
232
  8
0
 62
     7
 10
47.044800000000002
 20
132.762
 30
0.0
 11
47.009700000000002
 21
132.762
 31
0.0
  0
LINE
  5
233
  8
0
 62
     7
 10
47.009700000000002
 20
132.762
 30
0.0
 11
46.985900000000001
 21
132.762
 31
0.0
  0
LINE
  5
234
  8
0
 62
     7
 10
46.985900000000001
 20
132.762
 30
0.0
 11
47.009700000000002
 21
132.75999999999991
 31
0.0
  0
LINE
  5
235
  8
0
 62
     7
 10
47.009700000000002
 20
132.75999999999991
 30
0.0
 11
47.057499999999997
 21
132.7579999999999
 31
0.0
  0
LINE
  5
236
  8
0
 62
     7
 10
47.057499999999997
 20
132.7579999999999
 30
0.0
 11
47.155000000000001
 21
132.7579999999999
 31
0.0
  0
LINE
  5
237
  8
0
 62
     7
 10
47.155000000000001
 20
132.7579999999999
 30
0.0
 11
47.263199999999998
 21
132.7579999999999
 31
0.0
  0
LINE
  5
238
  8
0
 62
     7
 10
47.263199999999998
 20
132.7579999999999
 30
0.0
 11
47.358999999999988
 21
132.7579999999999
 31
0.0
  0
LINE
  5
239
  8
0
 62
     7
 10
47.358999999999988
 20
132.7579999999999
 30
0.0
 11
47.4968
 21
132.7579999999999
 31
0.0
  0
LINE
  5
23A
  8
0
 62
     7
 10
47.099899999999998
 20
132.75999999999991
 30
0.0
 11
47.518799999999992
 21
132.75999999999991
 31
0.0
  0
LINE
  5
23B
  8
0
 62
     7
 10
47.491300000000003
 20
132.75999999999991
 30
0.0
 11
47.309399999999989
 21
132.7579999999999
 31
0.0
  0
LINE
  5
23C
  8
0
 62
     7
 10
47.309399999999989
 20
132.7579999999999
 30
0.0
 11
47.263199999999998
 21
132.7579999999999
 31
0.0
  0
LINE
  5
23D
  8
0
 62
     7
 10
47.263199999999998
 20
132.7579999999999
 30
0.0
 11
47.219099999999997
 21
132.7579999999999
 31
0.0
  0
LINE
  5
23E
  8
0
 62
     7
 10
47.219099999999997
 20
132.7579999999999
 30
0.0
 11
47.178800000000003
 21
132.75999999999991
 31
0.0
  0
LINE
  5
23F
  8
0
 62
     7
 10
47.178800000000003
 20
132.75999999999991
 30
0.0
 11
47.145699999999998
 21
132.75999999999991
 31
0.0
  0
LINE
  5
240
  8
0
 62
     7
 10
47.145699999999998
 20
132.75999999999991
 30
0.0
 11
47.118200000000002
 21
132.75999999999991
 31
0.0
  0
LINE
  5
241
  8
0
 62
     7
 10
47.118200000000002
 20
132.75999999999991
 30
0.0
 11
47.105400000000003
 21
132.75999999999991
 31
0.0
  0
LINE
  5
242
  8
0
 62
     7
 10
47.4968
 20
132.7579999999999
 30
0.0
 11
47.491300000000003
 21
132.75999999999991
 31
0.0
  0
ARC
  5
243
  8
0
 62
     7
 10
46.566128999999989
 20
132.9762399999999
 30
0.0
 40
0.217972
 50
270.67159500000002
 51
276.48109199999988
  0
LINE
  5
244
  8
0
 62
     7
 10
46.5687
 20
132.7579999999999
 30
0.0
 11
46.54869999999999
 21
132.7579999999999
 31
0.0
  0
ARC
  5
245
  8
0
 62
     7
 10
46.516581999999993
 20
132.97209099999989
 30
0.0
 40
0.216208
 50
266.82416699999999
 51
278.5434029999999
  0
LINE
  5
246
  8
0
 62
     7
 10
46.504600000000003
 20
132.756
 30
0.0
 11
46.440199999999997
 21
132.756
 31
0.0
  0
LINE
  5
247
  8
0
 62
     7
 10
46.440199999999997
 20
132.756
 30
0.0
 11
46.346499999999992
 21
132.756
 31
0.0
  0
LINE
  5
248
  8
0
 62
     7
 10
46.346499999999992
 20
132.756
 30
0.0
 11
46.267599999999987
 21
132.756
 31
0.0
  0
LINE
  5
249
  8
0
 62
     7
 10
46.267599999999987
 20
132.756
 30
0.0
 11
46.192100000000003
 21
132.756
 31
0.0
  0
LINE
  5
24A
  8
0
 62
     7
 10
46.704799999999999
 20
132.7649999999999
 30
0.0
 11
46.473300000000002
 21
132.7649999999999
 31
0.0
  0
LINE
  5
24B
  8
0
 62
     7
 10
46.473300000000002
 20
132.7649999999999
 30
0.0
 11
46.416400000000003
 21
132.7649999999999
 31
0.0
  0
LINE
  5
24C
  8
0
 62
     7
 10
46.416400000000003
 20
132.7649999999999
 30
0.0
 11
46.344799999999992
 21
132.7649999999999
 31
0.0
  0
ARC
  5
24D
  8
0
 62
     7
 10
46.276410999999989
 20
133.3935459999999
 30
0.0
 40
0.632078
 50
268.3561049999999
 51
276.2069009999999
  0
LINE
  5
24E
  8
0
 62
     7
 10
46.258299999999991
 20
132.762
 30
0.0
 11
46.19939999999999
 21
132.762
 31
0.0
  0
LINE
  5
24F
  8
0
 62
     7
 10
46.19939999999999
 20
132.762
 30
0.0
 11
46.153500000000001
 21
132.762
 31
0.0
  0
LINE
  5
250
  8
0
 62
     7
 10
46.153500000000001
 20
132.762
 30
0.0
 11
46.188299999999991
 21
132.7579999999999
 31
0.0
  0
LINE
  5
251
  8
0
 62
     7
 10
46.188299999999991
 20
132.7579999999999
 30
0.0
 11
46.2087
 21
132.7579999999999
 31
0.0
  0
LINE
  5
252
  8
0
 62
     7
 10
46.2087
 20
132.7579999999999
 30
0.0
 11
46.250999999999998
 21
132.7579999999999
 31
0.0
  0
LINE
  5
253
  8
0
 62
     7
 10
46.250999999999998
 20
132.7579999999999
 30
0.0
 11
46.302399999999992
 21
132.7579999999999
 31
0.0
  0
LINE
  5
254
  8
0
 62
     7
 10
46.302399999999992
 20
132.7579999999999
 30
0.0
 11
46.357500000000002
 21
132.7579999999999
 31
0.0
  0
LINE
  5
255
  8
0
 62
     7
 10
46.357500000000002
 20
132.7579999999999
 30
0.0
 11
46.436399999999999
 21
132.7579999999999
 31
0.0
  0
LINE
  5
256
  8
0
 62
     7
 10
46.436399999999999
 20
132.7579999999999
 30
0.0
 11
46.500799999999991
 21
132.7579999999999
 31
0.0
  0
LINE
  5
257
  8
0
 62
     7
 10
46.500799999999991
 20
132.7579999999999
 30
0.0
 11
46.554200000000002
 21
132.7579999999999
 31
0.0
  0
LINE
  5
258
  8
0
 62
     7
 10
46.554200000000002
 20
132.7579999999999
 30
0.0
 11
46.590699999999991
 21
132.75999999999991
 31
0.0
  0
LINE
  5
259
  8
0
 62
     7
 10
46.701000000000001
 20
132.7579999999999
 30
0.0
 11
46.704799999999999
 21
132.7649999999999
 31
0.0
  0
LINE
  5
25A
  8
0
 62
     7
 10
46.181100000000001
 20
132.756
 30
0.0
 11
46.438499999999991
 21
132.756
 31
0.0
  0
LINE
  5
25B
  8
0
 62
     7
 10
46.438499999999991
 20
132.756
 30
0.0
 11
46.576300000000003
 21
132.756
 31
0.0
  0
LINE
  5
25C
  8
0
 62
     7
 10
46.576300000000003
 20
132.756
 30
0.0
 11
46.620399999999997
 21
132.756
 31
0.0
  0
LINE
  5
25D
  8
0
 62
     7
 10
46.620399999999997
 20
132.756
 30
0.0
 11
46.658900000000003
 21
132.756
 31
0.0
  0
LINE
  5
25E
  8
0
 62
     7
 10
46.658900000000003
 20
132.756
 30
0.0
 11
46.686500000000002
 21
132.7579999999999
 31
0.0
  0
LINE
  5
25F
  8
0
 62
     7
 10
46.686500000000002
 20
132.7579999999999
 30
0.0
 11
46.697499999999991
 21
132.7579999999999
 31
0.0
  0
LINE
  5
260
  8
0
 62
     7
 10
46.192100000000003
 20
132.756
 30
0.0
 11
46.181100000000001
 21
132.756
 31
0.0
  0
LINE
  5
261
  8
0
 62
     7
 10
50.47679999999999
 20
132.76900000000001
 30
0.0
 11
45.479300000000002
 21
132.76900000000001
 31
0.0
  0
LINE
  5
262
  8
0
 62
     7
 10
48.920699999999997
 20
132.7649999999999
 30
0.0
 11
48.801099999999998
 21
132.7649999999999
 31
0.0
  0
LINE
  5
263
  8
0
 62
     7
 10
48.801099999999998
 20
132.7649999999999
 30
0.0
 11
48.668799999999997
 21
132.7649999999999
 31
0.0
  0
ARC
  5
264
  8
0
 62
     7
 10
48.609029
 20
133.2484169999999
 30
0.0
 40
0.48693
 50
268.19874399999992
 51
277.05408599999998
  0
LINE
  5
265
  8
0
 62
     7
 10
48.593699999999998
 20
132.762
 30
0.0
 11
48.549599999999998
 21
132.762
 31
0.0
  0
LINE
  5
266
  8
0
 62
     7
 10
48.549599999999998
 20
132.762
 30
0.0
 11
48.56069999999999
 21
132.762
 31
0.0
  0
LINE
  5
267
  8
0
 62
     7
 10
48.56069999999999
 20
132.762
 30
0.0
 11
48.575099999999999
 21
132.75999999999991
 31
0.0
  0
LINE
  5
268
  8
0
 62
     7
 10
48.575099999999999
 20
132.75999999999991
 30
0.0
 11
48.608199999999997
 21
132.75999999999991
 31
0.0
  0
LINE
  5
269
  8
0
 62
     7
 10
48.608199999999997
 20
132.75999999999991
 30
0.0
 11
48.672600000000003
 21
132.75999999999991
 31
0.0
  0
LINE
  5
26A
  8
0
 62
     7
 10
48.672600000000003
 20
132.75999999999991
 30
0.0
 11
48.804900000000004
 21
132.75999999999991
 31
0.0
  0
LINE
  5
26B
  8
0
 62
     7
 10
48.804900000000004
 20
132.75999999999991
 30
0.0
 11
48.82139999999999
 21
132.75999999999991
 31
0.0
  0
LINE
  5
26C
  8
0
 62
     7
 10
48.82139999999999
 20
132.75999999999991
 30
0.0
 11
48.834200000000003
 21
132.75999999999991
 31
0.0
  0
LINE
  5
26D
  8
0
 62
     7
 10
48.834200000000003
 20
132.75999999999991
 30
0.0
 11
48.810400000000001
 21
132.75999999999991
 31
0.0
  0
LINE
  5
26E
  8
0
 62
     7
 10
48.810400000000001
 20
132.75999999999991
 30
0.0
 11
48.797699999999999
 21
132.75999999999991
 31
0.0
  0
LINE
  5
26F
  8
0
 62
     7
 10
48.797699999999999
 20
132.75999999999991
 30
0.0
 11
48.770099999999999
 21
132.7579999999999
 31
0.0
  0
LINE
  5
270
  8
0
 62
     7
 10
48.770099999999999
 20
132.7579999999999
 30
0.0
 11
48.740499999999997
 21
132.7579999999999
 31
0.0
  0
ARC
  5
271
  8
0
 62
     7
 10
48.739113000000003
 20
145.03893299999999
 30
0.0
 40
12.280649999999991
 50
269.141639
 51
270.006415
  0
LINE
  5
272
  8
0
 62
     7
 10
48.913400000000003
 20
132.762
 30
0.0
 11
48.920699999999997
 21
132.7649999999999
 31
0.0
  0
LINE
  5
273
  8
0
 62
     7
 10
48.549599999999998
 20
132.7579999999999
 30
0.0
 11
48.678100000000001
 21
132.7579999999999
 31
0.0
  0
LINE
  5
274
  8
0
 62
     7
 10
48.678100000000001
 20
132.7579999999999
 30
0.0
 11
48.82139999999999
 21
132.7579999999999
 31
0.0
  0
LINE
  5
275
  8
0
 62
     7
 10
48.82139999999999
 20
132.7579999999999
 30
0.0
 11
48.898600000000002
 21
132.7579999999999
 31
0.0
  0
LINE
  5
276
  8
0
 62
     7
 10
48.898600000000002
 20
132.7579999999999
 30
0.0
 11
48.9482
 21
132.75999999999991
 31
0.0
  0
LINE
  5
277
  8
0
 62
     7
 10
48.9482
 20
132.75999999999991
 30
0.0
 11
48.924500000000002
 21
132.75999999999991
 31
0.0
  0
LINE
  5
278
  8
0
 62
     7
 10
48.924500000000002
 20
132.75999999999991
 30
0.0
 11
48.893099999999997
 21
132.75999999999991
 31
0.0
  0
LINE
  5
279
  8
0
 62
     7
 10
48.893099999999997
 20
132.75999999999991
 30
0.0
 11
48.828699999999998
 21
132.75999999999991
 31
0.0
  0
ARC
  5
27A
  8
0
 62
     7
 10
48.728220999999998
 20
130.56465299999991
 30
0.0
 40
2.1973060000000002
 50
87.379551000000006
 51
90.830082000000004
  0
LINE
  5
27B
  8
0
 62
     7
 10
48.696399999999997
 20
132.762
 30
0.0
 11
48.676400000000001
 21
132.762
 31
0.0
  0
LINE
  5
27C
  8
0
 62
     7
 10
48.676400000000001
 20
132.762
 30
0.0
 11
48.6599
 21
132.762
 31
0.0
  0
LINE
  5
27D
  8
0
 62
     7
 10
48.6599
 20
132.762
 30
0.0
 11
48.672600000000003
 21
132.762
 31
0.0
  0
LINE
  5
27E
  8
0
 62
     7
 10
48.672600000000003
 20
132.762
 30
0.0
 11
48.692900000000002
 21
132.762
 31
0.0
  0
LINE
  5
27F
  8
0
 62
     7
 10
48.692900000000002
 20
132.762
 30
0.0
 11
48.727699999999999
 21
132.762
 31
0.0
  0
LINE
  5
280
  8
0
 62
     7
 10
48.727699999999999
 20
132.762
 30
0.0
 11
48.764600000000002
 21
132.762
 31
0.0
  0
LINE
  5
281
  8
0
 62
     7
 10
48.764600000000002
 20
132.762
 30
0.0
 11
48.913400000000003
 21
132.762
 31
0.0
  0
LINE
  5
282
  8
0
 62
     7
 10
48.555100000000003
 20
132.75999999999991
 30
0.0
 11
48.549599999999998
 21
132.7579999999999
 31
0.0
  0
ARC
  5
283
  8
0
 62
     7
 10
49.691344000000001
 20
132.744518
 30
0.0
 40
0.018295
 50
48.795887
 51
109.834271
  0
LINE
  5
284
  8
0
 62
     7
 10
49.685099999999998
 20
132.762
 30
0.0
 11
49.659300000000002
 21
132.762
 31
0.0
  0
LINE
  5
285
  8
0
 62
     7
 10
49.659300000000002
 20
132.762
 30
0.0
 11
49.624499999999998
 21
132.762
 31
0.0
  0
ARC
  5
286
  8
0
 62
     7
 10
49.554433000000003
 20
132.146783
 30
0.0
 40
0.618924
 50
83.499500999999995
 51
92.380256999999986
  0
ARC
  5
287
  8
0
 62
     7
 10
49.527594000000001
 20
120.6466719999999
 30
0.0
 40
12.118501
 50
89.994624999999985
 51
91.366235999999986
  0
LINE
  5
288
  8
0
 62
     7
 10
49.813600000000001
 20
132.7579999999999
 30
0.0
 11
49.703400000000002
 21
132.7579999999999
 31
0.0
  0
LINE
  5
289
  8
0
 62
     7
 10
49.809800000000003
 20
132.7579999999999
 30
0.0
 11
49.813600000000001
 21
132.7579999999999
 31
0.0
  0
LINE
  5
28A
  8
0
 62
     7
 10
49.589399999999998
 20
132.7579999999999
 30
0.0
 11
49.809800000000003
 21
132.7579999999999
 31
0.0
  0
LINE
  5
28B
  8
0
 62
     7
 10
49.596899999999998
 20
132.75999999999991
 30
0.0
 11
49.589399999999998
 21
132.7579999999999
 31
0.0
  0
LINE
  5
28C
  8
0
 62
     7
 10
49.205599999999997
 20
132.75999999999991
 30
0.0
 11
49.22209999999999
 21
132.7579999999999
 31
0.0
  0
LINE
  5
28D
  8
0
 62
     7
 10
49.22209999999999
 20
132.7579999999999
 30
0.0
 11
49.2697
 21
132.7579999999999
 31
0.0
  0
LINE
  5
28E
  8
0
 62
     7
 10
49.2697
 20
132.7579999999999
 30
0.0
 11
49.311999999999998
 21
132.7579999999999
 31
0.0
  0
LINE
  5
28F
  8
0
 62
     7
 10
49.311999999999998
 20
132.7579999999999
 30
0.0
 11
49.367199999999997
 21
132.7579999999999
 31
0.0
  0
LINE
  5
290
  8
0
 62
     7
 10
49.367199999999997
 20
132.7579999999999
 30
0.0
 11
49.42949999999999
 21
132.7579999999999
 31
0.0
  0
LINE
  5
291
  8
0
 62
     7
 10
49.42949999999999
 20
132.7579999999999
 30
0.0
 11
49.532499999999999
 21
132.7579999999999
 31
0.0
  0
LINE
  5
292
  8
0
 62
     7
 10
49.532499999999999
 20
132.7579999999999
 30
0.0
 11
49.596899999999998
 21
132.75999999999991
 31
0.0
  0
LINE
  5
293
  8
0
 62
     7
 10
49.5839
 20
132.762
 30
0.0
 11
49.490099999999998
 21
132.762
 31
0.0
  0
LINE
  5
294
  8
0
 62
     7
 10
49.249699999999997
 20
132.762
 30
0.0
 11
49.416800000000002
 21
132.762
 31
0.0
  0
LINE
  5
295
  8
0
 62
     7
 10
49.416800000000002
 20
132.762
 30
0.0
 11
49.505000000000003
 21
132.762
 31
0.0
  0
LINE
  5
296
  8
0
 62
     7
 10
49.505000000000003
 20
132.762
 30
0.0
 11
49.530799999999992
 21
132.762
 31
0.0
  0
LINE
  5
297
  8
0
 62
     7
 10
49.530799999999992
 20
132.762
 30
0.0
 11
49.550800000000002
 21
132.762
 31
0.0
  0
LINE
  5
298
  8
0
 62
     7
 10
49.550800000000002
 20
132.762
 30
0.0
 11
49.569400000000002
 21
132.762
 31
0.0
  0
LINE
  5
299
  8
0
 62
     7
 10
49.569400000000002
 20
132.762
 30
0.0
 11
49.5839
 21
132.762
 31
0.0
  0
LINE
  5
29A
  8
0
 62
     7
 10
49.238599999999998
 20
132.762
 30
0.0
 11
49.249699999999997
 21
132.762
 31
0.0
  0
LINE
  5
29B
  8
0
 62
     7
 10
45.479300000000002
 20
122.3929999999999
 30
0.0
 11
50.47679999999999
 21
122.3929999999999
 31
0.0
  0
LINE
  5
29C
  8
0
 62
     7
 10
96.966600000000014
 20
144.4729999999999
 30
0.0
 11
96.966600000000014
 21
132.55399999999989
 31
0.0
  0
LINE
  5
29D
  8
0
 62
     7
 10
55.600700000000003
 20
144.4729999999999
 30
0.0
 11
55.600700000000003
 21
132.55399999999989
 31
0.0
  0
ARC
  5
29E
  8
0
 62
     7
 10
55.597439000000001
 20
502.85580299999998
 30
0.0
 40
370.30147099999999
 50
269.84369700000002
 51
270.00052199999999
  0
ARC
  5
29F
  8
0
 62
     7
 10
54.584800999999999
 20
222.40258700000001
 30
0.0
 40
89.846877000000006
 50
269.61135200000001
 51
270.00153599999999
  0
ARC
  5
2A0
  8
0
 62
     7
 10
53.973052000000003
 20
214.007248
 30
0.0
 40
81.449471000000017
 50
269.59180800000001
 51
270.001621
  0
LINE
  5
2A1
  8
0
 62
     7
 10
53.392800000000001
 20
132.56
 30
0.0
 11
52.83979999999999
 21
132.5629999999999
 31
0.0
  0
LINE
  5
2A2
  8
0
 62
     7
 10
52.83979999999999
 20
132.5629999999999
 30
0.0
 11
52.314500000000002
 21
132.56499999999991
 31
0.0
  0
ARC
  5
2A3
  8
0
 62
     7
 10
50.433710999999988
 20
-122.9223919999999
 30
0.0
 40
255.4946709999999
 50
89.578222999999994
 51
89.701065999999983
  0
LINE
  5
2A4
  8
0
 62
     7
 10
51.7667
 20
132.5689999999999
 30
0.0
 11
51.303699999999999
 21
132.572
 31
0.0
  0
LINE
  5
2A5
  8
0
 62
     7
 10
51.303699999999999
 20
132.572
 30
0.0
 11
51.074199999999998
 21
132.5739999999999
 31
0.0
  0
LINE
  5
2A6
  8
0
 62
     7
 10
51.074199999999998
 20
132.5739999999999
 30
0.0
 11
50.866500000000002
 21
132.57599999999999
 31
0.0
  0
LINE
  5
2A7
  8
0
 62
     7
 10
50.866500000000002
 20
132.57599999999999
 30
0.0
 11
50.673499999999997
 21
132.57799999999989
 31
0.0
  0
LINE
  5
2A8
  8
0
 62
     7
 10
50.673499999999997
 20
132.57799999999989
 30
0.0
 11
50.627699999999997
 21
132.57799999999989
 31
0.0
  0
LINE
  5
2A9
  8
0
 62
     7
 10
50.627699999999997
 20
132.57799999999989
 30
0.0
 11
50.585299999999997
 21
132.57799999999989
 31
0.0
  0
ARC
  5
2AA
  8
0
 62
     7
 10
50.540706999999998
 20
132.37680099999989
 30
0.0
 40
0.205856
 50
77.476291000000003
 51
94.937561000000002
  0
LINE
  5
2AB
  8
0
 62
     7
 10
50.523000000000003
 20
132.58199999999991
 30
0.0
 11
50.495399999999997
 21
132.58199999999991
 31
0.0
  0
LINE
  5
2AC
  8
0
 62
     7
 10
50.495399999999997
 20
132.58199999999991
 30
0.0
 11
50.484400000000001
 21
132.58199999999991
 31
0.0
  0
LINE
  5
2AD
  8
0
 62
     7
 10
50.484400000000001
 20
132.58199999999991
 30
0.0
 11
50.471299999999999
 21
132.58199999999991
 31
0.0
  0
LINE
  5
2AE
  8
0
 62
     7
 10
50.47679999999999
 20
132.58199999999991
 30
0.0
 11
45.479300000000002
 21
132.58199999999991
 31
0.0
  0
LINE
  5
2AF
  8
0
 62
     7
 10
50.475099999999991
 20
122.5829999999999
 30
0.0
 11
50.495399999999997
 21
122.5829999999999
 31
0.0
  0
LINE
  5
2B0
  8
0
 62
     7
 10
50.495399999999997
 20
122.5829999999999
 30
0.0
 11
50.517499999999998
 21
122.5829999999999
 31
0.0
  0
LINE
  5
2B1
  8
0
 62
     7
 10
50.517499999999998
 20
122.5829999999999
 30
0.0
 11
50.598100000000002
 21
122.5829999999999
 31
0.0
  0
LINE
  5
2B2
  8
0
 62
     7
 10
50.598100000000002
 20
122.5829999999999
 30
0.0
 11
50.664200000000001
 21
122.5859999999999
 31
0.0
  0
LINE
  5
2B3
  8
0
 62
     7
 10
50.664200000000001
 20
122.5859999999999
 30
0.0
 11
50.772799999999997
 21
122.5859999999999
 31
0.0
  0
LINE
  5
2B4
  8
0
 62
     7
 10
50.772799999999997
 20
122.5859999999999
 30
0.0
 11
50.971200000000003
 21
122.58799999999989
 31
0.0
  0
LINE
  5
2B5
  8
0
 62
     7
 10
50.971200000000003
 20
122.58799999999989
 30
0.0
 11
51.1751
 21
122.5899999999999
 31
0.0
  0
LINE
  5
2B6
  8
0
 62
     7
 10
51.1751
 20
122.5899999999999
 30
0.0
 11
51.37360000000001
 21
122.592
 31
0.0
  0
LINE
  5
2B7
  8
0
 62
     7
 10
51.37360000000001
 20
122.592
 30
0.0
 11
51.772199999999998
 21
122.595
 31
0.0
  0
LINE
  5
2B8
  8
0
 62
     7
 10
51.772199999999998
 20
122.595
 30
0.0
 11
52.189399999999992
 21
122.59699999999999
 31
0.0
  0
ARC
  5
2B9
  8
0
 62
     7
 10
53.151345999999997
 20
-6.040392999999999
 30
0.0
 40
128.641244
 50
90.087947000000014
 51
90.428440000000023
  0
ARC
  5
2BA
  8
0
 62
     7
 10
53.708125000000003
 20
71.908073999999999
 30
0.0
 40
50.698236000000001
 50
89.886831999999998
 51
90.852438000000021
  0
LINE
  5
2BB
  8
0
 62
     7
 10
53.808300000000003
 20
122.60599999999999
 30
0.0
 11
54.063499999999991
 21
122.60599999999999
 31
0.0
  0
LINE
  5
2BC
  8
0
 62
     7
 10
54.063499999999991
 20
122.60599999999999
 30
0.0
 11
54.304299999999998
 21
122.60599999999999
 31
0.0
  0
ARC
  5
2BD
  8
0
 62
     7
 10
54.698996999999999
 20
87.701402000000002
 30
0.0
 40
34.907040000000002
 50
89.824425000000005
 51
90.647770999999977
  0
LINE
  5
2BE
  8
0
 62
     7
 10
54.805999999999997
 20
122.6079999999999
 30
0.0
 11
55.600700000000003
 21
122.6099999999999
 31
0.0
  0
LINE
  5
2BF
  8
0
 62
     7
 10
45.479300000000002
 20
122.5829999999999
 30
0.0
 11
50.47679999999999
 21
122.5829999999999
 31
0.0
  0
LINE
  5
2C0
  8
0
 62
     7
 10
45.479300000000002
 20
132.51699999999991
 30
0.0
 11
45.479300000000002
 21
132.58199999999991
 31
0.0
  0
ARC
  5
2C1
  8
0
 62
     7
 10
46.98822899999999
 20
103.18230799999991
 30
0.0
 40
29.438279999999988
 50
92.938035999999997
 51
93.869422999999983
  0
ARC
  5
2C2
  8
0
 62
     7
 10
45.438010999999989
 20
126.903362
 30
0.0
 40
5.6669450000000001
 50
94.416248999999979
 51
97.106646999999995
  0
ARC
  5
2C3
  8
0
 62
     7
 10
45.386794999999992
 20
127.98387700000001
 30
0.0
 40
4.5891429999999991
 50
98.141155000000012
 51
107.4673539999999
  0
ARC
  5
2C4
  8
0
 62
     7
 10
45.802114000000003
 20
126.8115879999999
 30
0.0
 40
5.8322070000000004
 50
107.9024729999999
 51
116.187535
  0
ARC
  5
2C5
  8
0
 62
     7
 10
45.361449999999998
 20
127.7760589999999
 30
0.0
 40
4.7723610000000001
 50
116.550111
 51
126.6648669999999
  0
ARC
  5
2C6
  8
0
 62
     7
 10
45.625897999999999
 20
127.405539
 30
0.0
 40
5.2274880000000001
 50
126.564851
 51
135.80697000000001
  0
ARC
  5
2C7
  8
0
 62
     7
 10
45.484551000000003
 20
127.58167299999999
 30
0.0
 40
5.0034409999999996
 50
136.12482299999991
 51
145.78740300000001
  0
ARC
  5
2C8
  8
0
 62
     7
 10
45.356831999999997
 20
127.65435099999991
 30
0.0
 40
4.8569729999999991
 50
145.6492659999999
 51
155.60457600000001
  0
ARC
  5
2C9
  8
0
 62
     7
 10
45.412557999999997
 20
127.60251100000001
 30
0.0
 40
4.9291949999999991
 50
155.32334199999991
 51
165.12298200000001
  0
ARC
  5
2CA
  8
0
 62
     7
 10
45.265512000000001
 20
127.62281
 30
0.0
 40
4.7819000000000003
 50
164.905698
 51
174.996737
  0
ARC
  5
2CB
  8
0
 62
     7
 10
45.625864999999997
 20
127.5720839999999
 30
0.0
 40
5.14534
 50
174.783987
 51
184.18621399999989
  0
ARC
  5
2CC
  8
0
 62
     7
 10
45.529207
 20
127.594409
 30
0.0
 40
5.0506539999999989
 50
184.51883199999989
 51
194.08212399999999
  0
ARC
  5
2CD
  8
0
 62
     7
 10
45.701138999999998
 20
127.66200499999999
 30
0.0
 40
5.2339199999999986
 50
194.34191899999999
 51
203.57955499999991
  0
ARC
  5
2CE
  8
0
 62
     7
 10
45.333281999999997
 20
127.5022469999999
 30
0.0
 40
4.8328699999999989
 50
203.58822699999999
 51
213.57279299999999
  0
ARC
  5
2CF
  8
0
 62
     7
 10
45.476740999999997
 20
127.57212800000001
 30
0.0
 40
4.9910860000000001
 50
213.330478
 51
222.99982
  0
ARC
  5
2D0
  8
0
 62
     7
 10
45.525228000000013
 20
127.63573
 30
0.0
 40
5.0699420000000002
 50
223.15179699999999
 51
232.70349100000001
  0
ARC
  5
2D1
  8
0
 62
     7
 10
45.565699000000002
 20
127.713796
 30
0.0
 40
5.1565899999999996
 50
232.871365
 51
242.243774
  0
ARC
  5
2D2
  8
0
 62
     7
 10
45.502054999999991
 20
127.656795
 30
0.0
 40
5.0765949999999993
 50
242.579824
 51
252.072025
  0
ARC
  5
2D3
  8
0
 62
     7
 10
45.457382000000003
 20
127.43817199999999
 30
0.0
 40
4.8548989999999987
 50
251.77941899999999
 51
261.72882499999992
  0
ARC
  5
2D4
  8
0
 62
     7
 10
45.625697000000002
 20
129.76495700000001
 30
0.0
 40
7.1836640000000003
 50
263.07019799999989
 51
268.83258999999993
  0
LINE
  5
2D5
  8
0
 62
     7
 10
45.479300000000002
 20
122.645
 30
0.0
 11
45.479300000000002
 21
122.5829999999999
 31
0.0
  0
ARC
  5
2D6
  8
0
 62
     7
 10
45.477791999999987
 20
125.929885
 30
0.0
 40
3.2850890000000001
 50
262.76124099999998
 51
270.02695799999998
  0
ARC
  5
2D7
  8
0
 62
     7
 10
45.405959999999993
 20
125.62111
 30
0.0
 40
2.9698999999999991
 50
252.2716879999999
 51
263.38541800000002
  0
ARC
  5
2D8
  8
0
 62
     7
 10
45.480119999999992
 20
126.0570729999999
 30
0.0
 40
3.4083079999999999
 50
243.64250599999991
 51
253.31591800000001
  0
ARC
  5
2D9
  8
0
 62
     7
 10
45.672128000000001
 20
126.461471
 30
0.0
 40
3.8559179999999991
 50
233.51210299999991
 51
243.7538569999999
  0
ARC
  5
2DA
  8
0
 62
     7
 10
45.613128000000003
 20
126.4992979999999
 30
0.0
 40
3.85188
 50
224.282363
 51
234.55233799999991
  0
ARC
  5
2DB
  8
0
 62
     7
 10
46.209447999999988
 20
127.13042799999999
 30
0.0
 40
4.7195759999999991
 50
213.27509599999999
 51
224.71313599999999
  0
ARC
  5
2DC
  8
0
 62
     7
 10
46.51856699999999
 20
127.359343
 30
0.0
 40
5.1036570000000001
 50
202.900734
 51
213.51963799999999
  0
ARC
  5
2DD
  8
0
 62
     7
 10
46.828701000000002
 20
127.50431499999991
 30
0.0
 40
5.4457750000000003
 50
193.11786499999991
 51
203.03604599999991
  0
ARC
  5
2DE
  8
0
 62
     7
 10
47.665168000000001
 20
127.65164799999989
 30
0.0
 40
6.2940230000000001
 50
184.09676399999989
 51
192.69590799999989
  0
ARC
  5
2DF
  8
0
 62
     7
 10
47.326469000000003
 20
127.578824
 30
0.0
 40
5.9511839999999987
 50
174.56483299999999
 51
183.63039499999991
  0
ARC
  5
2E0
  8
0
 62
     7
 10
47.386699
 20
127.5350929999999
 30
0.0
 40
6.0154050000000003
 50
165.264849
 51
174.20450600000001
  0
ARC
  5
2E1
  8
0
 62
     7
 10
46.451586999999989
 20
127.79690100000001
 30
0.0
 40
5.0444779999999989
 50
156.47201200000001
 51
165.43921
  0
ARC
  5
2E2
  8
0
 62
     7
 10
46.442414999999997
 20
127.8511299999999
 30
0.0
 40
5.0146319999999989
 50
147.988799
 51
156.99827400000001
  0
ARC
  5
2E3
  8
0
 62
     7
 10
46.292321999999992
 20
127.957184
 30
0.0
 40
4.831154999999999
 50
140.1809989999999
 51
148.11173099999991
  0
ARC
  5
2E4
  8
0
 62
     7
 10
46.038538000000003
 20
128.187263
 30
0.0
 40
4.4889190000000001
 50
131.86125699999991
 51
140.36229
  0
ARC
  5
2E5
  8
0
 62
     7
 10
46.036991
 20
128.16189700000001
 30
0.0
 40
4.5068149999999996
 50
122.379903
 51
131.63140799999991
  0
ARC
  5
2E6
  8
0
 62
     7
 10
45.606166999999992
 20
128.80045899999999
 30
0.0
 40
3.736883999999999
 50
110.914935
 51
122.044619
  0
ARC
  5
2E7
  8
0
 62
     7
 10
45.439250999999999
 20
129.35453000000001
 30
0.0
 40
3.160010999999999
 50
100.462504
 51
111.674207
  0
ARC
  5
2E8
  8
0
 62
     7
 10
45.448233000000002
 20
129.41722200000001
 30
0.0
 40
3.100058999999999
 50
89.425106
 51
100.836162
  0
LINE
  5
2E9
  8
0
 62
     7
 10
45.479300000000002
 20
122.645
 30
0.0
 11
45.479300000000002
 21
122.645
 31
0.0
  0
LINE
  5
2EA
  8
0
 62
     7
 10
45.479300000000002
 20
132.51699999999991
 30
0.0
 11
45.479300000000002
 21
132.51699999999991
 31
0.0
  0
LINE
  5
2EB
  8
0
 62
     7
 10
96.966600000000014
 20
144.4729999999999
 30
0.0
 11
55.600700000000003
 21
144.4729999999999
 31
0.0
  0
LINE
  5
2EC
  8
0
 62
     7
 10
50.706600000000002
 20
132.57799999999989
 30
0.0
 11
50.6312
 21
132.57799999999989
 31
0.0
  0
ARC
  5
2ED
  8
0
 62
     7
 10
50.629559999999991
 20
133.44353000000001
 30
0.0
 40
0.8657729999999999
 50
264.39753999999988
 51
270.10630400000002
  0
LINE
  5
2EE
  8
0
 62
     7
 10
50.545000000000002
 20
132.58199999999991
 30
0.0
 11
50.52089999999999
 21
132.58199999999991
 31
0.0
  0
LINE
  5
2EF
  8
0
 62
     7
 10
50.52089999999999
 20
132.58199999999991
 30
0.0
 11
50.504399999999997
 21
132.58199999999991
 31
0.0
  0
LINE
  5
2F0
  8
0
 62
     7
 10
50.504399999999997
 20
132.58199999999991
 30
0.0
 11
50.489899999999992
 21
132.58199999999991
 31
0.0
  0
LINE
  5
2F1
  8
0
 62
     7
 10
50.489899999999992
 20
132.58199999999991
 30
0.0
 11
50.414499999999997
 21
132.58199999999991
 31
0.0
  0
LINE
  5
2F2
  8
0
 62
     7
 10
177.71499999999989
 20
99.721699999999998
 30
0.0
 11
144.25499999999991
 21
99.721699999999998
 31
0.0
  0
LINE
  5
2F3
  8
0
  6
AIGENLINE001
 62
     7
 10
93.172499999999985
 20
170.12
 30
0.0
 11
93.172499999999985
 21
206.78700000000001
 31
0.0
  0
LINE
  5
2F4
  8
0
  6
AIGENLINE001
 62
     7
 10
59.39589999999999
 20
170.12
 30
0.0
 11
59.39589999999999
 21
206.78700000000001
 31
0.0
  0
LINE
  5
2F5
  8
0
  6
AIGENLINE001
 62
     7
 10
59.39589999999999
 20
206.78700000000001
 30
0.0
 11
93.172499999999985
 21
206.78700000000001
 31
0.0
  0
LINE
  5
2F6
  8
0
  6
AIGENLINE001
 62
     7
 10
59.39589999999999
 20
170.119
 30
0.0
 11
93.172499999999985
 21
170.119
 31
0.0
  0
LINE
  5
2F7
  8
0
  6
AIGENLINE001
 62
     7
 10
93.172499999999985
 20
107.14099999999991
 30
0.0
 11
93.172499999999985
 21
143.80799999999999
 31
0.0
  0
LINE
  5
2F8
  8
0
  6
AIGENLINE001
 62
     7
 10
59.39589999999999
 20
107.14099999999991
 30
0.0
 11
59.39589999999999
 21
143.80799999999999
 31
0.0
  0
LINE
  5
2F9
  8
0
  6
AIGENLINE001
 62
     7
 10
59.39589999999999
 20
143.80799999999999
 30
0.0
 11
93.172499999999985
 21
143.80799999999999
 31
0.0
  0
LINE
  5
2FA
  8
0
  6
AIGENLINE001
 62
     7
 10
59.39589999999999
 20
107.14
 30
0.0
 11
93.172499999999985
 21
107.14
 31
0.0
  0
LINE
  5
2FB
  8
0
 62
     7
 10
174.81700000000001
 20
124.80799999999989
 30
0.0
 11
173.9259999999999
 21
126.91500000000001
 31
0.0
  0
LINE
  5
2FC
  8
0
 62
     7
 10
173.9259999999999
 20
126.91500000000001
 30
0.0
 11
173.64399999999989
 21
124.645
 31
0.0
  0
LINE
  5
2FD
  8
0
 62
     7
 10
173.64399999999989
 20
124.645
 30
0.0
 11
174.81700000000001
 21
124.80799999999989
 31
0.0
  0
LINE
  5
2FE
  8
0
 62
     7
 10
173.93299999999991
 20
126.916
 30
0.0
 11
177.71499999999989
 21
99.721699999999998
 31
0.0
  0
LINE
  5
2FF
  8
_________2
 62
     7
 10
105.2389999999999
 20
297.44999999999987
 30
0.0
 11
105.2389999999999
 21
280.42999999999989
 31
0.0
  0
TEXT
  5
300
  8
_________2
 62
     7
 10
142.08371374999999
 20
30.627400000000002
 30
0.0
 40
4.6583899999999989
  1
GE4508
 41
0.5
 72
     1
 11
148.489
 21
30.627400000000002
 31
0.0
  0
TEXT
  5
301
  8
_________2
 62
     7
 10
142.08371374999999
 20
20.6266
 30
0.0
 40
4.6583899999999989
  1
GE4508
 41
0.5
 72
     1
 11
148.489
 21
20.6266
 31
0.0
  0
LINE
  5
302
  8
_________2
 62
     7
 10
210.24000000000001
 20
148.93100000000001
 30
0.0
 11
188.49000000000001
 21
148.93100000000001
 31
0.0
  0
LINE
  5
303
  8
_________2
 62
     7
 10
105.2389999999999
 20
17.4282
 30
0.0
 11
105.2389999999999
 21
0.4482100000000001
 31
0.0
  0
LINE
  5
304
  8
_________2
 62
     7
 10
105.2389999999999
 20
297.44999999999987
 30
0.0
 11
105.2389999999999
 21
280.42999999999989
 31
0.0
  0
LINE
  5
305
  8
_________2
 62
     7
 10
21.988499999999991
 20
148.93100000000001
 30
0.0
 11
0.238058
 21
148.93100000000001
 31
0.0
  0
LINE
  5
306
  8
_________2
 62
     7
 10
81.679900000000004
 20
51.323999999999998
 30
0.0
 11
79.493700000000004
 21
51.323999999999998
 31
0.0
  0
LINE
  5
307
  8
_________2
 62
     7
 10
82.172600000000017
 20
51.323999999999998
 30
0.0
 11
81.920400000000001
 21
51.323999999999998
 31
0.0
  0
LINE
  5
308
  8
_________2
 62
     7
 10
82.665199999999984
 20
51.323999999999998
 30
0.0
 11
85.590100000000007
 21
51.323999999999998
 31
0.0
  0
LINE
  5
309
  8
_________2
 62
     7
 10
82.172600000000017
 20
51.323999999999998
 30
0.0
 11
82.424800000000005
 21
51.323999999999998
 31
0.0
  0
LINE
  5
30A
  8
_________2
 62
     7
 10
75.776399999999995
 20
51.323999999999998
 30
0.0
 11
73.589399999999998
 21
51.323999999999998
 31
0.0
  0
LINE
  5
30B
  8
_________2
 62
     7
 10
76.2684
 20
51.323999999999998
 30
0.0
 11
76.016900000000007
 21
51.323999999999998
 31
0.0
  0
LINE
  5
30C
  8
_________2
 62
     7
 10
76.2684
 20
51.816600000000001
 30
0.0
 11
76.2684
 21
54.003599999999999
 31
0.0
  0
LINE
  5
30D
  8
_________2
 62
     7
 10
76.2684
 20
51.323999999999998
 30
0.0
 11
76.2684
 21
51.576500000000003
 31
0.0
  0
LINE
  5
30E
  8
_________2
 62
     7
 10
76.76100000000001
 20
51.323999999999998
 30
0.0
 11
78.947999999999993
 21
51.323999999999998
 31
0.0
  0
LINE
  5
30F
  8
_________2
 62
     7
 10
76.2684
 20
51.323999999999998
 30
0.0
 11
76.520499999999998
 21
51.323999999999998
 31
0.0
  0
LINE
  5
310
  8
_________2
 62
     7
 10
76.2684
 20
50.832000000000001
 30
0.0
 11
76.2684
 21
48.645400000000002
 31
0.0
  0
LINE
  5
311
  8
_________2
 62
     7
 10
76.2684
 20
51.323999999999998
 30
0.0
 11
76.2684
 21
51.072499999999998
 31
0.0
  0
LINE
  5
312
  8
_________2
 62
     7
 10
79.979399999999984
 20
50.104399999999998
 30
0.0
 11
85.157399999999996
 21
49.239699999999999
 31
0.0
  0
LINE
  5
313
  8
_________2
 62
     7
 10
79.979399999999984
 20
52.543900000000001
 30
0.0
 11
85.157399999999996
 21
53.409300000000002
 31
0.0
  0
LINE
  5
314
  8
_________2
 62
     7
 10
85.157399999999996
 20
49.239699999999999
 30
0.0
 11
85.157399999999996
 21
53.409300000000002
 31
0.0
  0
LINE
  5
315
  8
_________2
 62
     7
 10
79.979399999999984
 20
50.104399999999998
 30
0.0
 11
79.979399999999984
 21
52.543900000000001
 31
0.0
  0
ARC
  5
316
  8
_________2
 62
     7
 10
76.221766000000002
 20
51.277037
 30
0.0
 40
1.267714
 50
2.1220840000000001
 51
87.894083999999992
  0
ARC
  5
317
  8
_________2
 62
     7
 10
76.315297000000001
 20
51.277389999999997
 30
0.0
 40
1.267374999999999
 50
92.122849999999985
 51
177.893304
  0
ARC
  5
318
  8
_________2
 62
     7
 10
76.315273000000005
 20
51.370902000000001
 30
0.0
 40
1.267363
 50
182.12181499999991
 51
267.87821400000001
  0
ARC
  5
319
  8
_________2
 62
     7
 10
76.221461000000005
 20
51.371583999999999
 30
0.0
 40
1.2680439999999991
 50
272.11916400000001
 51
357.84848499999993
  0
ARC
  5
31A
  8
_________2
 62
     7
 10
76.187981999999991
 20
51.243968000000002
 30
0.0
 40
2.1668310000000002
 50
2.1161439999999989
 51
87.874379000000005
  0
ARC
  5
31B
  8
_________2
 62
     7
 10
76.348411999999996
 20
51.244990000000001
 30
0.0
 40
2.1657980000000001
 50
92.118487999999999
 51
177.90988599999989
  0
ARC
  5
31C
  8
_________2
 62
     7
 10
76.348354
 20
51.403983000000011
 30
0.0
 40
2.1657779999999991
 50
182.11700400000001
 51
267.88302499999992
  0
ARC
  5
31D
  8
_________2
 62
     7
 10
76.188378999999983
 20
51.404665999999992
 30
0.0
 40
2.1664590000000001
 50
272.11546800000002
 51
357.86560400000002
  0
TEXT
  5
31E
  8
_________2
 62
     7
 10
109.5439999999999
 20
23.198699999999992
 30
0.0
 40
3.660169999999999
  1
図番
 41
0.5
  0
LINE
  5
31F
  8
_________2
 62
     7
 10
108.4889999999999
 20
27.428000000000001
 30
0.0
 11
188.49000000000001
 21
27.428000000000001
 31
0.0
  0
TEXT
  5
320
  8
_________2
 62
     7
 10
109.5439999999999
 20
33.198500000000003
 30
0.0
 40
3.660169999999999
  1
品番
 41
0.5
  0
TEXT
  5
321
  8
_________2
 62
     7
 10
109.5439999999999
 20
53.337699999999998
 30
0.0
 40
3.660169999999999
  1
名称
 41
0.5
  0
TEXT
  5
322
  8
_________2
 62
     7
 10
96.504545833333353
 20
48.341500000000011
 30
0.0
 40
4.3256500000000004
  1
mm
 41
0.5
 72
     1
 11
98.306899999999999
 21
48.341500000000011
 31
0.0
  0
TEXT
  5
323
  8
_________2
 62
     7
 10
90.582099999999997
 20
53.337699999999998
 30
0.0
 40
3.660169999999999
  1
単位
 41
0.5
  0
TEXT
  5
324
  8
_________2
 62
     7
 10
90.582099999999997
 20
40.930100000000003
 30
0.0
 40
3.660169999999999
  1
尺度
 41
0.5
  0
TEXT
  5
325
  8
_________2
 62
     7
 10
94.861526666666677
 20
34.73749999999999
 30
0.0
 40
4.3256500000000004
  1
1 ： 3
 41
0.5
 72
     1
 11
98.898799999999994
 21
34.73749999999999
 31
0.0
  0
TEXT
  5
326
  8
_________2
 62
     7
 10
114.11799999999999
 20
45.7453
 30
0.0
 40
4.6583899999999989
  1
ウィンク　ペーパーホルダー
 41
0.5
  0
TEXT
  5
327
  8
_________2
 62
     7
 10
44.01748083333333
 20
35.122599999999991
 30
0.0
 40
4.3256500000000004
  1
早川
 41
0.5
 72
     1
 11
46.252400000000002
 21
35.122599999999991
 31
0.0
  0
TEXT
  5
328
  8
_________2
 62
     7
 10
25.371386666666659
 20
35.122599999999991
 30
0.0
 40
4.3256500000000004
  1
菅原
 41
0.5
 72
     1
 11
27.6784
 21
35.122599999999991
 31
0.0
  0
TEXT
  5
329
  8
_________2
 62
     7
 10
72.724699999999999
 20
34.73749999999999
 30
0.0
 40
4.3256500000000004
  1
14.12.24
 41
0.5
  0
TEXT
  5
32A
  8
_________2
 62
     7
 10
71.531999999999996
 20
40.930100000000003
 30
0.0
 40
3.660169999999999
  1
日付
 41
0.5
  0
TEXT
  5
32B
  8
_________2
 62
     7
 10
34.578299999999992
 20
40.930100000000003
 30
0.0
 40
3.660169999999999
  1
検図
 41
0.5
  0
TEXT
  5
32C
  8
_________2
 62
     7
 10
22.960000000000001
 20
26.730699999999999
 30
0.0
 40
3.660169999999999
  1
備考
 41
0.5
  0
TEXT
  5
32D
  8
_________2
 62
     7
 10
22.960000000000001
 20
40.930100000000003
 30
0.0
 40
3.660169999999999
  1
製図
 41
0.5
  0
TEXT
  5
32E
  8
_________2
 62
     7
 10
25.533730666666681
 20
49.456000000000003
 30
0.0
 40
5.3238799999999991
  1
セラトレーディング株式会社
 41
0.5
 72
     1
 11
46.119399999999992
 21
49.456000000000003
 31
0.0
  0
LINE
  5
32F
  8
_________2
 62
     7
 10
188.49000000000001
 20
17.4282
 30
0.0
 11
21.988499999999991
 21
17.4282
 31
0.0
  0
LINE
  5
330
  8
_________2
 62
     7
 10
21.988499999999991
 20
17.4282
 30
0.0
 11
21.988499999999991
 21
280.42999999999989
 31
0.0
  0
LINE
  5
331
  8
_________2
 62
     7
 10
21.988499999999991
 20
280.42999999999989
 30
0.0
 11
188.49000000000001
 21
280.42999999999989
 31
0.0
  0
LINE
  5
332
  8
_________2
 62
     7
 10
188.49000000000001
 20
280.42999999999989
 30
0.0
 11
188.49000000000001
 21
17.4282
 31
0.0
  0
LINE
  5
333
  8
_________2
 62
     7
 10
70.488799999999998
 20
30.9285
 30
0.0
 11
70.488799999999998
 21
57.428400000000011
 31
0.0
  0
LINE
  5
334
  8
_________2
 62
     7
 10
89.488600000000005
 20
30.9285
 30
0.0
 11
89.488600000000005
 21
57.428400000000011
 31
0.0
  0
LINE
  5
335
  8
_________2
 62
     7
 10
108.4889999999999
 20
17.4282
 30
0.0
 11
108.4889999999999
 21
57.428400000000011
 31
0.0
  0
LINE
  5
336
  8
_________2
 62
     7
 10
33.488300000000002
 20
30.9285
 30
0.0
 11
33.488300000000002
 21
44.928499999999993
 31
0.0
  0
LINE
  5
337
  8
_________2
 62
     7
 10
21.988499999999991
 20
30.9285
 30
0.0
 11
108.4889999999999
 21
30.9285
 31
0.0
  0
LINE
  5
338
  8
_________2
 62
     7
 10
21.988499999999991
 20
44.928499999999993
 30
0.0
 11
108.4889999999999
 21
44.928499999999993
 31
0.0
  0
LINE
  5
339
  8
_________2
 62
     7
 10
108.4889999999999
 20
37.427799999999991
 30
0.0
 11
188.49000000000001
 21
37.427799999999991
 31
0.0
  0
LINE
  5
33A
  8
_________2
 62
     7
 10
21.988499999999991
 20
57.428400000000011
 30
0.0
 11
188.49000000000001
 21
57.428400000000011
 31
0.0
  0
ENDSEC
  0
EOF
