  0
SECTION
  2
HEADER
  9
$ACADVER
  1
AC1009
  9
$INSBASE
 10
0.0
 20
0.0
 30
0.0
  9
$EXTMIN
 10
0.238058
 20
0.4482100000000001
 30
0.0
  9
$EXTMAX
 10
210.24000000000001
 20
297.44999999999999
 30
0.0
  9
$LIMMIN
 10
0.0
 20
0.0
  9
$LIMMAX
 10
12.0
 20
9.0
  9
$ORTHOMODE
 70
     0
  9
$REGENMODE
 70
     1
  9
$FILLMODE
 70
     1
  9
$QTEXTMODE
 70
     0
  9
$MIRRTEXT
 70
     1
  9
$DRAGMODE
 70
     2
  9
$LTSCALE
 40
1.0
  9
$OSMODE
 70
    37
  9
$ATTMODE
 70
     1
  9
$TEXTSIZE
 40
0.0
  9
$TRACEWID
 40
0.05
  9
$TEXTSTYLE
  7
STANDARD
  9
$CLAYER
  8
0
  9
$CELTYPE
  6
CONTINUOUS
  9
$CECOLOR
 62
   256
  9
$DIMSCALE
 40
1.0
  9
$DIMASZ
 40
0.18
  9
$DIMEXO
 40
0.0625
  9
$DIMDLI
 40
0.38
  9
$DIMRND
 40
0.0
  9
$DIMDLE
 40
0.0
  9
$DIMEXE
 40
0.18
  9
$DIMTP
 40
0.0
  9
$DIMTM
 40
0.0
  9
$DIMTXT
 40
0.18
  9
$DIMCEN
 40
0.09
  9
$DIMTSZ
 40
0.0
  9
$DIMTOL
 70
     0
  9
$DIMLIM
 70
     0
  9
$DIMTIH
 70
     1
  9
$DIMTOH
 70
     1
  9
$DIMSE1
 70
     0
  9
$DIMSE2
 70
     0
  9
$DIMTAD
 70
     0
  9
$DIMZIN
 70
     0
  9
$DIMBLK
  1

  9
$DIMASO
 70
     1
  9
$DIMSHO
 70
     1
  9
$DIMPOST
  1

  9
$DIMAPOST
  1

  9
$DIMALT
 70
     0
  9
$DIMALTD
 70
     2
  9
$DIMALTF
 40
25.399999999999999
  9
$DIMLFAC
 40
1.0
  9
$DIMTOFL
 70
     0
  9
$DIMTVP
 40
0.0
  9
$DIMTIX
 70
     0
  9
$DIMSOXD
 70
     0
  9
$DIMSAH
 70
     0
  9
$DIMBLK1
  1

  9
$DIMBLK2
  1

  9
$DIMSTYLE
  2
STANDARD
  9
$DIMCLRD
 70
     0
  9
$DIMCLRE
 70
     0
  9
$DIMCLRT
 70
     0
  9
$DIMTFAC
 40
1.0
  9
$DIMGAP
 40
0.09
  9
$LUNITS
 70
     2
  9
$LUPREC
 70
     4
  9
$SKETCHINC
 40
0.1
  9
$FILLETRAD
 40
0.0
  9
$AUNITS
 70
     0
  9
$AUPREC
 70
     0
  9
$MENU
  1
.
  9
$ELEVATION
 40
0.0
  9
$PELEVATION
 40
0.0
  9
$THICKNESS
 40
0.0
  9
$LIMCHECK
 70
     0
  9
$BLIPMODE
 70
     0
  9
$CHAMFERA
 40
0.0
  9
$CHAMFERB
 40
0.0
  9
$SKPOLY
 70
     0
  9
$TDCREATE
 40
2444972.375
  9
$TDUPDATE
 40
2457101.250759352
  9
$TDINDWG
 40
0.0000297801
  9
$TDUSRTIMER
 40
0.0000297801
  9
$USRTIMER
 70
     1
  9
$ANGBASE
 50
0.0
  9
$ANGDIR
 70
     0
  9
$PDMODE
 70
     0
  9
$PDSIZE
 40
0.0
  9
$PLINEWID
 40
0.0
  9
$COORDS
 70
     1
  9
$SPLFRAME
 70
     0
  9
$SPLINETYPE
 70
     6
  9
$SPLINESEGS
 70
     8
  9
$ATTDIA
 70
     1
  9
$ATTREQ
 70
     1
  9
$HANDLING
 70
     1
  9
$HANDSEED
  5
2FE
  9
$SURFTAB1
 70
     6
  9
$SURFTAB2
 70
     6
  9
$SURFTYPE
 70
     6
  9
$SURFU
 70
     6
  9
$SURFV
 70
     6
  9
$UCSNAME
  2

  9
$UCSORG
 10
0.0
 20
0.0
 30
0.0
  9
$UCSXDIR
 10
1.0
 20
0.0
 30
0.0
  9
$UCSYDIR
 10
0.0
 20
1.0
 30
0.0
  9
$PUCSNAME
  2

  9
$PUCSORG
 10
0.0
 20
0.0
 30
0.0
  9
$PUCSXDIR
 10
1.0
 20
0.0
 30
0.0
  9
$PUCSYDIR
 10
0.0
 20
1.0
 30
0.0
  9
$USERI1
 70
     0
  9
$USERI2
 70
     0
  9
$USERI3
 70
     0
  9
$USERI4
 70
     0
  9
$USERI5
 70
     0
  9
$USERR1
 40
0.0
  9
$USERR2
 40
0.0
  9
$USERR3
 40
0.0
  9
$USERR4
 40
0.0
  9
$USERR5
 40
0.0
  9
$WORLDVIEW
 70
     1
  9
$SHADEDGE
 70
     3
  9
$SHADEDIF
 70
    70
  9
$TILEMODE
 70
     1
  9
$MAXACTVP
 70
    48
  9
$PLIMCHECK
 70
     0
  9
$PEXTMIN
 10
1.0000000000000000E+020
 20
1.0000000000000000E+020
 30
1.0000000000000000E+020
  9
$PEXTMAX
 10
-1.0000000000000000E+020
 20
-1.0000000000000000E+020
 30
-1.0000000000000000E+020
  9
$PLIMMIN
 10
0.0
 20
0.0
  9
$PLIMMAX
 10
12.0
 20
9.0
  9
$UNITMODE
 70
     0
  9
$VISRETAIN
 70
     1
  9
$PLINEGEN
 70
     0
  9
$PSLTSCALE
 70
     1
  0
ENDSEC
  0
SECTION
  2
TABLES
  0
TABLE
  2
VPORT
 70
     1
  0
VPORT
  2
*ACTIVE
 70
     0
 10
0.0
 20
0.0
 11
1.0
 21
1.0
 12
152.10070349712981
 22
148.72499999999991
 13
0.0
 23
0.0
 14
1.0
 24
1.0
 15
0.0
 25
0.0
 16
0.0
 26
0.0
 36
1.0
 17
0.0
 27
0.0
 37
0.0
 40
283.373398171134
 41
2.038306451612903
 42
50.0
 43
0.0
 44
0.0
 50
0.0
 51
0.0
 71
     0
 72
   100
 73
     1
 74
     1
 75
     0
 76
     0
 77
     0
 78
     0
  0
ENDTAB
  0
TABLE
  2
LTYPE
 70
     4
  0
LTYPE
  2
CONTINUOUS
 70
     0
  3
Solid line
 72
    65
 73
     0
 40
0.0
  0
LTYPE
  2
AIGENLINE001
 70
     0
  3
generate AI->DXF Converter
 72
    65
 73
     4
 40
5.8561449999999988
 49
3.5278
 49
-0.776115
 49
0.776115
 49
-0.776115
  0
LTYPE
  2
AIGENLINE002
 70
     0
  3
generate AI->DXF Converter
 72
    65
 73
     6
 40
7.4083750000000004
 49
3.5278
 49
-0.776115
 49
0.776115
 49
-0.776115
 49
0.776115
 49
-0.776115
  0
LTYPE
  2
AIGENLINE003
 70
     0
  3
generate AI->DXF Converter
 72
    65
 73
     2
 40
1.5522299999999991
 49
0.776115
 49
-0.776115
  0
ENDTAB
  0
TABLE
  2
LAYER
 70
     2
  0
LAYER
  2
0
 70
     0
 62
     7
  6
CONTINUOUS
  0
LAYER
  2
_________2
 70
     0
 62
     7
  6
CONTINUOUS
  0
ENDTAB
  0
TABLE
  2
STYLE
 70
     1
  0
STYLE
  2
STANDARD
 70
     0
 40
0.0
 41
0.0
 50
0.0
 71
     0
 42
0.0
  3
TXT
  4
EXTFONT.SHX
  0
ENDTAB
  0
TABLE
  2
VIEW
 70
     0
  0
ENDTAB
  0
TABLE
  2
UCS
 70
     0
  0
ENDTAB
  0
TABLE
  2
APPID
 70
     3
  0
APPID
  2
ACAD
 70
     0
  0
APPID
  2
ACAD_NAV_VCDISPLAY
 70
     0
  0
APPID
  2
ACAD_MLEADERVER
 70
     0
  0
ENDTAB
  0
TABLE
  2
DIMSTYLE
 70
     1
  0
DIMSTYLE
  2
STANDARD
 70
     0
  3

  4

  5

  6

  7

 40
1.0
 41
0.18
 42
0.0625
 43
0.38
 44
0.18
 45
0.0
 46
0.0
 47
0.0
 48
0.0
140
0.18
141
0.09
142
0.0
143
25.399999999999999
144
1.0
145
0.0
146
1.0
147
0.09
 71
     0
 72
     0
 73
     1
 74
     1
 75
     0
 76
     0
 77
     0
 78
     0
170
     0
171
     2
172
     0
173
     0
174
     0
175
     0
176
     0
177
     0
178
     0
  0
ENDTAB
  0
ENDSEC
  0
SECTION
  2
BLOCKS
  0
BLOCK
  8
0
  2
$MODEL_SPACE
 70
     0
 10
0.0
 20
0.0
 30
0.0
  3
$MODEL_SPACE
  1

  0
ENDBLK
  5
1A
  8
0
  0
BLOCK
 67
     1
  8
0
  2
$PAPER_SPACE
 70
     0
 10
0.0
 20
0.0
 30
0.0
  3
$PAPER_SPACE
  1

  0
ENDBLK
  5
17
 67
     1
  8
0
  0
ENDSEC
  0
SECTION
  2
ENTITIES
  0
TEXT
  5
24
  8
0
 62
     7
 10
71.710936250000003
 20
226.49700000000001
 30
0.0
 40
3.660169999999999
  1
30
 41
0.5
 72
     1
 11
73.083500000000001
 21
226.49700000000001
 31
0.0
  0
TEXT
  5
25
  8
0
 62
     7
 10
71.55842916666667
 20
232.14699999999999
 30
0.0
 40
3.660169999999999
  1
45
 41
0.5
 72
     1
 11
73.083500000000001
 21
232.14699999999999
 31
0.0
  0
TEXT
  5
26
  8
0
 62
     7
 10
70.643186666666665
 20
238.14699999999999
 30
0.0
 40
3.660169999999999
  1
294
 41
0.5
 72
     1
 11
73.083299999999994
 21
238.14699999999999
 31
0.0
  0
TEXT
  5
27
  8
0
 62
     7
 10
116.621
 20
181.45599999999999
 30
0.0
 40
3.660169999999999
  1
10
 50
90.0
 41
0.5
  0
TEXT
  5
28
  8
0
 62
     7
 10
122.855
 20
188.35843625000001
 30
0.0
 40
3.660169999999999
  1
20
 50
90.0
 41
0.5
 72
     1
 11
122.855
 21
189.73099999999999
 31
0.0
  0
TEXT
  5
29
  8
0
 62
     7
 10
92.054600833333325
 20
167.23599999999999
 30
0.0
 40
3.660169999999999
  1
122
 41
0.5
 72
     1
 11
94.189699999999988
 21
167.23599999999999
 31
0.0
  0
TEXT
  5
2A
  8
0
 62
     7
 10
116.866
 20
126.1779433333333
 30
0.0
 40
3.660169999999999
  1
31
 50
90.0
 41
0.5
 72
     1
 11
116.866
 21
127.398
 31
0.0
  0
TEXT
  5
2B
  8
0
 62
     7
 10
148.6852683018912
 20
145.72140349281341
 30
0.0
 40
3.6601300000000001
  1
133
 50
341.2469999999999
 41
0.5
 72
     1
 11
150.70699999999999
 21
145.035
 31
0.0
  0
TEXT
  5
2C
  8
0
 62
     7
 10
177.898
 20
126.1779433333333
 30
0.0
 40
3.660169999999999
  1
31
 50
90.0
 41
0.5
 72
     1
 11
177.898
 21
127.398
 31
0.0
  0
TEXT
  5
2D
  8
0
 62
     7
 10
149.54692916666659
 20
154.482
 30
0.0
 40
3.660169999999999
  1
86
 41
0.5
 72
     1
 11
151.072
 21
154.482
 31
0.0
  0
TEXT
  5
2E
  8
0
 62
     7
 10
140.27199999999999
 20
95.532399999999996
 30
0.0
 40
3.660169999999999
  1
（%%c6\U+00D735 樹脂プラグ付）
 41
0.5
  0
TEXT
  5
2F
  8
0
 62
     7
 10
140.27199999999999
 20
101.372
 30
0.0
 40
3.660169999999999
  1
%%c4\U+00D744 SUS十字穴付丸頭木ネジ
 41
0.5
  0
LINE
  5
30
  8
0
 62
     7
 10
69.333299999999994
 20
226.14699999999999
 30
0.0
 11
69.333299999999994
 21
219.98500000000001
 31
0.0
  0
LINE
  5
31
  8
0
 62
     7
 10
76.833699999999993
 20
226.14699999999999
 30
0.0
 11
76.833699999999993
 21
219.98500000000001
 31
0.0
  0
LINE
  5
32
  8
0
 62
     7
 10
107.623
 20
236.86199999999999
 30
0.0
 11
109.834
 21
237.45400000000001
 31
0.0
  0
LINE
  5
33
  8
0
 62
     7
 10
109.834
 20
237.45400000000001
 30
0.0
 11
107.623
 21
238.047
 31
0.0
  0
LINE
  5
34
  8
0
 62
     7
 10
107.623
 20
238.047
 30
0.0
 11
107.623
 21
236.86199999999999
 31
0.0
  0
LINE
  5
35
  8
0
 62
     7
 10
38.543999999999997
 20
238.03200000000001
 30
0.0
 11
36.332900000000009
 21
237.44
 31
0.0
  0
LINE
  5
36
  8
0
 62
     7
 10
36.332900000000009
 20
237.44
 30
0.0
 11
38.543999999999997
 21
236.84800000000001
 31
0.0
  0
LINE
  5
37
  8
0
 62
     7
 10
38.543999999999997
 20
236.84800000000001
 30
0.0
 11
38.543999999999997
 21
238.03200000000001
 31
0.0
  0
LINE
  5
38
  8
0
 62
     7
 10
109.833
 20
237.447
 30
0.0
 11
36.333199999999998
 21
237.447
 31
0.0
  0
LINE
  5
39
  8
0
 62
     7
 10
76.497500000000002
 20
230.86199999999999
 30
0.0
 11
78.708500000000001
 21
231.45400000000001
 31
0.0
  0
LINE
  5
3A
  8
0
 62
     7
 10
78.708500000000001
 20
231.45400000000001
 30
0.0
 11
76.497500000000002
 21
232.047
 31
0.0
  0
LINE
  5
3B
  8
0
 62
     7
 10
76.497500000000002
 20
232.047
 30
0.0
 11
76.497500000000002
 21
230.86199999999999
 31
0.0
  0
LINE
  5
3C
  8
0
 62
     7
 10
69.669200000000004
 20
232.03200000000001
 30
0.0
 11
67.458200000000005
 21
231.44
 31
0.0
  0
LINE
  5
3D
  8
0
 62
     7
 10
67.458200000000005
 20
231.44
 30
0.0
 11
69.669200000000004
 21
230.84700000000001
 31
0.0
  0
LINE
  5
3E
  8
0
 62
     7
 10
69.669200000000004
 20
230.84700000000001
 30
0.0
 11
69.669200000000004
 21
232.03200000000001
 31
0.0
  0
LINE
  5
3F
  8
0
 62
     7
 10
78.708200000000005
 20
231.447
 30
0.0
 11
67.458500000000001
 21
231.447
 31
0.0
  0
LINE
  5
40
  8
0
 62
     7
 10
74.622600000000006
 20
224.86199999999999
 30
0.0
 11
76.833699999999993
 21
225.45400000000001
 31
0.0
  0
LINE
  5
41
  8
0
 62
     7
 10
76.833699999999993
 20
225.45400000000001
 30
0.0
 11
74.622600000000006
 21
226.047
 31
0.0
  0
LINE
  5
42
  8
0
 62
     7
 10
74.622600000000006
 20
226.047
 30
0.0
 11
74.622600000000006
 21
224.86199999999999
 31
0.0
  0
LINE
  5
43
  8
0
 62
     7
 10
71.543700000000001
 20
226.03200000000001
 30
0.0
 11
69.333299999999994
 21
225.44
 31
0.0
  0
LINE
  5
44
  8
0
 62
     7
 10
69.333299999999994
 20
225.44
 30
0.0
 11
71.543700000000001
 21
224.84700000000001
 31
0.0
  0
LINE
  5
45
  8
0
 62
     7
 10
71.543700000000001
 20
224.84700000000001
 30
0.0
 11
71.543700000000001
 21
226.03200000000001
 31
0.0
  0
LINE
  5
46
  8
0
 62
     7
 10
76.833299999999994
 20
225.447
 30
0.0
 11
69.333299999999994
 21
225.447
 31
0.0
  0
LINE
  5
47
  8
0
 62
     7
 10
67.458200000000005
 20
232.14699999999999
 30
0.0
 11
67.458200000000005
 21
209.78800000000001
 31
0.0
  0
LINE
  5
48
  8
0
 62
     7
 10
78.708500000000001
 20
232.14699999999999
 30
0.0
 11
78.708500000000001
 21
209.78800000000001
 31
0.0
  0
LINE
  5
49
  8
0
  6
AIGENLINE001
 62
     7
 10
73.083299999999994
 20
134.53
 30
0.0
 11
73.083299999999994
 21
118.399
 31
0.0
  0
LINE
  5
4A
  8
0
  6
AIGENLINE001
 62
     7
 10
73.083299999999994
 20
211.315
 30
0.0
 11
73.083299999999994
 21
185.0329999999999
 31
0.0
  0
LINE
  5
4B
  8
0
 62
     7
 10
36.332900000000009
 20
238.14699999999999
 30
0.0
 11
36.332900000000009
 21
208.54499999999999
 31
0.0
  0
LINE
  5
4C
  8
0
 62
     7
 10
109.834
 20
238.14699999999999
 30
0.0
 11
109.834
 21
208.54499999999999
 31
0.0
  0
LINE
  5
4D
  8
0
 62
     7
 10
117.913
 20
185.078
 30
0.0
 11
117.321
 21
187.28999999999999
 31
0.0
  0
LINE
  5
4E
  8
0
 62
     7
 10
117.321
 20
187.28999999999999
 30
0.0
 11
116.72799999999999
 21
185.078
 31
0.0
  0
LINE
  5
4F
  8
0
 62
     7
 10
116.72799999999999
 20
185.078
 30
0.0
 11
117.913
 21
185.078
 31
0.0
  0
LINE
  5
50
  8
0
 62
     7
 10
116.72799999999999
 20
191.999
 30
0.0
 11
117.321
 21
189.78700000000001
 31
0.0
  0
LINE
  5
51
  8
0
 62
     7
 10
117.321
 20
189.78700000000001
 30
0.0
 11
117.913
 21
191.999
 31
0.0
  0
LINE
  5
52
  8
0
 62
     7
 10
117.913
 20
191.999
 30
0.0
 11
116.72799999999999
 21
191.999
 31
0.0
  0
LINE
  5
53
  8
0
 62
     7
 10
117.321
 20
193.43000000000001
 30
0.0
 11
117.321
 21
181.45599999999999
 31
0.0
  0
LINE
  5
54
  8
0
 62
     7
 10
124.31399999999999
 20
187.28999999999999
 30
0.0
 11
110.633
 21
187.28999999999999
 31
0.0
  0
LINE
  5
55
  8
0
 62
     7
 10
118.021
 20
189.78700000000001
 30
0.0
 11
109.06399999999999
 21
189.78700000000001
 31
0.0
  0
LINE
  5
56
  8
0
 62
     7
 10
124.19199999999999
 20
190.078
 30
0.0
 11
123.599
 21
192.28999999999999
 31
0.0
  0
LINE
  5
57
  8
0
 62
     7
 10
123.599
 20
192.28999999999999
 30
0.0
 11
123.00700000000001
 21
190.078
 31
0.0
  0
LINE
  5
58
  8
0
 62
     7
 10
123.00700000000001
 20
190.078
 30
0.0
 11
124.19199999999999
 21
190.078
 31
0.0
  0
LINE
  5
59
  8
0
 62
     7
 10
123.021
 20
189.501
 30
0.0
 11
123.614
 21
187.28999999999999
 31
0.0
  0
LINE
  5
5A
  8
0
 62
     7
 10
123.614
 20
187.28999999999999
 30
0.0
 11
124.206
 21
189.501
 31
0.0
  0
LINE
  5
5B
  8
0
 62
     7
 10
124.206
 20
189.501
 30
0.0
 11
123.021
 21
189.501
 31
0.0
  0
LINE
  5
5C
  8
0
 62
     7
 10
123.607
 20
192.28999999999999
 30
0.0
 11
123.607
 21
187.28999999999999
 31
0.0
  0
LINE
  5
5D
  8
0
 62
     7
 10
110.625
 20
192.28999999999999
 30
0.0
 11
124.307
 21
192.28999999999999
 31
0.0
  0
LINE
  5
5E
  8
0
 62
     7
 10
107.22799999999999
 20
165.601
 30
0.0
 11
109.44
 21
166.19300000000001
 31
0.0
  0
LINE
  5
5F
  8
0
 62
     7
 10
109.44
 20
166.19300000000001
 30
0.0
 11
107.22799999999999
 21
166.78599999999989
 31
0.0
  0
LINE
  5
60
  8
0
 62
     7
 10
107.22799999999999
 20
166.78599999999989
 30
0.0
 11
107.22799999999999
 21
165.601
 31
0.0
  0
LINE
  5
61
  8
0
 62
     7
 10
81.110500000000002
 20
166.77199999999999
 30
0.0
 11
78.898399999999995
 21
166.179
 31
0.0
  0
LINE
  5
62
  8
0
 62
     7
 10
78.898399999999995
 20
166.179
 30
0.0
 11
81.110500000000002
 21
165.58600000000001
 31
0.0
  0
LINE
  5
63
  8
0
 62
     7
 10
81.110500000000002
 20
165.58600000000001
 30
0.0
 11
81.110500000000002
 21
166.77199999999999
 31
0.0
  0
LINE
  5
64
  8
0
 62
     7
 10
109.438
 20
166.18600000000001
 30
0.0
 11
78.899699999999996
 21
166.18600000000001
 31
0.0
  0
LINE
  5
65
  8
0
 62
     7
 10
78.939700000000002
 20
176.14099999999999
 30
0.0
 11
78.939700000000002
 21
165.48599999999999
 31
0.0
  0
LINE
  5
66
  8
0
 62
     7
 10
109.44
 20
176.14099999999999
 30
0.0
 11
109.44
 21
165.48599999999999
 31
0.0
  0
LINE
  5
67
  8
0
 62
     7
 10
118.501
 20
129.06100000000001
 30
0.0
 11
117.908
 21
131.273
 31
0.0
  0
LINE
  5
68
  8
0
 62
     7
 10
117.908
 20
131.273
 30
0.0
 11
117.316
 21
129.06100000000001
 31
0.0
  0
LINE
  5
69
  8
0
 62
     7
 10
117.316
 20
129.06100000000001
 30
0.0
 11
118.501
 21
129.06100000000001
 31
0.0
  0
LINE
  5
6A
  8
0
 62
     7
 10
117.33
 20
125.693
 30
0.0
 11
117.923
 21
123.482
 31
0.0
  0
LINE
  5
6B
  8
0
 62
     7
 10
117.923
 20
123.482
 30
0.0
 11
118.515
 21
125.693
 31
0.0
  0
LINE
  5
6C
  8
0
 62
     7
 10
118.515
 20
125.693
 30
0.0
 11
117.33
 21
125.693
 31
0.0
  0
LINE
  5
6D
  8
0
 62
     7
 10
117.916
 20
131.27099999999999
 30
0.0
 11
117.916
 21
123.483
 31
0.0
  0
LINE
  5
6E
  8
0
 62
     7
 10
76.382400000000004
 20
123.523
 30
0.0
 11
118.616
 21
123.523
 31
0.0
  0
LINE
  5
6F
  8
0
 62
     7
 10
76.382400000000004
 20
131.273
 30
0.0
 11
118.616
 21
131.273
 31
0.0
  0
LINE
  5
70
  8
0
 62
     7
 10
134.96799999999999
 20
150.374
 30
0.0
 11
130.15799999999999
 21
136.20699999999999
 31
0.0
  0
LINE
  5
71
  8
0
 62
     7
 10
166.44399999999999
 20
139.69200000000001
 30
0.0
 11
162.08600000000001
 21
126.858
 31
0.0
  0
LINE
  5
72
  8
0
 62
     7
 10
163.93199999999999
 20
139.17400000000001
 30
0.0
 11
166.21700000000001
 21
139.024
 31
0.0
  0
LINE
  5
73
  8
0
 62
     7
 10
166.21700000000001
 20
139.024
 30
0.0
 11
164.31299999999999
 21
140.29599999999999
 31
0.0
  0
LINE
  5
74
  8
0
 62
     7
 10
164.31299999999999
 20
140.29599999999999
 30
0.0
 11
163.93199999999999
 21
139.17400000000001
 31
0.0
  0
LINE
  5
75
  8
0
 62
     7
 10
137.024
 20
149.55500000000001
 30
0.0
 11
134.739
 21
149.70400000000001
 31
0.0
  0
LINE
  5
76
  8
0
 62
     7
 10
134.739
 20
149.70400000000001
 30
0.0
 11
136.643
 21
148.43199999999999
 31
0.0
  0
LINE
  5
77
  8
0
 62
     7
 10
136.643
 20
148.43199999999999
 30
0.0
 11
137.024
 21
149.55500000000001
 31
0.0
  0
LINE
  5
78
  8
0
 62
     7
 10
166.214
 20
139.017
 30
0.0
 11
134.74299999999999
 21
149.71100000000001
 31
0.0
  0
LINE
  5
79
  8
0
 62
     7
 10
179.298
 20
123.523
 30
0.0
 11
162.52099999999999
 21
123.523
 31
0.0
  0
LINE
  5
7A
  8
0
 62
     7
 10
140.321
 20
154.482
 30
0.0
 11
140.321
 21
132.09399999999999
 31
0.0
  0
LINE
  5
7B
  8
0
 62
     7
 10
161.821
 20
154.482
 30
0.0
 11
161.821
 21
131.97300000000001
 31
0.0
  0
LINE
  5
7C
  8
0
 62
     7
 10
179.184
 20
129.06100000000001
 30
0.0
 11
178.59100000000001
 21
131.273
 31
0.0
  0
LINE
  5
7D
  8
0
 62
     7
 10
178.59100000000001
 20
131.273
 30
0.0
 11
177.999
 21
129.06100000000001
 31
0.0
  0
LINE
  5
7E
  8
0
 62
     7
 10
177.999
 20
129.06100000000001
 30
0.0
 11
179.184
 21
129.06100000000001
 31
0.0
  0
LINE
  5
7F
  8
0
 62
     7
 10
178.01300000000001
 20
125.733
 30
0.0
 11
178.60599999999999
 21
123.521
 31
0.0
  0
LINE
  5
80
  8
0
 62
     7
 10
178.60599999999999
 20
123.521
 30
0.0
 11
179.19800000000001
 21
125.733
 31
0.0
  0
LINE
  5
81
  8
0
 62
     7
 10
179.19800000000001
 20
125.733
 30
0.0
 11
178.01300000000001
 21
125.733
 31
0.0
  0
LINE
  5
82
  8
0
 62
     7
 10
178.59800000000001
 20
131.27199999999999
 30
0.0
 11
178.59800000000001
 21
123.523
 31
0.0
  0
LINE
  5
83
  8
0
 62
     7
 10
159.61099999999999
 20
153.197
 30
0.0
 11
161.82300000000001
 21
153.78899999999999
 31
0.0
  0
LINE
  5
84
  8
0
 62
     7
 10
161.82300000000001
 20
153.78899999999999
 30
0.0
 11
159.61099999999999
 21
154.38200000000001
 31
0.0
  0
LINE
  5
85
  8
0
 62
     7
 10
159.61099999999999
 20
154.38200000000001
 30
0.0
 11
159.61099999999999
 21
153.197
 31
0.0
  0
LINE
  5
86
  8
0
 62
     7
 10
142.53299999999999
 20
154.36699999999999
 30
0.0
 11
140.321
 21
153.77500000000001
 31
0.0
  0
LINE
  5
87
  8
0
 62
     7
 10
140.321
 20
153.77500000000001
 30
0.0
 11
142.53299999999999
 21
153.18199999999999
 31
0.0
  0
LINE
  5
88
  8
0
 62
     7
 10
142.53299999999999
 20
153.18199999999999
 30
0.0
 11
142.53299999999999
 21
154.36699999999999
 31
0.0
  0
LINE
  5
89
  8
0
 62
     7
 10
161.821
 20
153.78200000000001
 30
0.0
 11
140.32299999999989
 21
153.78200000000001
 31
0.0
  0
LINE
  5
8A
  8
0
 62
     7
 10
179.298
 20
131.273
 30
0.0
 11
162.52099999999999
 21
131.273
 31
0.0
  0
LINE
  5
8B
  8
0
 62
     7
 10
173.733
 20
99.704100000000011
 30
0.0
 11
140.27199999999999
 21
99.704100000000011
 31
0.0
  0
LINE
  5
8C
  8
0
 62
     7
 10
170.83500000000001
 20
124.79000000000001
 30
0.0
 11
169.94399999999999
 21
126.898
 31
0.0
  0
LINE
  5
8D
  8
0
 62
     7
 10
169.94399999999999
 20
126.898
 30
0.0
 11
169.66099999999989
 21
124.627
 31
0.0
  0
LINE
  5
8E
  8
0
 62
     7
 10
169.66099999999989
 20
124.627
 30
0.0
 11
170.83500000000001
 21
124.79000000000001
 31
0.0
  0
LINE
  5
8F
  8
0
 62
     7
 10
169.94999999999999
 20
126.898
 30
0.0
 11
173.733
 21
99.704100000000011
 31
0.0
  0
ARC
  5
90
  8
0
 62
     7
 10
156.10433800000001
 20
128.87291300000001
 30
0.0
 40
6.5504189999999998
 50
323.62368700000002
 51
325.47200199999997
  0
ARC
  5
91
  8
0
 62
     7
 10
160.68949599999999
 20
125.519051
 30
0.0
 40
0.8698090000000001
 50
309.68471899999997
 51
322.36751099999998
  0
ARC
  5
92
  8
0
 62
     7
 10
133.05397400000001
 20
118.343937
 30
0.0
 40
29.396826000000001
 50
17.878152
 51
18.776827000000001
  0
ARC
  5
93
  8
0
 62
     7
 10
152.750449
 20
124.71486400000001
 30
0.0
 40
8.6956449999999972
 50
15.446878999999999
 51
17.768844999999999
  0
ARC
  5
94
  8
0
 62
     7
 10
157.39353299999999
 20
125.990999
 30
0.0
 40
3.8803930000000002
 50
8.7406320000000033
 51
15.544673
  0
ARC
  5
95
  8
0
 62
     7
 10
159.41578100000001
 20
126.320436
 30
0.0
 40
1.831661
 50
344.78716900000001
 51
8.1679849999999998
  0
ARC
  5
96
  8
0
 62
     7
 10
160.59572399999999
 20
126.007406
 30
0.0
 40
0.6109710000000002
 50
337.85265299999998
 51
344.07795499999997
  0
ARC
  5
97
  8
0
 62
     7
 10
160.88359700000001
 20
125.89220400000001
 30
0.0
 40
0.300915
 50
308.75800600000002
 51
337.50551000000002
  0
LINE
  5
98
  8
0
 62
     7
 10
161.226
 20
128.23400000000001
 30
0.0
 11
160.80199999999999
 21
127.989
 31
0.0
  0
LINE
  5
99
  8
0
 62
     7
 10
160.321
 20
123.95399999999999
 30
0.0
 11
159.398
 21
124.488
 31
0.0
  0
LINE
  5
9A
  8
0
 62
     7
 10
159.398
 20
124.488
 30
0.0
 11
159.398
 21
125.55800000000001
 31
0.0
  0
LINE
  5
9B
  8
0
 62
     7
 10
159.398
 20
125.55800000000001
 30
0.0
 11
160.321
 21
126.092
 31
0.0
  0
LINE
  5
9C
  8
0
 62
     7
 10
160.321
 20
126.092
 30
0.0
 11
161.245
 21
125.55800000000001
 31
0.0
  0
LINE
  5
9D
  8
0
 62
     7
 10
161.245
 20
125.55800000000001
 30
0.0
 11
161.245
 21
124.488
 31
0.0
  0
LINE
  5
9E
  8
0
 62
     7
 10
161.245
 20
124.488
 30
0.0
 11
160.321
 21
123.95399999999999
 31
0.0
  0
ARC
  5
9F
  8
0
 62
     7
 10
160.287824
 20
125.056438
 30
0.0
 40
0.909153
 50
272.10941100000002
 51
357.86803700000002
  0
ARC
  5
A0
  8
0
 62
     7
 10
160.32128800000001
 20
125.022961
 30
0.0
 40
0.87506
 50
179.99996999999999
 51
270.00002000000001
  0
ARC
  5
A1
  8
0
 62
     7
 10
160.32128800000001
 20
125.022961
 30
0.0
 40
0.87506
 50
90.0
 51
179.99996999999999
  0
ARC
  5
A2
  8
0
 62
     7
 10
160.28746100000001
 20
124.989148
 30
0.0
 40
0.9095019999999999
 50
2.1089120000000001
 51
87.868525000000005
  0
LINE
  5
A3
  8
0
  6
AIGENLINE001
 62
     7
 10
160.321
 20
126.773
 30
0.0
 11
160.321
 21
123.273
 31
0.0
  0
LINE
  5
A4
  8
0
  6
AIGENLINE001
 62
     7
 10
158.68299999999999
 20
125.023
 30
0.0
 11
161.67699999999999
 21
125.023
 31
0.0
  0
ARC
  5
A5
  8
0
 62
     7
 10
150.431702
 20
123.81320700000001
 30
0.0
 40
11.691456000000001
 50
17.820374000000001
 51
20.972546000000001
  0
ARC
  5
A6
  8
0
 62
     7
 10
155.98768000000001
 20
125.623499
 30
0.0
 40
5.8480840000000001
 50
12.140267
 51
17.593883999999999
  0
ARC
  5
A7
  8
0
 62
     7
 10
158.60744700000001
 20
126.200911
 30
0.0
 40
3.1655029999999988
 50
0.553816
 51
11.895060000000001
  0
ARC
  5
A8
  8
0
 62
     7
 10
159.53258400000001
 20
126.247309
 30
0.0
 40
2.2402739999999999
 50
336.76493500000009
 51
359.59589
  0
ARC
  5
A9
  8
0
 62
     7
 10
158.143294
 20
126.771559
 30
0.0
 40
3.724294
 50
334.36131599999999
 51
337.785753
  0
ARC
  5
AA
  8
0
  6
AIGENLINE002
 62
     7
 10
142.82146900000001
 20
125.816715
 30
0.0
 40
6.0000169999999988
 50
0.0033
 51
90.003269999999986
  0
ARC
  5
AB
  8
0
  6
AIGENLINE002
 62
     7
 10
142.82078200000001
 20
125.816715
 30
0.0
 40
6.0000169999999988
 50
89.996709999999993
 51
179.99668
  0
ARC
  5
AC
  8
0
  6
AIGENLINE002
 62
     7
 10
142.820953
 20
125.817232
 30
0.0
 40
6.0001870000000004
 50
180.001655
 51
270.001665
  0
ARC
  5
AD
  8
0
  6
AIGENLINE002
 62
     7
 10
142.82129699999999
 20
125.817234
 30
0.0
 40
6.000189999999999
 50
269.99837500000001
 51
359.99834499999997
  0
ARC
  5
AE
  8
0
  6
AIGENLINE002
 62
     7
 10
142.821123
 20
125.817058
 30
0.0
 40
13.750154
 50
0.00001
 51
89.999980000000008
  0
ARC
  5
AF
  8
0
  6
AIGENLINE002
 62
     7
 10
142.82112799999999
 20
125.817058
 30
0.0
 40
13.750154
 50
90.0
 51
179.99996999999999
  0
ARC
  5
B0
  8
0
  6
AIGENLINE002
 62
     7
 10
142.821123
 20
125.817058
 30
0.0
 40
13.75015
 50
179.99996999999999
 51
270.00002000000001
  0
ARC
  5
B1
  8
0
  6
AIGENLINE002
 62
     7
 10
142.821123
 20
125.817063
 30
0.0
 40
13.750154
 50
270.00002000000001
 51
359.99999000000003
  0
ARC
  5
B2
  8
0
 62
     7
 10
142.269699
 20
119.05309
 30
0.0
 40
20.571717
 50
25.182054000000001
 51
76.597706000000002
  0
ARC
  5
B3
  8
0
 62
     7
 10
142.43591000000001
 20
118.91806200000001
 30
0.0
 40
20.665444000000001
 50
77.132765000000006
 51
102.07547599999999
  0
ARC
  5
B4
  8
0
 62
     7
 10
142.426098
 20
119.697379
 30
0.0
 40
19.901909
 50
102.517216
 51
128.29833600000001
  0
LINE
  5
B5
  8
0
 62
     7
 10
130.09200000000001
 20
135.316
 30
0.0
 11
129.91399999999999
 21
135.488
 31
0.0
  0
ARC
  5
B6
  8
0
 62
     7
 10
143.66088199999999
 20
118.040634
 30
0.0
 40
22.212422
 50
111.142394
 51
128.23571999999999
  0
ARC
  5
B7
  8
0
 62
     7
 10
142.718548
 20
120.045524
 30
0.0
 40
20.003207
 50
77.200911000000005
 51
110.696229
  0
ARC
  5
B8
  8
0
 62
     7
 10
142.28659500000001
 20
119.073699
 30
0.0
 40
21.047584000000001
 50
25.087215
 51
76.640321
  0
LINE
  5
B9
  8
0
 62
     7
 10
171.21000000000001
 20
127.771
 30
0.0
 11
171.50899999999999
 21
127.05200000000001
 31
0.0
  0
LINE
  5
BA
  8
0
 62
     7
 10
170.614
 20
127.898
 30
0.0
 11
171.03
 21
126.898
 31
0.0
  0
LINE
  5
BB
  8
0
 62
     7
 10
170.071
 20
127.898
 30
0.0
 11
170.48699999999999
 21
126.898
 31
0.0
  0
LINE
  5
BC
  8
0
 62
     7
 10
169.52799999999999
 20
127.898
 30
0.0
 11
169.94399999999999
 21
126.898
 31
0.0
  0
LINE
  5
BD
  8
0
 62
     7
 10
168.98400000000001
 20
127.898
 30
0.0
 11
169.40000000000001
 21
126.898
 31
0.0
  0
LINE
  5
BE
  8
0
 62
     7
 10
168.44099999999989
 20
127.898
 30
0.0
 11
168.857
 21
126.898
 31
0.0
  0
LINE
  5
BF
  8
0
 62
     7
 10
167.898
 20
127.898
 30
0.0
 11
168.31399999999999
 21
126.898
 31
0.0
  0
LINE
  5
C0
  8
0
 62
     7
 10
167.35400000000001
 20
127.898
 30
0.0
 11
167.77000000000001
 21
126.898
 31
0.0
  0
LINE
  5
C1
  8
0
 62
     7
 10
166.81099999999989
 20
127.898
 30
0.0
 11
167.227
 21
126.898
 31
0.0
  0
LINE
  5
C2
  8
0
 62
     7
 10
166.268
 20
127.898
 30
0.0
 11
166.684
 21
126.898
 31
0.0
  0
LINE
  5
C3
  8
0
 62
     7
 10
165.72499999999999
 20
127.898
 30
0.0
 11
166.13999999999999
 21
126.898
 31
0.0
  0
LINE
  5
C4
  8
0
 62
     7
 10
165.18100000000001
 20
127.898
 30
0.0
 11
165.59700000000001
 21
126.898
 31
0.0
  0
LINE
  5
C5
  8
0
 62
     7
 10
164.63800000000001
 20
127.898
 30
0.0
 11
165.054
 21
126.898
 31
0.0
  0
LINE
  5
C6
  8
0
 62
     7
 10
164.095
 20
127.898
 30
0.0
 11
164.511
 21
126.898
 31
0.0
  0
LINE
  5
C7
  8
0
 62
     7
 10
163.55099999999999
 20
127.898
 30
0.0
 11
163.96700000000001
 21
126.898
 31
0.0
  0
LINE
  5
C8
  8
0
 62
     7
 10
163.0079999999999
 20
127.898
 30
0.0
 11
163.42400000000001
 21
126.898
 31
0.0
  0
LINE
  5
C9
  8
0
 62
     7
 10
162.465
 20
127.898
 30
0.0
 11
162.881
 21
126.898
 31
0.0
  0
LINE
  5
CA
  8
0
 62
     7
 10
161.922
 20
127.898
 30
0.0
 11
162.33699999999999
 21
126.898
 31
0.0
  0
LINE
  5
CB
  8
0
 62
     7
 10
171.821
 20
127.398
 30
0.0
 11
171.08199999999999
 21
127.654
 31
0.0
  0
LINE
  5
CC
  8
0
 62
     7
 10
171.821
 20
127.398
 30
0.0
 11
171.08199999999999
 21
127.142
 31
0.0
  0
LINE
  5
CD
  8
0
  6
AIGENLINE001
 62
     7
 10
172.316
 20
127.398
 30
0.0
 11
139.054
 21
127.398
 31
0.0
  0
LINE
  5
CE
  8
0
 62
     7
 10
171.08199999999999
 20
127.142
 30
0.0
 11
161.821
 21
127.142
 31
0.0
  0
LINE
  5
CF
  8
0
 62
     7
 10
171.08199999999999
 20
127.654
 30
0.0
 11
161.821
 21
127.654
 31
0.0
  0
LINE
  5
D0
  8
0
 62
     7
 10
140.321
 20
123.523
 30
0.0
 11
161.821
 21
123.523
 31
0.0
  0
LINE
  5
D1
  8
0
 62
     7
 10
140.321
 20
131.273
 30
0.0
 11
158.851
 21
131.273
 31
0.0
  0
LINE
  5
D2
  8
0
 62
     7
 10
159.46600000000001
 20
131.273
 30
0.0
 11
161.821
 21
131.273
 31
0.0
  0
LINE
  5
D3
  8
0
 62
     7
 10
145.703
 20
131.273
 30
0.0
 11
145.703
 21
123.523
 31
0.0
  0
LINE
  5
D4
  8
0
 62
     7
 10
145.53
 20
131.273
 30
0.0
 11
145.53
 21
123.523
 31
0.0
  0
LINE
  5
D5
  8
0
 62
     7
 10
145.321
 20
131.273
 30
0.0
 11
145.321
 21
123.523
 31
0.0
  0
LINE
  5
D6
  8
0
 62
     7
 10
140.321
 20
131.273
 30
0.0
 11
140.321
 21
123.523
 31
0.0
  0
LINE
  5
D7
  8
0
 62
     7
 10
161.821
 20
131.273
 30
0.0
 11
161.821
 21
123.523
 31
0.0
  0
ARC
  5
D8
  8
0
  6
AIGENLINE003
 62
     7
 10
76.802014999999983
 20
127.429002
 30
0.0
 40
0.8442620000000001
 50
272.12705499999998
 51
357.89724799999999
  0
ARC
  5
D9
  8
0
  6
AIGENLINE003
 62
     7
 10
76.833349999999996
 20
127.398025
 30
0.0
 40
0.812703
 50
179.99996999999999
 51
270.00002000000001
  0
ARC
  5
DA
  8
0
  6
AIGENLINE003
 62
     7
 10
76.864012999999986
 20
127.36700399999999
 30
0.0
 40
0.843936
 50
92.082189
 51
177.89348799999999
  0
ARC
  5
DB
  8
0
  6
AIGENLINE003
 62
     7
 10
76.802352999999997
 20
127.367028
 30
0.0
 40
0.8439250000000002
 50
2.104884999999999
 51
87.895105000000001
  0
ARC
  5
DC
  8
0
  6
AIGENLINE003
 62
     7
 10
69.333329000000006
 20
127.398025
 30
0.0
 40
0.812703
 50
270.00002000000001
 51
359.99999000000003
  0
ARC
  5
DD
  8
0
  6
AIGENLINE003
 62
     7
 10
69.333329000000006
 20
127.398025
 30
0.0
 40
0.812703
 50
179.99996999999999
 51
270.00002000000001
  0
ARC
  5
DE
  8
0
  6
AIGENLINE003
 62
     7
 10
69.36399200000001
 20
127.36700399999999
 30
0.0
 40
0.843936
 50
92.082189
 51
177.89348799999999
  0
ARC
  5
DF
  8
0
  6
AIGENLINE003
 62
     7
 10
69.302351999999999
 20
127.36669000000001
 30
0.0
 40
0.8442620000000001
 50
2.127044999999999
 51
87.897238000000002
  0
LINE
  5
E0
  8
0
  6
AIGENLINE001
 62
     7
 10
76.833299999999994
 20
128.85599999999999
 30
0.0
 11
76.833299999999994
 21
126.027
 31
0.0
  0
LINE
  5
E1
  8
0
  6
AIGENLINE001
 62
     7
 10
69.333299999999994
 20
128.85599999999999
 30
0.0
 11
69.333299999999994
 21
126.027
 31
0.0
  0
LINE
  5
E2
  8
0
  6
AIGENLINE001
 62
     7
 10
78.115300000000005
 20
127.398
 30
0.0
 11
75.4178
 21
127.398
 31
0.0
  0
LINE
  5
E3
  8
0
  6
AIGENLINE001
 62
     7
 10
70.6755
 20
127.398
 30
0.0
 11
67.978000000000009
 21
127.398
 31
0.0
  0
ARC
  5
E4
  8
0
 62
     7
 10
71.225011999999992
 20
127.525862
 30
0.0
 40
3.7468859999999991
 50
90.02058000000001
 51
104.575051
  0
LINE
  5
E5
  8
0
 62
     7
 10
73.083299999999994
 20
131.273
 30
0.0
 11
71.223699999999994
 21
131.273
 31
0.0
  0
ARC
  5
E6
  8
0
 62
     7
 10
71.225011999999992
 20
127.269499
 30
0.0
 40
3.7468859999999991
 50
255.42494900000011
 51
269.97942
  0
LINE
  5
E7
  8
0
 62
     7
 10
36.333199999999998
 20
130.898
 30
0.0
 11
36.333199999999998
 21
123.89700000000001
 31
0.0
  0
ARC
  5
E8
  8
0
 62
     7
 10
36.592672
 20
123.907115
 30
0.0
 40
0.259612
 50
182.13556199999999
 51
267.943442
  0
ARC
  5
E9
  8
0
 62
     7
 10
36.583356000000002
 20
130.89757499999999
 30
0.0
 40
0.250116
 50
90.0
 51
179.99996999999999
  0
ARC
  5
EA
  8
0
 62
     7
 10
37.476702000000003
 20
136.44367
 30
0.0
 40
1.1532260000000001
 50
247.88305099999999
 51
269.99864000000002
  0
ARC
  5
EB
  8
0
 62
     7
 10
37.338174000000002
 20
136.074524
 30
0.0
 40
0.759162
 50
231.91680700000001
 51
247.079374
  0
ARC
  5
EC
  8
0
 62
     7
 10
37.151195000000001
 20
135.82979800000001
 30
0.0
 40
0.45122
 50
211.14821800000001
 51
231.43759299999999
  0
ARC
  5
ED
  8
0
 62
     7
 10
37.009782000000001
 20
135.73809
 30
0.0
 40
0.282809
 50
181.00254799999999
 51
210.06618399999999
  0
ARC
  5
EE
  8
0
 62
     7
 10
37.476702000000003
 20
136.61523600000001
 30
0.0
 40
1.1532260000000001
 50
247.88305099999999
 51
269.99864000000002
  0
ARC
  5
EF
  8
0
 62
     7
 10
37.338174000000002
 20
136.24609100000001
 30
0.0
 40
0.759162
 50
231.91680700000001
 51
247.079374
  0
ARC
  5
F0
  8
0
 62
     7
 10
37.151195000000001
 20
136.00136499999999
 30
0.0
 40
0.45122
 50
211.14821800000001
 51
231.43759299999999
  0
ARC
  5
F1
  8
0
 62
     7
 10
37.009782000000001
 20
135.90965700000001
 30
0.0
 40
0.282809
 50
181.00254799999999
 51
210.06618399999999
  0
ARC
  5
F2
  8
0
 62
     7
 10
67.001992999999999
 20
136.44305399999999
 30
0.0
 40
1.1526099999999999
 50
270.001284
 51
292.122951
  0
ARC
  5
F3
  8
0
 62
     7
 10
67.140433000000002
 20
136.073973
 30
0.0
 40
0.758641
 50
292.93458700000002
 51
308.10054700000001
  0
ARC
  5
F4
  8
0
 62
     7
 10
67.327297000000002
 20
135.829497
 30
0.0
 40
0.45097
 50
308.583732
 51
328.87716599999999
  0
ARC
  5
F5
  8
0
 62
     7
 10
67.468498999999994
 20
135.73805100000001
 30
0.0
 40
0.282875
 50
329.950783
 51
359.005651
  0
ARC
  5
F6
  8
0
 62
     7
 10
67.001992999999999
 20
136.614621
 30
0.0
 40
1.1526099999999999
 50
270.001284
 51
292.122951
  0
ARC
  5
F7
  8
0
 62
     7
 10
67.140433000000002
 20
136.24553900000001
 30
0.0
 40
0.758641
 50
292.93458700000002
 51
308.10054700000001
  0
ARC
  5
F8
  8
0
 62
     7
 10
67.327297000000002
 20
136.00106400000001
 30
0.0
 40
0.45097
 50
308.583732
 51
328.87716599999999
  0
ARC
  5
F9
  8
0
 62
     7
 10
67.468498999999994
 20
135.909617
 30
0.0
 40
0.282875
 50
329.950783
 51
359.005651
  0
LINE
  5
FA
  8
0
 62
     7
 10
67.001999999999995
 20
135.46199999999999
 30
0.0
 11
37.476700000000001
 21
135.46199999999999
 31
0.0
  0
LINE
  5
FB
  8
0
 62
     7
 10
67.001999999999995
 20
135.28999999999999
 30
0.0
 11
37.476700000000001
 21
135.28999999999999
 31
0.0
  0
LINE
  5
FC
  8
0
 62
     7
 10
36.726999999999997
 20
140.03999999999999
 30
0.0
 11
36.726999999999997
 21
131.148
 31
0.0
  0
LINE
  5
FD
  8
0
 62
     7
 10
67.751300000000001
 20
140.03999999999999
 30
0.0
 11
67.751300000000001
 21
131.148
 31
0.0
  0
LINE
  5
FE
  8
0
 62
     7
 10
36.726999999999997
 20
140.03999999999999
 30
0.0
 11
67.751300000000001
 21
140.03999999999999
 31
0.0
  0
LINE
  5
FF
  8
0
  6
AIGENLINE002
 62
     7
 10
38.750700000000002
 20
112.041
 30
0.0
 11
38.750700000000002
 21
139.541
 31
0.0
  0
LINE
  5
100
  8
0
  6
AIGENLINE002
 62
     7
 10
64.083299999999994
 20
112.041
 30
0.0
 11
64.083299999999994
 21
139.541
 31
0.0
  0
LINE
  5
101
  8
0
  6
AIGENLINE002
 62
     7
 10
64.083299999999994
 20
139.541
 30
0.0
 11
38.750700000000002
 21
139.541
 31
0.0
  0
LINE
  5
102
  8
0
  6
AIGENLINE002
 62
     7
 10
64.083299999999994
 20
112.041
 30
0.0
 11
38.750700000000002
 21
112.041
 31
0.0
  0
LINE
  5
103
  8
0
 62
     7
 10
73.083299999999994
 20
123.648
 30
0.0
 11
36.583399999999997
 21
123.648
 31
0.0
  0
LINE
  5
104
  8
0
 62
     7
 10
73.083299999999994
 20
131.148
 30
0.0
 11
36.583399999999997
 21
131.148
 31
0.0
  0
LINE
  5
105
  8
0
 62
     7
 10
73.083299999999994
 20
123.523
 30
0.0
 11
71.223699999999994
 21
123.523
 31
0.0
  0
ARC
  5
106
  8
0
 62
     7
 10
74.94166899999999
 20
127.52317600000001
 30
0.0
 40
3.7495720000000001
 50
75.430177999999998
 51
89.979431999999989
  0
LINE
  5
107
  8
0
 62
     7
 10
73.083299999999994
 20
131.273
 30
0.0
 11
74.942999999999984
 21
131.273
 31
0.0
  0
ARC
  5
108
  8
0
 62
     7
 10
74.94166899999999
 20
127.272184
 30
0.0
 40
3.7495720000000001
 50
270.02056800000008
 51
284.56982199999999
  0
LINE
  5
109
  8
0
 62
     7
 10
109.834
 20
130.898
 30
0.0
 11
109.834
 21
123.89700000000001
 31
0.0
  0
ARC
  5
10A
  8
0
 62
     7
 10
109.574352
 20
123.907115
 30
0.0
 40
0.259612
 50
272.056578
 51
357.86445700000002
  0
ARC
  5
10B
  8
0
 62
     7
 10
109.574003
 20
130.88791000000001
 30
0.0
 40
0.25996
 50
2.1307099999999992
 51
87.869280000000003
  0
ARC
  5
10C
  8
0
 62
     7
 10
108.69032900000001
 20
136.443028
 30
0.0
 40
1.1525840000000001
 50
270.00103200000001
 51
292.12320299999999
  0
ARC
  5
10D
  8
0
 62
     7
 10
108.82888699999999
 20
136.07378800000001
 30
0.0
 40
0.758424
 50
292.93143900000001
 51
308.10212999999999
  0
ARC
  5
10E
  8
0
 62
     7
 10
109.015416
 20
135.82968700000001
 30
0.0
 40
0.451253
 50
308.59017699999998
 51
328.870721
  0
ARC
  5
10F
  8
0
 62
     7
 10
109.156487
 20
135.738136
 30
0.0
 40
0.283219
 50
329.97106700000001
 51
358.98955599999999
  0
ARC
  5
110
  8
0
 62
     7
 10
108.69032900000001
 20
136.61459500000001
 30
0.0
 40
1.1525840000000001
 50
270.00103200000001
 51
292.12320299999999
  0
ARC
  5
111
  8
0
 62
     7
 10
108.82888699999999
 20
136.24535499999999
 30
0.0
 40
0.758424
 50
292.93143900000001
 51
308.10212999999999
  0
ARC
  5
112
  8
0
 62
     7
 10
109.015416
 20
136.00125399999999
 30
0.0
 40
0.451253
 50
308.59017699999998
 51
328.870721
  0
ARC
  5
113
  8
0
 62
     7
 10
109.156487
 20
135.90970300000001
 30
0.0
 40
0.283219
 50
329.97106700000001
 51
358.98955599999999
  0
ARC
  5
114
  8
0
 62
     7
 10
79.165032999999994
 20
136.44369800000001
 30
0.0
 40
1.153254
 50
247.88332299999999
 51
269.99863599999998
  0
ARC
  5
115
  8
0
 62
     7
 10
79.026678000000004
 20
136.074827
 30
0.0
 40
0.7595100000000001
 50
231.92030399999999
 51
247.07587599999999
  0
ARC
  5
116
  8
0
 62
     7
 10
78.839668000000003
 20
135.82991000000001
 30
0.0
 40
0.451399
 50
211.151061
 51
231.43183500000001
  0
ARC
  5
117
  8
0
 62
     7
 10
78.698113000000006
 20
135.73809
 30
0.0
 40
0.282809
 50
181.00254799999999
 51
210.06618399999999
  0
ARC
  5
118
  8
0
 62
     7
 10
79.165032999999994
 20
136.615264
 30
0.0
 40
1.153254
 50
247.88332299999999
 51
269.99863599999998
  0
ARC
  5
119
  8
0
 62
     7
 10
79.026678000000004
 20
136.24639300000001
 30
0.0
 40
0.7595100000000001
 50
231.92030399999999
 51
247.07587599999999
  0
ARC
  5
11A
  8
0
 62
     7
 10
78.839668000000003
 20
136.00147699999999
 30
0.0
 40
0.451399
 50
211.151061
 51
231.43183500000001
  0
ARC
  5
11B
  8
0
 62
     7
 10
78.698113000000006
 20
135.90965700000001
 30
0.0
 40
0.282809
 50
181.00254799999999
 51
210.06618399999999
  0
LINE
  5
11C
  8
0
 62
     7
 10
79.165000000000006
 20
135.46199999999999
 30
0.0
 11
108.69
 21
135.46199999999999
 31
0.0
  0
LINE
  5
11D
  8
0
 62
     7
 10
79.165000000000006
 20
135.28999999999999
 30
0.0
 11
108.69
 21
135.28999999999999
 31
0.0
  0
LINE
  5
11E
  8
0
 62
     7
 10
109.44
 20
140.03999999999999
 30
0.0
 11
109.44
 21
131.148
 31
0.0
  0
LINE
  5
11F
  8
0
 62
     7
 10
78.415300000000002
 20
140.03999999999999
 30
0.0
 11
78.415300000000002
 21
131.148
 31
0.0
  0
LINE
  5
120
  8
0
 62
     7
 10
109.44
 20
140.03999999999999
 30
0.0
 11
78.415300000000002
 21
140.03999999999999
 31
0.0
  0
LINE
  5
121
  8
0
  6
AIGENLINE002
 62
     7
 10
107.416
 20
112.041
 30
0.0
 11
107.416
 21
139.541
 31
0.0
  0
LINE
  5
122
  8
0
  6
AIGENLINE002
 62
     7
 10
82.083399999999983
 20
112.041
 30
0.0
 11
82.083399999999983
 21
139.541
 31
0.0
  0
LINE
  5
123
  8
0
  6
AIGENLINE002
 62
     7
 10
82.083399999999983
 20
139.541
 30
0.0
 11
107.416
 21
139.541
 31
0.0
  0
LINE
  5
124
  8
0
  6
AIGENLINE002
 62
     7
 10
82.083399999999983
 20
112.041
 30
0.0
 11
107.416
 21
112.041
 31
0.0
  0
LINE
  5
125
  8
0
 62
     7
 10
73.083299999999994
 20
123.648
 30
0.0
 11
109.584
 21
123.648
 31
0.0
  0
LINE
  5
126
  8
0
 62
     7
 10
73.083299999999994
 20
131.148
 30
0.0
 11
109.584
 21
131.148
 31
0.0
  0
ARC
  5
127
  8
0
 62
     7
 10
53.449713000000003
 20
207.91150300000001
 30
0.0
 40
0.371545
 50
142.646243
 51
201.95158900000001
  0
ARC
  5
128
  8
0
 62
     7
 10
53.446156000000002
 20
207.90750199999999
 30
0.0
 40
0.371184
 50
128.17773
 51
141.82223999999999
  0
ARC
  5
129
  8
0
 62
     7
 10
54.293466000000002
 20
207.05260799999999
 30
0.0
 40
1.5729729999999991
 50
133.19826499999999
 51
152.75903
  0
LINE
  5
12A
  8
0
 62
     7
 10
54.332599999999999
 20
208.19900000000001
 30
0.0
 11
54.448
 21
208.066
 31
0.0
  0
LINE
  5
12B
  8
0
  6
AIGENLINE002
 62
     7
 10
38.750700000000002
 20
175.02000000000001
 30
0.0
 11
38.750700000000002
 21
202.52000000000001
 31
0.0
  0
LINE
  5
12C
  8
0
  6
AIGENLINE002
 62
     7
 10
64.083299999999994
 20
175.02000000000001
 30
0.0
 11
64.083299999999994
 21
202.52000000000001
 31
0.0
  0
LINE
  5
12D
  8
0
  6
AIGENLINE002
 62
     7
 10
64.083299999999994
 20
202.52000000000001
 30
0.0
 11
38.750700000000002
 21
202.52000000000001
 31
0.0
  0
LINE
  5
12E
  8
0
  6
AIGENLINE002
 62
     7
 10
64.083299999999994
 20
175.02000000000001
 30
0.0
 11
38.750700000000002
 21
175.02000000000001
 31
0.0
  0
ARC
  5
12F
  8
0
 62
     7
 10
37.475155999999998
 20
204.712582
 30
0.0
 40
3.0600290000000001
 50
89.971553000000014
 51
96.288131000000021
  0
ARC
  5
130
  8
0
 62
     7
 10
37.270552000000009
 20
206.654729
 30
0.0
 40
1.107195999999999
 50
96.771850999999998
 51
109.154246
  0
ARC
  5
131
  8
0
 62
     7
 10
37.042028999999999
 20
207.334745
 30
0.0
 40
0.389913
 50
110.219734
 51
131.39920000000001
  0
ARC
  5
132
  8
0
 62
     7
 10
36.912534999999998
 20
207.49327400000001
 30
0.0
 40
0.185522
 50
133.777558
 51
179.59361799999999
  0
ARC
  5
133
  8
0
 62
     7
 10
53.700133999999998
 20
210.66723200000001
 30
0.0
 40
2.894620999999999
 50
269.96477099999998
 51
276.641052
  0
ARC
  5
134
  8
0
 62
     7
 10
53.883122
 20
209.03345899999999
 30
0.0
 40
1.250669
 50
276.97015900000002
 51
288.98411900000002
  0
ARC
  5
135
  8
0
 62
     7
 10
54.156092000000001
 20
208.22737599999999
 30
0.0
 40
0.399652
 50
289.57194199999998
 51
310.78126500000002
  0
ARC
  5
136
  8
0
 62
     7
 10
54.349848999999992
 20
207.997241
 30
0.0
 40
0.098901
 50
312.86947300000003
 51
352.99212899999998
  0
LINE
  5
137
  8
0
 62
     7
 10
54.448
 20
207.98500000000001
 30
0.0
 11
54.448
 21
208.19399999999999
 31
0.0
  0
LINE
  5
138
  8
0
 62
     7
 10
36.726999999999997
 20
207.495
 30
0.0
 11
36.726999999999997
 21
177.16200000000001
 31
0.0
  0
LINE
  5
139
  8
0
 62
     7
 10
37.476700000000001
 20
207.773
 30
0.0
 11
53.698399999999992
 21
207.773
 31
0.0
  0
LINE
  5
13A
  8
0
 62
     7
 10
67.227000000000004
 20
208.19399999999999
 30
0.0
 11
67.227000000000004
 21
177.16200000000001
 31
0.0
  0
ARC
  5
13B
  8
0
 62
     7
 10
66.757112000000006
 20
177.28270800000001
 30
0.0
 40
0.4852020000000001
 50
338.50899299999998
 51
345.55937599999999
  0
ARC
  5
13C
  8
0
 62
     7
 10
67.074113999999994
 20
177.16593700000001
 30
0.0
 40
0.14765
 50
318.44910700000003
 51
335.604153
  0
ARC
  5
13D
  8
0
 62
     7
 10
67.055188000000001
 20
177.16936299999989
 30
0.0
 40
0.164389
 50
309.65516200000002
 51
321.93284899999998
  0
ARC
  5
13E
  8
0
 62
     7
 10
66.883718000000002
 20
177.37880200000001
 30
0.0
 40
0.435065
 50
294.33516700000001
 51
309.43889799999999
  0
ARC
  5
13F
  8
0
 62
     7
 10
66.682484000000002
 20
177.86260300000001
 30
0.0
 40
0.958938
 50
281.61695600000002
 51
293.37874099999999
  0
ARC
  5
140
  8
0
 62
     7
 10
66.588663999999994
 20
178.060622
 30
0.0
 40
1.172947999999999
 50
272.572767
 51
284.15902299999999
  0
ARC
  5
141
  8
0
 62
     7
 10
66.503132999999991
 20
178.22396599999999
 30
0.0
 40
1.342241
 50
268.91308500000002
 51
275.90899400000001
  0
LINE
  5
142
  8
0
 62
     7
 10
37.476700000000001
 20
176.88200000000001
 30
0.0
 11
66.477699999999999
 21
176.88200000000001
 31
0.0
  0
ARC
  5
143
  8
0
 62
     7
 10
37.621196000000012
 20
181.31968599999999
 30
0.0
 40
4.4400719999999989
 50
264.90971200000013
 51
268.13473599999998
  0
ARC
  5
144
  8
0
 62
     7
 10
37.353153000000013
 20
178.12616299999999
 30
0.0
 40
1.2354689999999999
 50
253.78412700000001
 51
264.15094900000003
  0
ARC
  5
145
  8
0
 62
     7
 10
37.343132000000011
 20
178.04166900000001
 30
0.0
 40
1.1516239999999991
 50
248.499289
 51
253.08888400000001
  0
ARC
  5
146
  8
0
 62
     7
 10
37.114874999999998
 20
177.45846800000001
 30
0.0
 40
0.525348
 50
238.58560900000001
 51
248.34910400000001
  0
ARC
  5
147
  8
0
 62
     7
 10
36.989719000000001
 20
177.268959
 30
0.0
 40
0.298492
 50
214.90710300000001
 51
240.12785299999999
  0
ARC
  5
148
  8
0
 62
     7
 10
36.843175000000009
 20
177.15183099999999
 30
0.0
 40
0.111954
 50
193.38570799999999
 51
208.653616
  0
ARC
  5
149
  8
0
 62
     7
 10
37.572954000000003
 20
177.314301
 30
0.0
 40
0.8595889999999998
 50
190.22513900000001
 51
192.6597449999999
  0
LINE
  5
14A
  8
0
 62
     7
 10
54.448
 20
208.19399999999999
 30
0.0
 11
67.227000000000004
 21
208.19399999999999
 31
0.0
  0
ARC
  5
14B
  8
0
 62
     7
 10
36.593538000000002
 20
187.55044599999999
 30
0.0
 40
0.260953
 50
182.79662500000001
 51
267.915144
  0
LINE
  5
14C
  8
0
 62
     7
 10
36.584000000000003
 20
187.28999999999999
 30
0.0
 11
36.72740000000001
 21
187.28999999999999
 31
0.0
  0
LINE
  5
14D
  8
0
  6
AIGENLINE003
 62
     7
 10
64.063999999999993
 20
189.78899999999999
 30
0.0
 11
37.406700000000001
 21
189.78899999999999
 31
0.0
  0
LINE
  5
14E
  8
0
  6
AIGENLINE003
 62
     7
 10
37.406700000000001
 20
189.78899999999999
 30
0.0
 11
37.406700000000001
 21
189.78700000000001
 31
0.0
  0
ARC
  5
14F
  8
0
  6
AIGENLINE003
 62
     7
 10
37.590522999999997
 20
189.93570399999999
 30
0.0
 40
0.236498
 50
179.670007
 51
219.00371200000001
  0
LINE
  5
150
  8
0
  6
AIGENLINE003
 62
     7
 10
37.353999999999999
 20
189.93700000000001
 30
0.0
 11
37.353999999999999
 21
192.042
 31
0.0
  0
ARC
  5
151
  8
0
  6
AIGENLINE003
 62
     7
 10
37.094405999999999
 20
192.03005400000001
 30
0.0
 40
0.2598829999999999
 50
2.5658110000000001
 51
87.75160600000001
  0
LINE
  5
152
  8
0
  6
AIGENLINE003
 62
     7
 10
37.104599999999998
 20
192.28999999999999
 30
0.0
 11
36.726999999999997
 21
192.28999999999999
 31
0.0
  0
LINE
  5
153
  8
0
 62
     7
 10
36.332900000000009
 20
192.03899999999999
 30
0.0
 11
36.332900000000009
 21
187.53800000000001
 31
0.0
  0
ARC
  5
154
  8
0
 62
     7
 10
36.590958000000001
 20
192.03176999999999
 30
0.0
 40
0.258161
 50
92.222916000000012
 51
178.41014999999999
  0
LINE
  5
155
  8
0
 62
     7
 10
36.726999999999997
 20
192.28999999999999
 30
0.0
 11
36.582299999999996
 21
192.28999999999999
 31
0.0
  0
LINE
  5
156
  8
0
  6
AIGENLINE003
 62
     7
 10
64.063999999999993
 20
187.28899999999999
 30
0.0
 11
67.227000000000004
 21
187.392
 31
0.0
  0
ARC
  5
157
  8
0
  6
AIGENLINE003
 62
     7
 10
64.942109000000002
 20
201.36485400000001
 30
0.0
 40
11.575801999999999
 50
270.47101500000002
 51
280.17082199999999
  0
ARC
  5
158
  8
0
  6
AIGENLINE003
 62
     7
 10
65.713056000000009
 20
196.616198
 30
0.0
 40
6.766100999999999
 50
280.84575699999999
 51
282.92951099999999
  0
ARC
  5
159
  8
0
  6
AIGENLINE003
 62
     7
 10
64.329695999999984
 20
191.68239800000001
 30
0.0
 40
1.8929590000000001
 50
270.11305199999998
 51
279.29438900000002
  0
ARC
  5
15A
  8
0
  6
AIGENLINE003
 62
     7
 10
64.120265000000003
 20
193.22992300000001
 30
0.0
 40
3.4542619999999999
 50
278.576908
 51
285.87842499999999
  0
ARC
  5
15B
  8
0
  6
AIGENLINE003
 62
     7
 10
63.806319999999992
 20
194.41884099999999
 30
0.0
 40
4.683768999999999
 50
285.59317600000003
 51
306.91549199999997
  0
ARC
  5
15C
  8
0
  6
AIGENLINE003
 62
     7
 10
64.810001
 20
193.00839400000001
 30
0.0
 40
2.9535759999999991
 50
307.78266100000002
 51
324.91741999999999
  0
LINE
  5
15D
  8
0
  6
AIGENLINE003
 62
     7
 10
64.333399999999997
 20
187.28899999999999
 30
0.0
 11
64.333399999999997
 21
189.78899999999999
 31
0.0
  0
LINE
  5
15E
  8
0
  6
AIGENLINE003
 62
     7
 10
64.063999999999993
 20
189.78899999999999
 30
0.0
 11
65.037300000000002
 21
189.78899999999999
 31
0.0
  0
LINE
  5
15F
  8
0
  6
AIGENLINE003
 62
     7
 10
36.72740000000001
 20
187.28999999999999
 30
0.0
 11
64.063999999999993
 21
187.28999999999999
 31
0.0
  0
LINE
  5
160
  8
0
 62
     7
 10
53.21670000000001
 20
208.19900000000001
 30
0.0
 11
54.332599999999999
 21
208.19900000000001
 31
0.0
  0
LINE
  5
161
  8
0
 62
     7
 10
54.332599999999999
 20
208.19900000000001
 30
0.0
 11
54.332599999999999
 21
207.869
 31
0.0
  0
LINE
  5
162
  8
0
 62
     7
 10
67.227000000000004
 20
208.16999999999999
 30
0.0
 11
67.463700000000003
 21
208.16999999999999
 31
0.0
  0
ARC
  5
163
  8
0
 62
     7
 10
92.715791000000024
 20
207.91134400000001
 30
0.0
 40
0.372577
 50
338.13870700000001
 51
37.263461
  0
ARC
  5
164
  8
0
 62
     7
 10
92.720523
 20
207.90750199999999
 30
0.0
 40
0.371184
 50
38.17774
 51
51.82224999999999
  0
ARC
  5
165
  8
0
 62
     7
 10
91.885557999999989
 20
207.06079800000001
 30
0.0
 40
1.5585560000000001
 50
27.17518500000001
 51
46.92643799999999
  0
LINE
  5
166
  8
0
 62
     7
 10
91.834400000000002
 20
208.19900000000001
 30
0.0
 11
91.718699999999998
 21
208.066
 31
0.0
  0
LINE
  5
167
  8
0
  6
AIGENLINE002
 62
     7
 10
107.416
 20
175.02000000000001
 30
0.0
 11
107.416
 21
202.52000000000001
 31
0.0
  0
LINE
  5
168
  8
0
  6
AIGENLINE002
 62
     7
 10
82.083399999999983
 20
175.02000000000001
 30
0.0
 11
82.083399999999983
 21
202.52000000000001
 31
0.0
  0
LINE
  5
169
  8
0
  6
AIGENLINE002
 62
     7
 10
82.083399999999983
 20
202.52000000000001
 30
0.0
 11
107.416
 21
202.52000000000001
 31
0.0
  0
LINE
  5
16A
  8
0
  6
AIGENLINE002
 62
     7
 10
82.083399999999983
 20
175.02000000000001
 30
0.0
 11
107.416
 21
175.02000000000001
 31
0.0
  0
ARC
  5
16B
  8
0
 62
     7
 10
108.691874
 20
204.716116
 30
0.0
 40
3.0564949999999991
 50
83.708209999999994
 51
90.028568000000007
  0
ARC
  5
16C
  8
0
 62
     7
 10
108.896338
 20
206.65569600000001
 30
0.0
 40
1.1062289999999999
 50
70.837241000000006
 51
83.225029000000006
  0
ARC
  5
16D
  8
0
 62
     7
 10
109.124669
 20
207.334847
 30
0.0
 40
0.389828
 50
48.592396999999991
 51
69.770989
  0
ARC
  5
16E
  8
0
 62
     7
 10
109.254166
 20
207.49328800000001
 30
0.0
 40
0.185501
 50
0.4020130000000001
 51
46.222850000000001
  0
ARC
  5
16F
  8
0
 62
     7
 10
92.466540000000009
 20
210.66705300000001
 30
0.0
 40
2.894442999999999
 50
263.35876300000001
 51
270.035348
  0
ARC
  5
170
  8
0
 62
     7
 10
92.283467000000016
 20
209.03304399999999
 30
0.0
 40
1.2502459999999991
 50
251.01385999999999
 51
263.031901
  0
ARC
  5
171
  8
0
 62
     7
 10
92.010462999999987
 20
208.227172
 30
0.0
 40
0.399417
 50
229.213143
 51
250.43579600000001
  0
ARC
  5
172
  8
0
 62
     7
 10
91.81683000000001
 20
207.997241
 30
0.0
 40
0.098901
 50
187.007891
 51
227.13054700000001
  0
LINE
  5
173
  8
0
 62
     7
 10
91.718699999999998
 20
207.98500000000001
 30
0.0
 11
91.718699999999998
 21
208.19399999999999
 31
0.0
  0
LINE
  5
174
  8
0
 62
     7
 10
109.44
 20
207.495
 30
0.0
 11
109.44
 21
177.16200000000001
 31
0.0
  0
LINE
  5
175
  8
0
 62
     7
 10
108.69
 20
207.773
 30
0.0
 11
92.468299999999999
 21
207.773
 31
0.0
  0
LINE
  5
176
  8
0
 62
     7
 10
78.939700000000002
 20
208.19399999999999
 30
0.0
 11
78.939700000000002
 21
177.16200000000001
 31
0.0
  0
ARC
  5
177
  8
0
 62
     7
 10
79.407200000000003
 20
177.28209100000001
 30
0.0
 40
0.482756
 50
194.43969899999999
 51
201.433178
  0
ARC
  5
178
  8
0
 62
     7
 10
79.091814999999997
 20
177.16623999999999
 30
0.0
 40
0.147034
 50
204.320975
 51
221.922213
  0
ARC
  5
179
  8
0
 62
     7
 10
79.113341000000005
 20
177.170422
 30
0.0
 40
0.166227
 50
218.034638
 51
230.530812
  0
ARC
  5
17A
  8
0
 62
     7
 10
79.284379000000001
 20
177.379976
 30
0.0
 40
0.436721
 50
230.68434400000001
 51
245.55880500000001
  0
ARC
  5
17B
  8
0
 62
     7
 10
79.486011000000005
 20
177.86836
 30
0.0
 40
0.964943
 50
246.658007
 51
258.34633600000001
  0
ARC
  5
17C
  8
0
 62
     7
 10
79.582564000000005
 20
178.09155200000001
 30
0.0
 40
1.204054
 50
255.99115399999999
 51
267.27709499999997
  0
ARC
  5
17D
  8
0
 62
     7
 10
79.674042
 20
178.47249600000001
 30
0.0
 40
1.5906029999999991
 50
264.63658800000002
 51
270.551491
  0
LINE
  5
17E
  8
0
 62
     7
 10
108.69
 20
176.88200000000001
 30
0.0
 11
79.689400000000006
 21
176.88200000000001
 31
0.0
  0
ARC
  5
17F
  8
0
 62
     7
 10
108.544715
 20
181.329013
 30
0.0
 40
4.4494300000000004
 50
271.87568900000002
 51
275.08949899999999
  0
ARC
  5
180
  8
0
 62
     7
 10
108.81429799999999
 20
178.122207
 30
0.0
 40
1.231455999999999
 50
275.83213000000001
 51
286.23283400000003
  0
ARC
  5
181
  8
0
 62
     7
 10
108.831137
 20
178.02033800000001
 30
0.0
 40
1.129008
 50
286.85747500000002
 51
291.68898799999999
  0
ARC
  5
182
  8
0
 62
     7
 10
109.06017199999999
 20
177.44153299999999
 30
0.0
 40
0.506537
 50
291.81210499999997
 51
301.6051270000001
  0
ARC
  5
183
  8
0
 62
     7
 10
109.17772100000001
 20
177.26908399999999
 30
0.0
 40
0.298222
 50
299.73346199999997
 51
325.02745099999999
  0
ARC
  5
184
  8
0
 62
     7
 10
109.320708
 20
177.15197000000001
 30
0.0
 40
0.114784
 50
332.037397
 51
347.13303300000001
  0
ARC
  5
185
  8
0
 62
     7
 10
108.27243799999999
 20
177.37651500000001
 30
0.0
 40
1.186825
 50
347.834521
 51
349.57249999999999
  0
LINE
  5
186
  8
0
 62
     7
 10
91.718699999999998
 20
208.19399999999999
 30
0.0
 11
78.939700000000002
 21
208.19399999999999
 31
0.0
  0
ARC
  5
187
  8
0
 62
     7
 10
109.573477
 20
187.550093
 30
0.0
 40
0.260601
 50
272.08961199999999
 51
357.27730200000002
  0
LINE
  5
188
  8
0
 62
     7
 10
109.583
 20
187.28999999999999
 30
0.0
 11
109.43899999999999
 21
187.28999999999999
 31
0.0
  0
LINE
  5
189
  8
0
  6
AIGENLINE003
 62
     7
 10
82.102699999999984
 20
189.78899999999999
 30
0.0
 11
108.76000000000001
 21
189.78899999999999
 31
0.0
  0
LINE
  5
18A
  8
0
  6
AIGENLINE003
 62
     7
 10
108.76000000000001
 20
189.78899999999999
 30
0.0
 11
108.76000000000001
 21
189.78700000000001
 31
0.0
  0
ARC
  5
18B
  8
0
  6
AIGENLINE003
 62
     7
 10
108.573984
 20
189.93603999999999
 30
0.0
 40
0.238669
 50
321.31397399999997
 51
0.246483
  0
LINE
  5
18C
  8
0
  6
AIGENLINE003
 62
     7
 10
108.813
 20
189.93700000000001
 30
0.0
 11
108.813
 21
192.042
 31
0.0
  0
ARC
  5
18D
  8
0
  6
AIGENLINE003
 62
     7
 10
109.07266799999999
 20
192.02965699999999
 30
0.0
 40
0.260295
 50
92.331810000000004
 51
177.35073299999999
  0
LINE
  5
18E
  8
0
  6
AIGENLINE003
 62
     7
 10
109.062
 20
192.28999999999999
 30
0.0
 11
109.44
 21
192.28999999999999
 31
0.0
  0
LINE
  5
18F
  8
0
 62
     7
 10
109.834
 20
192.03899999999999
 30
0.0
 11
109.834
 21
187.53800000000001
 31
0.0
  0
ARC
  5
190
  8
0
 62
     7
 10
109.575722
 20
192.03176999999999
 30
0.0
 40
0.258161
 50
1.5898469999999989
 51
87.777046999999996
  0
LINE
  5
191
  8
0
 62
     7
 10
109.44
 20
192.28999999999999
 30
0.0
 11
109.584
 21
192.28999999999999
 31
0.0
  0
LINE
  5
192
  8
0
  6
AIGENLINE003
 62
     7
 10
82.102699999999984
 20
187.28899999999999
 30
0.0
 11
78.939700000000002
 21
187.392
 31
0.0
  0
ARC
  5
193
  8
0
  6
AIGENLINE003
 62
     7
 10
81.128062999999997
 20
195.622297
 30
0.0
 40
5.8328550000000003
 50
268.06161800000001
 51
270.01663300000013
  0
ARC
  5
194
  8
0
  6
AIGENLINE003
 62
     7
 10
81.270753999999997
 20
201.97703100000001
 30
0.0
 40
12.188993999999999
 50
260.93568500000009
 51
268.401659
  0
ARC
  5
195
  8
0
  6
AIGENLINE003
 62
     7
 10
80.566101000000003
 20
197.15260799999999
 30
0.0
 40
7.3140850000000004
 50
257.151951
 51
260.43274100000002
  0
ARC
  5
196
  8
0
  6
AIGENLINE003
 62
     7
 10
81.836982999999989
 20
191.68239800000001
 30
0.0
 40
1.8929590000000001
 50
260.70563099999998
 51
269.88696800000002
  0
ARC
  5
197
  8
0
  6
AIGENLINE003
 62
     7
 10
82.046413999999984
 20
193.22992300000001
 30
0.0
 40
3.4542619999999999
 50
254.1215950000001
 51
261.423112
  0
ARC
  5
198
  8
0
  6
AIGENLINE003
 62
     7
 10
82.360359000000003
 20
194.41884099999999
 30
0.0
 40
4.683768999999999
 50
233.08452800000001
 51
254.40684400000001
  0
ARC
  5
199
  8
0
  6
AIGENLINE003
 62
     7
 10
81.356678000000002
 20
193.00839400000001
 30
0.0
 40
2.9535759999999991
 50
215.08260000000001
 51
232.21735899999999
  0
LINE
  5
19A
  8
0
  6
AIGENLINE003
 62
     7
 10
81.833200000000005
 20
187.28899999999999
 30
0.0
 11
81.833200000000005
 21
189.78899999999999
 31
0.0
  0
LINE
  5
19B
  8
0
  6
AIGENLINE003
 62
     7
 10
82.102699999999984
 20
189.78899999999999
 30
0.0
 11
81.129800000000003
 21
189.78899999999999
 31
0.0
  0
LINE
  5
19C
  8
0
  6
AIGENLINE003
 62
     7
 10
109.43899999999999
 20
187.28999999999999
 30
0.0
 11
82.102699999999984
 21
187.28999999999999
 31
0.0
  0
LINE
  5
19D
  8
0
 62
     7
 10
76.459900000000005
 20
218.179
 30
0.0
 11
77.178899999999999
 21
218.47800000000001
 31
0.0
  0
LINE
  5
19E
  8
0
 62
     7
 10
76.333500000000001
 20
217.583
 30
0.0
 11
77.333600000000004
 21
217.999
 31
0.0
  0
LINE
  5
19F
  8
0
 62
     7
 10
76.333500000000001
 20
217.03899999999999
 30
0.0
 11
77.333600000000004
 21
217.45500000000001
 31
0.0
  0
LINE
  5
1A0
  8
0
 62
     7
 10
76.333500000000001
 20
216.49600000000001
 30
0.0
 11
77.333600000000004
 21
216.91200000000001
 31
0.0
  0
LINE
  5
1A1
  8
0
 62
     7
 10
76.333500000000001
 20
215.953
 30
0.0
 11
77.333600000000004
 21
216.369
 31
0.0
  0
LINE
  5
1A2
  8
0
 62
     7
 10
76.333500000000001
 20
215.41
 30
0.0
 11
77.333600000000004
 21
215.82499999999999
 31
0.0
  0
LINE
  5
1A3
  8
0
 62
     7
 10
76.333500000000001
 20
214.86600000000001
 30
0.0
 11
77.333600000000004
 21
215.28200000000001
 31
0.0
  0
LINE
  5
1A4
  8
0
 62
     7
 10
76.333500000000001
 20
214.32300000000001
 30
0.0
 11
77.333600000000004
 21
214.739
 31
0.0
  0
LINE
  5
1A5
  8
0
 62
     7
 10
76.333500000000001
 20
213.78
 30
0.0
 11
77.333600000000004
 21
214.196
 31
0.0
  0
LINE
  5
1A6
  8
0
 62
     7
 10
76.333500000000001
 20
213.23599999999999
 30
0.0
 11
77.333600000000004
 21
213.65199999999999
 31
0.0
  0
LINE
  5
1A7
  8
0
 62
     7
 10
76.333500000000001
 20
212.69300000000001
 30
0.0
 11
77.333600000000004
 21
213.10900000000001
 31
0.0
  0
LINE
  5
1A8
  8
0
 62
     7
 10
76.333500000000001
 20
212.15000000000001
 30
0.0
 11
77.333600000000004
 21
212.566
 31
0.0
  0
LINE
  5
1A9
  8
0
 62
     7
 10
76.333500000000001
 20
211.607
 30
0.0
 11
77.333600000000004
 21
212.02199999999999
 31
0.0
  0
LINE
  5
1AA
  8
0
 62
     7
 10
76.333500000000001
 20
211.06299999999999
 30
0.0
 11
77.333600000000004
 21
211.47900000000001
 31
0.0
  0
LINE
  5
1AB
  8
0
 62
     7
 10
76.333500000000001
 20
210.52000000000001
 30
0.0
 11
77.333600000000004
 21
210.93600000000001
 31
0.0
  0
LINE
  5
1AC
  8
0
 62
     7
 10
76.333500000000001
 20
209.977
 30
0.0
 11
77.333600000000004
 21
210.392
 31
0.0
  0
LINE
  5
1AD
  8
0
 62
     7
 10
76.333500000000001
 20
209.43299999999999
 30
0.0
 11
77.333600000000004
 21
209.84899999999999
 31
0.0
  0
LINE
  5
1AE
  8
0
 62
     7
 10
76.333500000000001
 20
208.88999999999999
 30
0.0
 11
77.333600000000004
 21
209.30600000000001
 31
0.0
  0
LINE
  5
1AF
  8
0
 62
     7
 10
76.833699999999993
 20
218.78999999999999
 30
0.0
 11
76.577399999999997
 21
218.05099999999999
 31
0.0
  0
LINE
  5
1B0
  8
0
 62
     7
 10
76.833699999999993
 20
218.78999999999999
 30
0.0
 11
77.089299999999994
 21
218.05099999999999
 31
0.0
  0
LINE
  5
1B1
  8
0
  6
AIGENLINE001
 62
     7
 10
76.833699999999993
 20
219.285
 30
0.0
 11
76.833699999999993
 21
207.928
 31
0.0
  0
LINE
  5
1B2
  8
0
 62
     7
 10
77.089299999999994
 20
218.05099999999999
 30
0.0
 11
77.089299999999994
 21
208.78999999999999
 31
0.0
  0
LINE
  5
1B3
  8
0
 62
     7
 10
76.577399999999997
 20
218.05099999999999
 30
0.0
 11
76.577399999999997
 21
208.78999999999999
 31
0.0
  0
LINE
  5
1B4
  8
0
 62
     7
 10
68.959900000000005
 20
218.179
 30
0.0
 11
69.6785
 21
218.47800000000001
 31
0.0
  0
LINE
  5
1B5
  8
0
 62
     7
 10
68.833399999999997
 20
217.583
 30
0.0
 11
69.833200000000005
 21
217.999
 31
0.0
  0
LINE
  5
1B6
  8
0
 62
     7
 10
68.833399999999997
 20
217.03899999999999
 30
0.0
 11
69.833200000000005
 21
217.45500000000001
 31
0.0
  0
LINE
  5
1B7
  8
0
 62
     7
 10
68.833399999999997
 20
216.49600000000001
 30
0.0
 11
69.833200000000005
 21
216.91200000000001
 31
0.0
  0
LINE
  5
1B8
  8
0
 62
     7
 10
68.833399999999997
 20
215.953
 30
0.0
 11
69.833200000000005
 21
216.369
 31
0.0
  0
LINE
  5
1B9
  8
0
 62
     7
 10
68.833399999999997
 20
215.41
 30
0.0
 11
69.833200000000005
 21
215.82499999999999
 31
0.0
  0
LINE
  5
1BA
  8
0
 62
     7
 10
68.833399999999997
 20
214.86600000000001
 30
0.0
 11
69.833200000000005
 21
215.28200000000001
 31
0.0
  0
LINE
  5
1BB
  8
0
 62
     7
 10
68.833399999999997
 20
214.32300000000001
 30
0.0
 11
69.833200000000005
 21
214.739
 31
0.0
  0
LINE
  5
1BC
  8
0
 62
     7
 10
68.833399999999997
 20
213.78
 30
0.0
 11
69.833200000000005
 21
214.196
 31
0.0
  0
LINE
  5
1BD
  8
0
 62
     7
 10
68.833399999999997
 20
213.23599999999999
 30
0.0
 11
69.833200000000005
 21
213.65199999999999
 31
0.0
  0
LINE
  5
1BE
  8
0
 62
     7
 10
68.833399999999997
 20
212.69300000000001
 30
0.0
 11
69.833200000000005
 21
213.10900000000001
 31
0.0
  0
LINE
  5
1BF
  8
0
 62
     7
 10
68.833399999999997
 20
212.15000000000001
 30
0.0
 11
69.833200000000005
 21
212.566
 31
0.0
  0
LINE
  5
1C0
  8
0
 62
     7
 10
68.833399999999997
 20
211.607
 30
0.0
 11
69.833200000000005
 21
212.02199999999999
 31
0.0
  0
LINE
  5
1C1
  8
0
 62
     7
 10
68.833399999999997
 20
211.06299999999999
 30
0.0
 11
69.833200000000005
 21
211.47900000000001
 31
0.0
  0
LINE
  5
1C2
  8
0
 62
     7
 10
68.833399999999997
 20
210.52000000000001
 30
0.0
 11
69.833200000000005
 21
210.93600000000001
 31
0.0
  0
LINE
  5
1C3
  8
0
 62
     7
 10
68.833399999999997
 20
209.977
 30
0.0
 11
69.833200000000005
 21
210.392
 31
0.0
  0
LINE
  5
1C4
  8
0
 62
     7
 10
68.833399999999997
 20
209.43299999999999
 30
0.0
 11
69.833200000000005
 21
209.84899999999999
 31
0.0
  0
LINE
  5
1C5
  8
0
 62
     7
 10
68.833399999999997
 20
208.88999999999999
 30
0.0
 11
69.833200000000005
 21
209.30600000000001
 31
0.0
  0
LINE
  5
1C6
  8
0
 62
     7
 10
69.333299999999994
 20
218.78999999999999
 30
0.0
 11
69.077399999999997
 21
218.05099999999999
 31
0.0
  0
LINE
  5
1C7
  8
0
 62
     7
 10
69.333299999999994
 20
218.78999999999999
 30
0.0
 11
69.589299999999994
 21
218.05099999999999
 31
0.0
  0
LINE
  5
1C8
  8
0
  6
AIGENLINE001
 62
     7
 10
69.333299999999994
 20
219.285
 30
0.0
 11
69.333299999999994
 21
207.928
 31
0.0
  0
LINE
  5
1C9
  8
0
 62
     7
 10
69.589299999999994
 20
218.05099999999999
 30
0.0
 11
69.589299999999994
 21
208.78999999999999
 31
0.0
  0
LINE
  5
1CA
  8
0
 62
     7
 10
69.077399999999997
 20
218.05099999999999
 30
0.0
 11
69.077399999999997
 21
208.78999999999999
 31
0.0
  0
ARC
  5
1CB
  8
0
 62
     7
 10
82.557299999999984
 20
204.017088
 30
0.0
 40
14.455432999999999
 50
255.03982199999999
 51
255.50716
  0
ARC
  5
1CC
  8
0
 62
     7
 10
80.222300000000004
 20
195.19044099999999
 30
0.0
 40
5.325234
 50
249.63188500000001
 51
254.79532499999999
  0
ARC
  5
1CD
  8
0
 62
     7
 10
81.841834000000006
 20
199.73721499999999
 30
0.0
 40
10.151608
 50
248.19801799999999
 51
249.994427
  0
ARC
  5
1CE
  8
0
 62
     7
 10
82.709831999999992
 20
201.98138800000001
 30
0.0
 40
12.557665999999999
 50
244.72093799999999
 51
248.323824
  0
ARC
  5
1CF
  8
0
 62
     7
 10
81.475060999999997
 20
199.326876
 30
0.0
 40
9.6300880000000006
 50
241.48052999999999
 51
244.61966000000001
  0
ARC
  5
1D0
  8
0
 62
     7
 10
81.717247
 20
199.80027200000001
 30
0.0
 40
10.161682000000001
 50
238.550748
 51
241.55511999999999
  0
ARC
  5
1D1
  8
0
 62
     7
 10
80.573583999999997
 20
197.91329999999999
 30
0.0
 40
7.9552069999999997
 50
234.76940300000001
 51
238.486985
  0
ARC
  5
1D2
  8
0
 62
     7
 10
79.365434999999991
 20
196.20435800000001
 30
0.0
 40
5.8623379999999994
 50
230.75246800000011
 51
234.77941800000011
  0
ARC
  5
1D3
  8
0
 62
     7
 10
78.334125999999983
 20
194.959273
 30
0.0
 40
4.245652999999999
 50
225.8285359999999
 51
230.90005099999999
  0
ARC
  5
1D4
  8
0
 62
     7
 10
78.088587000000004
 20
194.708957
 30
0.0
 40
3.895017999999999
 50
222.896567
 51
225.85342299999991
  0
ARC
  5
1D5
  8
0
 62
     7
 10
77.912358999999995
 20
194.51171199999999
 30
0.0
 40
3.6317390000000001
 50
219.442215
 51
222.50935799999999
  0
ARC
  5
1D6
  8
0
 62
     7
 10
77.523232999999991
 20
194.17627200000001
 30
0.0
 40
3.1181480000000001
 50
217.55283
 51
219.22469700000011
  0
ARC
  5
1D7
  8
0
 62
     7
 10
78.821419999999989
 20
195.22053099999999
 30
0.0
 40
4.7839489999999989
 50
216.699354
 51
217.99172200000001
  0
LINE
  5
1D8
  8
0
 62
     7
 10
74.985699999999994
 20
192.36199999999999
 30
0.0
 11
74.948499999999996
 21
192.41099999999989
 31
0.0
  0
ARC
  5
1D9
  8
0
 62
     7
 10
67.93629399999999
 20
186.98985500000001
 30
0.0
 40
8.8635289999999998
 50
37.708454000000003
 51
37.948112999999999
  0
ARC
  5
1DA
  8
0
 62
     7
 10
74.644570000000002
 20
192.21433300000001
 30
0.0
 40
0.360857
 50
38.802815000000002
 51
46.70569099999998
  0
ARC
  5
1DB
  8
0
 62
     7
 10
74.818657000000002
 20
192.39599799999999
 30
0.0
 40
0.109275
 50
47.823036999999992
 51
62.192910000000012
  0
ARC
  5
1DC
  8
0
 62
     7
 10
74.84872
 20
192.45178200000001
 30
0.0
 40
0.045912
 50
62.903196000000001
 51
77.562450999999996
  0
ARC
  5
1DD
  8
0
 62
     7
 10
74.841836999999984
 20
192.40870899999999
 30
0.0
 40
0.089493
 50
79.198431999999997
 51
86.09679100000001
  0
ARC
  5
1DE
  8
0
 62
     7
 10
71.329891000000003
 20
192.37240700000001
 30
0.0
 40
0.126111
 50
95.225356000000005
 51
99.963908999999987
  0
ARC
  5
1DF
  8
0
 62
     7
 10
71.314533999999995
 20
192.462818
 30
0.0
 40
0.034411
 50
100.826035
 51
119.880398
  0
ARC
  5
1E0
  8
0
 62
     7
 10
71.334089000000006
 20
192.413783
 30
0.0
 40
0.086991
 50
114.952172
 51
133.40900400000001
  0
ARC
  5
1E1
  8
0
 62
     7
 10
71.467894999999999
 20
192.26043300000001
 30
0.0
 40
0.290462
 50
131.795896
 51
146.48245199999999
  0
ARC
  5
1E2
  8
0
 62
     7
 10
75.480043999999992
 20
189.14627300000001
 30
0.0
 40
5.3685980000000004
 50
142.414445
 51
143.49469999999999
  0
ARC
  5
1E3
  8
0
 62
     7
 10
66.979376999999999
 20
195.47705199999999
 30
0.0
 40
5.2305120000000001
 50
321.64487000000003
 51
323.14777600000002
  0
ARC
  5
1E4
  8
0
 62
     7
 10
68.539849000000004
 20
194.27084099999999
 30
0.0
 40
3.2584040000000001
 50
317.16043999999999
 51
321.25028300000002
  0
ARC
  5
1E5
  8
0
 62
     7
 10
68.161457999999996
 20
194.61509599999999
 30
0.0
 40
3.7699410000000002
 50
310.89175699999998
 51
317.23425900000001
  0
ARC
  5
1E6
  8
0
 62
     7
 10
67.008071999999984
 20
195.90865700000001
 30
0.0
 40
5.5029059999999994
 50
303.11932300000001
 51
311.15303499999999
  0
ARC
  5
1E7
  8
0
 62
     7
 10
65.098112
 20
198.69649799999999
 30
0.0
 40
8.8817199999999996
 50
299.146747
 51
303.61234400000001
  0
ARC
  5
1E8
  8
0
 62
     7
 10
64.332217
 20
200.02338499999999
 30
0.0
 40
10.413643
 50
295.51335499999999
 51
299.27139799999998
  0
ARC
  5
1E9
  8
0
 62
     7
 10
63.833537
 20
201.123131
 30
0.0
 40
11.620963
 50
291.49875400000002
 51
295.39683400000001
  0
ARC
  5
1EA
  8
0
 62
     7
 10
62.676825000000001
 20
203.82867899999999
 30
0.0
 40
14.562434
 50
290.675636
 51
291.832019
  0
ARC
  5
1EB
  8
0
 62
     7
 10
66.044731999999996
 20
194.934876
 30
0.0
 40
5.0523239999999987
 50
284.81827700000002
 51
290.55318499999998
  0
ARC
  5
1EC
  8
0
 62
     7
 10
65.308481
 20
198.10806299999999
 30
0.0
 40
8.3088750000000005
 50
283.34995900000001
 51
284.13012700000002
  0
LINE
  5
1ED
  8
0
 62
     7
 10
67.859499999999997
 20
192.62100000000001
 30
0.0
 11
78.307199999999995
 21
192.62100000000001
 31
0.0
  0
ARC
  5
1EE
  8
0
 62
     7
 10
-73.324596999999997
 20
-2343.9259999999999
 30
0.0
 40
2535.8928700000001
 50
86.557671999999997
 51
86.586703
  0
ARC
  5
1EF
  8
0
 62
     7
 10
35.165081000000001
 20
-517.04094299999986
 30
0.0
 40
705.78968499999985
 50
86.548417000000001
 51
86.696526000000006
  0
ARC
  5
1F0
  8
0
 62
     7
 10
71.708057999999994
 20
110.064206
 30
0.0
 40
77.621578
 50
86.951702999999995
 51
87.328893000000008
  0
ARC
  5
1F1
  8
0
 62
     7
 10
71.481954999999985
 20
104.35189800000001
 30
0.0
 40
83.338226000000006
 50
87.356634999999983
 51
87.879526999999996
  0
ARC
  5
1F2
  8
0
 62
     7
 10
73.044076000000004
 20
145.549126
 30
0.0
 40
42.111424999999997
 50
87.929500000000004
 51
89.946568999999997
  0
ARC
  5
1F3
  8
0
 62
     7
 10
73.074248999999995
 20
148.74137400000001
 30
0.0
 40
38.919159999999998
 50
89.986607000000006
 51
91.837102999999985
  0
ARC
  5
1F4
  8
0
 62
     7
 10
73.819280000000006
 20
124.918824
 30
0.0
 40
62.753352
 50
91.819700999999995
 51
92.717206000000004
  0
ARC
  5
1F5
  8
0
 62
     7
 10
73.996623
 20
118.942702
 30
0.0
 40
68.73124399999999
 50
92.628705000000011
 51
93.237647999999965
  0
ARC
  5
1F6
  8
0
 62
     7
 10
83.899085999999997
 20
-56.857885000000003
 30
0.0
 40
244.81050099999999
 50
93.227780999999993
 51
93.603980000000007
  0
ARC
  5
1F7
  8
0
 62
     7
 10
-66.611028000000005
 20
2433.7829999999999
 30
0.0
 40
2250.375
 50
273.40961099999998
 51
273.44234299999999
  0
LINE
  5
1F8
  8
0
 62
     7
 10
78.567599999999999
 20
192.49799999999999
 30
0.0
 11
67.599100000000007
 21
192.49799999999999
 31
0.0
  0
LINE
  5
1F9
  8
0
 62
     7
 10
78.708500000000001
 20
208.78999999999999
 30
0.0
 11
67.458200000000005
 21
208.78999999999999
 31
0.0
  0
LINE
  5
1FA
  8
0
 62
     7
 10
78.567599999999999
 20
192.672
 30
0.0
 11
67.599100000000007
 21
192.672
 31
0.0
  0
LINE
  5
1FB
  8
0
 62
     7
 10
92.949999999999989
 20
208.19900000000001
 30
0.0
 11
91.834400000000002
 21
208.19900000000001
 31
0.0
  0
LINE
  5
1FC
  8
0
 62
     7
 10
91.834400000000002
 20
208.19900000000001
 30
0.0
 11
91.834400000000002
 21
207.869
 31
0.0
  0
LINE
  5
1FD
  8
0
 62
     7
 10
78.318200000000004
 20
192.62
 30
0.0
 11
78.317899999999995
 21
192.672
 31
0.0
  0
LINE
  5
1FE
  8
0
 62
     7
 10
67.848799999999997
 20
192.672
 30
0.0
 11
67.848500000000001
 21
192.62
 31
0.0
  0
ARC
  5
1FF
  8
0
 62
     7
 10
58.451981999999987
 20
193.01605499999999
 30
0.0
 40
9.1617339999999992
 50
355.20519000000002
 51
356.758419
  0
ARC
  5
200
  8
0
 62
     7
 10
65.232080000000011
 20
192.47117499999999
 30
0.0
 40
2.3599380000000001
 50
350.36801600000001
 51
354.62834500000002
  0
ARC
  5
201
  8
0
 62
     7
 10
65.904422999999994
 20
192.36329000000001
 30
0.0
 40
1.679033
 50
337.53904999999997
 51
350.15875699999998
  0
ARC
  5
202
  8
0
 62
     7
 10
65.818100000000001
 20
192.41108
 30
0.0
 40
1.7771009999999989
 50
328.296176
 51
337.17844100000002
  0
ARC
  5
203
  8
0
 62
     7
 10
61.232487999999996
 20
195.13850600000001
 30
0.0
 40
7.1123320000000003
 50
327.44032800000002
 51
329.01672300000001
  0
ARC
  5
204
  8
0
 62
     7
 10
86.03534599999999
 20
195.80282399999999
 30
0.0
 40
8.3980049999999995
 50
210.725191
 51
212.336533
  0
ARC
  5
205
  8
0
 62
     7
 10
80.517999000000003
 20
192.50344899999999
 30
0.0
 40
1.9694970000000001
 50
203.382836
 51
210.22166999999999
  0
ARC
  5
206
  8
0
 62
     7
 10
80.131923
 20
192.324164
 30
0.0
 40
1.544017
 50
189.23735300000001
 51
202.962109
  0
ARC
  5
207
  8
0
 62
     7
 10
80.698638999999986
 20
192.4356129999999
 30
0.0
 40
2.1213589999999991
 50
186.44261900000001
 51
189.75138999999999
  0
ARC
  5
208
  8
0
 62
     7
 10
83.238825000000006
 20
192.70539500000001
 30
0.0
 40
4.6758050000000004
 50
182.54227700000001
 51
186.234917
  0
ARC
  5
209
  8
0
 62
     7
 10
78.446555000000004
 20
192.626159
 30
0.0
 40
0.12825
 50
183.46791400000001
 51
267.90876800000001
  0
ARC
  5
20A
  8
0
 62
     7
 10
67.719513000000006
 20
192.626937
 30
0.0
 40
0.129052
 50
272.349648
 51
357.96867099999997
  0
LINE
  5
20B
  8
0
 62
     7
 10
67.458200000000005
 20
208.78999999999999
 30
0.0
 11
67.599100000000007
 21
192.672
 31
0.0
  0
LINE
  5
20C
  8
0
 62
     7
 10
78.567599999999999
 20
192.672
 30
0.0
 11
78.708500000000001
 21
208.78999999999999
 31
0.0
  0
LINE
  5
20D
  8
0
 62
     7
 10
67.227000000000004
 20
205.93799999999999
 30
0.0
 11
67.4833
 21
205.93799999999999
 31
0.0
  0
LINE
  5
20E
  8
0
 62
     7
 10
78.939700000000002
 20
208.16999999999999
 30
0.0
 11
78.703000000000003
 21
208.16999999999999
 31
0.0
  0
LINE
  5
20F
  8
0
 62
     7
 10
78.683700000000002
 20
205.93799999999999
 30
0.0
 11
78.939700000000002
 21
205.93799999999999
 31
0.0
  0
LINE
  5
210
  8
0
 62
     7
 10
73.083299999999994
 20
123.523
 30
0.0
 11
74.942999999999984
 21
123.523
 31
0.0
  0
LINE
  5
211
  8
_________2
 62
     7
 10
105.239
 20
297.44999999999999
 30
0.0
 11
105.239
 21
280.43000000000001
 31
0.0
  0
TEXT
  5
212
  8
_________2
 62
     7
 10
142.27781333333331
 20
30.627400000000002
 30
0.0
 40
4.6583899999999989
  1
GE4519
 41
0.5
 72
     1
 11
148.489
 21
30.627400000000002
 31
0.0
  0
TEXT
  5
213
  8
_________2
 62
     7
 10
142.27781333333331
 20
20.6266
 30
0.0
 40
4.6583899999999989
  1
GE4519
 41
0.5
 72
     1
 11
148.489
 21
20.6266
 31
0.0
  0
LINE
  5
214
  8
_________2
 62
     7
 10
210.24000000000001
 20
148.93100000000001
 30
0.0
 11
188.49000000000001
 21
148.93100000000001
 31
0.0
  0
LINE
  5
215
  8
_________2
 62
     7
 10
105.239
 20
17.4282
 30
0.0
 11
105.239
 21
0.4482100000000001
 31
0.0
  0
LINE
  5
216
  8
_________2
 62
     7
 10
105.239
 20
297.44999999999999
 30
0.0
 11
105.239
 21
280.43000000000001
 31
0.0
  0
LINE
  5
217
  8
_________2
 62
     7
 10
21.988499999999998
 20
148.93100000000001
 30
0.0
 11
0.238058
 21
148.93100000000001
 31
0.0
  0
LINE
  5
218
  8
_________2
 62
     7
 10
81.679900000000004
 20
51.323999999999998
 30
0.0
 11
79.493700000000004
 21
51.323999999999998
 31
0.0
  0
LINE
  5
219
  8
_________2
 62
     7
 10
82.172600000000017
 20
51.323999999999998
 30
0.0
 11
81.920400000000001
 21
51.323999999999998
 31
0.0
  0
LINE
  5
21A
  8
_________2
 62
     7
 10
82.665199999999984
 20
51.323999999999998
 30
0.0
 11
85.590100000000007
 21
51.323999999999998
 31
0.0
  0
LINE
  5
21B
  8
_________2
 62
     7
 10
82.172600000000017
 20
51.323999999999998
 30
0.0
 11
82.424800000000005
 21
51.323999999999998
 31
0.0
  0
LINE
  5
21C
  8
_________2
 62
     7
 10
75.776399999999995
 20
51.323999999999998
 30
0.0
 11
73.589399999999998
 21
51.323999999999998
 31
0.0
  0
LINE
  5
21D
  8
_________2
 62
     7
 10
76.2684
 20
51.323999999999998
 30
0.0
 11
76.016900000000007
 21
51.323999999999998
 31
0.0
  0
LINE
  5
21E
  8
_________2
 62
     7
 10
76.2684
 20
51.816600000000001
 30
0.0
 11
76.2684
 21
54.003599999999999
 31
0.0
  0
LINE
  5
21F
  8
_________2
 62
     7
 10
76.2684
 20
51.323999999999998
 30
0.0
 11
76.2684
 21
51.576500000000003
 31
0.0
  0
LINE
  5
220
  8
_________2
 62
     7
 10
76.76100000000001
 20
51.323999999999998
 30
0.0
 11
78.947999999999993
 21
51.323999999999998
 31
0.0
  0
LINE
  5
221
  8
_________2
 62
     7
 10
76.2684
 20
51.323999999999998
 30
0.0
 11
76.520499999999998
 21
51.323999999999998
 31
0.0
  0
LINE
  5
222
  8
_________2
 62
     7
 10
76.2684
 20
50.832000000000001
 30
0.0
 11
76.2684
 21
48.645400000000002
 31
0.0
  0
LINE
  5
223
  8
_________2
 62
     7
 10
76.2684
 20
51.323999999999998
 30
0.0
 11
76.2684
 21
51.072499999999998
 31
0.0
  0
LINE
  5
224
  8
_________2
 62
     7
 10
79.979399999999984
 20
50.104399999999998
 30
0.0
 11
85.157399999999996
 21
49.239699999999999
 31
0.0
  0
LINE
  5
225
  8
_________2
 62
     7
 10
79.979399999999984
 20
52.543900000000001
 30
0.0
 11
85.157399999999996
 21
53.409300000000002
 31
0.0
  0
LINE
  5
226
  8
_________2
 62
     7
 10
85.157399999999996
 20
49.239699999999999
 30
0.0
 11
85.157399999999996
 21
53.409300000000002
 31
0.0
  0
LINE
  5
227
  8
_________2
 62
     7
 10
79.979399999999984
 20
50.104399999999998
 30
0.0
 11
79.979399999999984
 21
52.543900000000001
 31
0.0
  0
ARC
  5
228
  8
_________2
 62
     7
 10
76.221766000000002
 20
51.277037
 30
0.0
 40
1.267714
 50
2.1220840000000001
 51
87.894083999999992
  0
ARC
  5
229
  8
_________2
 62
     7
 10
76.315297000000001
 20
51.277389999999997
 30
0.0
 40
1.267374999999999
 50
92.122849999999985
 51
177.893304
  0
ARC
  5
22A
  8
_________2
 62
     7
 10
76.315273000000005
 20
51.370902000000001
 30
0.0
 40
1.267363
 50
182.121815
 51
267.87821400000001
  0
ARC
  5
22B
  8
_________2
 62
     7
 10
76.221461000000005
 20
51.371583999999999
 30
0.0
 40
1.2680439999999991
 50
272.11916400000001
 51
357.84848499999998
  0
ARC
  5
22C
  8
_________2
 62
     7
 10
76.187981999999991
 20
51.243968000000002
 30
0.0
 40
2.1668310000000002
 50
2.1161439999999989
 51
87.874379000000005
  0
ARC
  5
22D
  8
_________2
 62
     7
 10
76.348411999999996
 20
51.244990000000001
 30
0.0
 40
2.1657980000000001
 50
92.118487999999999
 51
177.909886
  0
ARC
  5
22E
  8
_________2
 62
     7
 10
76.348354
 20
51.403983000000011
 30
0.0
 40
2.1657779999999991
 50
182.11700400000001
 51
267.88302499999998
  0
ARC
  5
22F
  8
_________2
 62
     7
 10
76.188378999999983
 20
51.404665999999992
 30
0.0
 40
2.1664590000000001
 50
272.11546800000002
 51
357.86560400000002
  0
TEXT
  5
230
  8
_________2
 62
     7
 10
109.544
 20
23.198699999999999
 30
0.0
 40
3.660169999999999
  1
図番
 41
0.5
  0
LINE
  5
231
  8
_________2
 62
     7
 10
108.489
 20
27.428000000000001
 30
0.0
 11
188.49000000000001
 21
27.428000000000001
 31
0.0
  0
TEXT
  5
232
  8
_________2
 62
     7
 10
109.544
 20
33.19850000000001
 30
0.0
 40
3.660169999999999
  1
品番
 41
0.5
  0
TEXT
  5
233
  8
_________2
 62
     7
 10
109.544
 20
53.337699999999998
 30
0.0
 40
3.660169999999999
  1
名称
 41
0.5
  0
TEXT
  5
234
  8
_________2
 62
     7
 10
96.504545833333353
 20
48.341500000000011
 30
0.0
 40
4.3256500000000004
  1
mm
 41
0.5
 72
     1
 11
98.306899999999999
 21
48.341500000000011
 31
0.0
  0
TEXT
  5
235
  8
_________2
 62
     7
 10
90.582099999999997
 20
53.337699999999998
 30
0.0
 40
3.660169999999999
  1
単位
 41
0.5
  0
TEXT
  5
236
  8
_________2
 62
     7
 10
90.582099999999997
 20
40.930100000000003
 30
0.0
 40
3.660169999999999
  1
尺度
 41
0.5
  0
TEXT
  5
237
  8
_________2
 62
     7
 10
94.861526666666677
 20
34.737499999999997
 30
0.0
 40
4.3256500000000004
  1
1 ： 4
 41
0.5
 72
     1
 11
98.898799999999994
 21
34.737499999999997
 31
0.0
  0
TEXT
  5
238
  8
_________2
 62
     7
 10
114.11799999999999
 20
45.7453
 30
0.0
 40
4.6583899999999989
  1
ウィンク　ダブルペーパーホルダー
 41
0.5
  0
TEXT
  5
239
  8
_________2
 62
     7
 10
44.01748083333333
 20
35.122599999999998
 30
0.0
 40
4.3256500000000004
  1
早川
 41
0.5
 72
     1
 11
46.252400000000002
 21
35.122599999999998
 31
0.0
  0
TEXT
  5
23A
  8
_________2
 62
     7
 10
25.37138666666667
 20
35.122599999999998
 30
0.0
 40
4.3256500000000004
  1
菅原
 41
0.5
 72
     1
 11
27.6784
 21
35.122599999999998
 31
0.0
  0
TEXT
  5
23B
  8
_________2
 62
     7
 10
72.724699999999999
 20
34.737499999999997
 30
0.0
 40
4.3256500000000004
  1
14.12.15
 41
0.5
  0
TEXT
  5
23C
  8
_________2
 62
     7
 10
71.531999999999996
 20
40.930100000000003
 30
0.0
 40
3.660169999999999
  1
日付
 41
0.5
  0
TEXT
  5
23D
  8
_________2
 62
     7
 10
34.578299999999999
 20
40.930100000000003
 30
0.0
 40
3.660169999999999
  1
検図
 41
0.5
  0
TEXT
  5
23E
  8
_________2
 62
     7
 10
22.960000000000001
 20
26.730699999999999
 30
0.0
 40
3.660169999999999
  1
備考
 41
0.5
  0
TEXT
  5
23F
  8
_________2
 62
     7
 10
22.960000000000001
 20
40.930100000000003
 30
0.0
 40
3.660169999999999
  1
製図
 41
0.5
  0
TEXT
  5
240
  8
_________2
 62
     7
 10
25.533730666666688
 20
49.456000000000003
 30
0.0
 40
5.3238799999999991
  1
セラトレーディング株式会社
 41
0.5
 72
     1
 11
46.119399999999992
 21
49.456000000000003
 31
0.0
  0
LINE
  5
241
  8
_________2
 62
     7
 10
188.49000000000001
 20
17.4282
 30
0.0
 11
21.988499999999998
 21
17.4282
 31
0.0
  0
LINE
  5
242
  8
_________2
 62
     7
 10
21.988499999999998
 20
17.4282
 30
0.0
 11
21.988499999999998
 21
280.43000000000001
 31
0.0
  0
LINE
  5
243
  8
_________2
 62
     7
 10
21.988499999999998
 20
280.43000000000001
 30
0.0
 11
188.49000000000001
 21
280.43000000000001
 31
0.0
  0
LINE
  5
244
  8
_________2
 62
     7
 10
188.49000000000001
 20
280.43000000000001
 30
0.0
 11
188.49000000000001
 21
17.4282
 31
0.0
  0
LINE
  5
245
  8
_________2
 62
     7
 10
70.488799999999998
 20
30.9285
 30
0.0
 11
70.488799999999998
 21
57.428400000000011
 31
0.0
  0
LINE
  5
246
  8
_________2
 62
     7
 10
89.488600000000005
 20
30.9285
 30
0.0
 11
89.488600000000005
 21
57.428400000000011
 31
0.0
  0
LINE
  5
247
  8
_________2
 62
     7
 10
108.489
 20
17.4282
 30
0.0
 11
108.489
 21
57.428400000000011
 31
0.0
  0
LINE
  5
248
  8
_________2
 62
     7
 10
33.488300000000002
 20
30.9285
 30
0.0
 11
33.488300000000002
 21
44.928499999999993
 31
0.0
  0
LINE
  5
249
  8
_________2
 62
     7
 10
21.988499999999998
 20
30.9285
 30
0.0
 11
108.489
 21
30.9285
 31
0.0
  0
LINE
  5
24A
  8
_________2
 62
     7
 10
21.988499999999998
 20
44.928499999999993
 30
0.0
 11
108.489
 21
44.928499999999993
 31
0.0
  0
LINE
  5
24B
  8
_________2
 62
     7
 10
108.489
 20
37.427799999999998
 30
0.0
 11
188.49000000000001
 21
37.427799999999998
 31
0.0
  0
LINE
  5
24C
  8
_________2
 62
     7
 10
21.988499999999998
 20
57.428400000000011
 30
0.0
 11
188.49000000000001
 21
57.428400000000011
 31
0.0
  0
ENDSEC
  0
EOF
