  0
SECTION
  2
HEADER
  9
$ACADVER
  1
AC1009
  9
$INSBASE
 10
0.0
 20
0.0
 30
0.0
  9
$EXTMIN
 10
0.238058
 20
0.4482100000000001
 30
0.0
  9
$EXTMAX
 10
210.24000000000001
 20
297.44999999999987
 30
0.0
  9
$LIMMIN
 10
0.0
 20
0.0
  9
$LIMMAX
 10
12.0
 20
9.0
  9
$ORTHOMODE
 70
     0
  9
$REGENMODE
 70
     1
  9
$FILLMODE
 70
     1
  9
$QTEXTMODE
 70
     0
  9
$MIRRTEXT
 70
     1
  9
$DRAGMODE
 70
     2
  9
$LTSCALE
 40
1.0
  9
$OSMODE
 70
    37
  9
$ATTMODE
 70
     1
  9
$TEXTSIZE
 40
0.0
  9
$TRACEWID
 40
0.05
  9
$TEXTSTYLE
  7
STANDARD
  9
$CLAYER
  8
0
  9
$CELTYPE
  6
CONTINUOUS
  9
$CECOLOR
 62
   256
  9
$DIMSCALE
 40
1.0
  9
$DIMASZ
 40
0.18
  9
$DIMEXO
 40
0.0625
  9
$DIMDLI
 40
0.38
  9
$DIMRND
 40
0.0
  9
$DIMDLE
 40
0.0
  9
$DIMEXE
 40
0.18
  9
$DIMTP
 40
0.0
  9
$DIMTM
 40
0.0
  9
$DIMTXT
 40
0.18
  9
$DIMCEN
 40
0.09
  9
$DIMTSZ
 40
0.0
  9
$DIMTOL
 70
     0
  9
$DIMLIM
 70
     0
  9
$DIMTIH
 70
     1
  9
$DIMTOH
 70
     1
  9
$DIMSE1
 70
     0
  9
$DIMSE2
 70
     0
  9
$DIMTAD
 70
     0
  9
$DIMZIN
 70
     0
  9
$DIMBLK
  1

  9
$DIMASO
 70
     1
  9
$DIMSHO
 70
     1
  9
$DIMPOST
  1

  9
$DIMAPOST
  1

  9
$DIMALT
 70
     0
  9
$DIMALTD
 70
     2
  9
$DIMALTF
 40
25.399999999999999
  9
$DIMLFAC
 40
1.0
  9
$DIMTOFL
 70
     0
  9
$DIMTVP
 40
0.0
  9
$DIMTIX
 70
     0
  9
$DIMSOXD
 70
     0
  9
$DIMSAH
 70
     0
  9
$DIMBLK1
  1

  9
$DIMBLK2
  1

  9
$DIMSTYLE
  2
STANDARD
  9
$DIMCLRD
 70
     0
  9
$DIMCLRE
 70
     0
  9
$DIMCLRT
 70
     0
  9
$DIMTFAC
 40
1.0
  9
$DIMGAP
 40
0.09
  9
$LUNITS
 70
     2
  9
$LUPREC
 70
     4
  9
$SKETCHINC
 40
0.1
  9
$FILLETRAD
 40
0.0
  9
$AUNITS
 70
     0
  9
$AUPREC
 70
     0
  9
$MENU
  1
.
  9
$ELEVATION
 40
0.0
  9
$PELEVATION
 40
0.0
  9
$THICKNESS
 40
0.0
  9
$LIMCHECK
 70
     0
  9
$BLIPMODE
 70
     0
  9
$CHAMFERA
 40
0.0
  9
$CHAMFERB
 40
0.0
  9
$SKPOLY
 70
     0
  9
$TDCREATE
 40
2444972.375
  9
$TDUPDATE
 40
2456744.2495826031
  9
$TDINDWG
 40
0.0000056481
  9
$TDUSRTIMER
 40
0.0000056481
  9
$USRTIMER
 70
     1
  9
$ANGBASE
 50
0.0
  9
$ANGDIR
 70
     0
  9
$PDMODE
 70
     0
  9
$PDSIZE
 40
0.0
  9
$PLINEWID
 40
0.0
  9
$COORDS
 70
     1
  9
$SPLFRAME
 70
     0
  9
$SPLINETYPE
 70
     6
  9
$SPLINESEGS
 70
     8
  9
$ATTDIA
 70
     0
  9
$ATTREQ
 70
     1
  9
$HANDLING
 70
     1
  9
$HANDSEED
  5
18F
  9
$SURFTAB1
 70
     6
  9
$SURFTAB2
 70
     6
  9
$SURFTYPE
 70
     6
  9
$SURFU
 70
     6
  9
$SURFV
 70
     6
  9
$UCSNAME
  2

  9
$UCSORG
 10
0.0
 20
0.0
 30
0.0
  9
$UCSXDIR
 10
1.0
 20
0.0
 30
0.0
  9
$UCSYDIR
 10
0.0
 20
1.0
 30
0.0
  9
$PUCSNAME
  2

  9
$PUCSORG
 10
0.0
 20
0.0
 30
0.0
  9
$PUCSXDIR
 10
1.0
 20
0.0
 30
0.0
  9
$PUCSYDIR
 10
0.0
 20
1.0
 30
0.0
  9
$USERI1
 70
     0
  9
$USERI2
 70
     0
  9
$USERI3
 70
     0
  9
$USERI4
 70
     0
  9
$USERI5
 70
     0
  9
$USERR1
 40
0.0
  9
$USERR2
 40
0.0
  9
$USERR3
 40
0.0
  9
$USERR4
 40
0.0
  9
$USERR5
 40
0.0
  9
$WORLDVIEW
 70
     1
  9
$SHADEDGE
 70
     3
  9
$SHADEDIF
 70
    70
  9
$TILEMODE
 70
     1
  9
$MAXACTVP
 70
    48
  9
$PLIMCHECK
 70
     0
  9
$PEXTMIN
 10
1.0000000000000000E+020
 20
1.0000000000000000E+020
 30
1.0000000000000000E+020
  9
$PEXTMAX
 10
-1.0000000000000000E+020
 20
-1.0000000000000000E+020
 30
-1.0000000000000000E+020
  9
$PLIMMIN
 10
0.0
 20
0.0
  9
$PLIMMAX
 10
12.0
 20
9.0
  9
$UNITMODE
 70
     0
  9
$VISRETAIN
 70
     1
  9
$PLINEGEN
 70
     0
  9
$PSLTSCALE
 70
     1
  0
ENDSEC
  0
SECTION
  2
TABLES
  0
TABLE
  2
VPORT
 70
     2
  0
VPORT
  2
*ACTIVE
 70
     0
 10
0.0
 20
0.0
 11
1.0
 21
1.0
 12
206.97982146115791
 22
148.72499999999991
 13
0.0
 23
0.0
 14
1.0
 24
1.0
 15
0.0
 25
0.0
 16
0.0
 26
0.0
 36
1.0
 17
0.0
 27
0.0
 37
0.0
 40
299.90488308115528
 41
2.2894736842105261
 42
50.0
 43
0.0
 44
0.0
 50
0.0
 51
0.0
 71
     0
 72
   100
 73
     1
 74
     1
 75
     0
 76
     0
 77
     0
 78
     0
  0
ENDTAB
  0
TABLE
  2
LTYPE
 70
     3
  0
LTYPE
  2
CONTINUOUS
 70
     0
  3
Solid line
 72
    65
 73
     0
 40
0.0
  0
LTYPE
  2
AIGENLINE001
 70
     0
  3
generate AI->DXF Converter
 72
    65
 73
     2
 40
1.5522299999999991
 49
0.776115
 49
-0.776115
  0
LTYPE
  2
AIGENLINE002
 70
     0
  3
generate AI->DXF Converter
 72
    65
 73
     4
 40
5.8561449999999988
 49
3.5278
 49
-0.776115
 49
0.776115
 49
-0.776115
  0
ENDTAB
  0
TABLE
  2
LAYER
 70
     2
  0
LAYER
  2
0
 70
     0
 62
     7
  6
CONTINUOUS
  0
LAYER
  2
_________2
 70
     0
 62
     7
  6
CONTINUOUS
  0
ENDTAB
  0
TABLE
  2
STYLE
 70
     1
  0
STYLE
  2
STANDARD
 70
     0
 40
0.0
 41
0.0
 50
0.0
 71
     0
 42
0.0
  3
TXT
  4
EXTFONT.SHX
  0
ENDTAB
  0
TABLE
  2
VIEW
 70
     0
  0
ENDTAB
  0
TABLE
  2
UCS
 70
     0
  0
ENDTAB
  0
TABLE
  2
APPID
 70
     1
  0
APPID
  2
ACAD
 70
     0
  0
ENDTAB
  0
TABLE
  2
DIMSTYLE
 70
     1
  0
DIMSTYLE
  2
STANDARD
 70
     0
  3

  4

  5

  6

  7

 40
1.0
 41
0.18
 42
0.0625
 43
0.38
 44
0.18
 45
0.0
 46
0.0
 47
0.0
 48
0.0
140
0.18
141
0.09
142
0.0
143
25.399999999999999
144
1.0
145
0.0
146
1.0
147
0.09
 71
     0
 72
     0
 73
     1
 74
     1
 75
     0
 76
     0
 77
     0
 78
     0
170
     0
171
     2
172
     0
173
     0
174
     0
175
     0
176
     0
177
     0
178
     0
  0
ENDTAB
  0
ENDSEC
  0
SECTION
  2
BLOCKS
  0
BLOCK
  8
0
  2
$MODEL_SPACE
 70
     0
 10
0.0
 20
0.0
 30
0.0
  3
$MODEL_SPACE
  1

  0
ENDBLK
  5
1A
  8
0
  0
BLOCK
 67
     1
  8
0
  2
$PAPER_SPACE
 70
     0
 10
0.0
 20
0.0
 30
0.0
  3
$PAPER_SPACE
  1

  0
ENDBLK
  5
17
 67
     1
  8
0
  0
ENDSEC
  0
SECTION
  2
ENTITIES
  0
TEXT
  5
23
  8
0
 62
     7
 10
159.57439299999999
 20
155.358
 30
0.0
 40
3.0923400000000001
  1
（%%c5×30樹脂プラグ付）
 41
0.5
 72
     2
 11
180.86000000000001
 21
155.358
 31
0.0
  0
TEXT
  5
24
  8
0
 62
     7
 10
140.65958000000001
 20
160.86199999999991
 30
0.0
 40
3.0923400000000001
  1
%%c3.5×38 SUS 十字穴付皿頭タッピングネジ
 41
0.5
 72
     2
 11
180.86000000000001
 21
160.86199999999991
 31
0.0
  0
TEXT
  5
25
  8
0
 62
     7
 10
41.192599999999992
 20
135.4955249999999
 30
0.0
 40
3.0923400000000001
  1
47
 50
90.0
 41
0.5
 72
     1
 11
41.192599999999992
 21
136.78399999999991
 31
0.0
  0
TEXT
  5
26
  8
0
 62
     7
 10
114.13052500000001
 20
102.20099999999999
 30
0.0
 40
3.0923400000000001
  1
34
 41
0.5
 72
     1
 11
115.419
 21
102.20099999999999
 31
0.0
  0
TEXT
  5
27
  8
0
 62
     7
 10
175.4379999999999
 20
129.49052499999999
 30
0.0
 40
3.0923400000000001
  1
34
 50
90.0
 41
0.5
 72
     1
 11
175.4379999999999
 21
130.779
 31
0.0
  0
TEXT
  5
28
  8
0
 62
     7
 10
169.077
 20
129.49052499999999
 30
0.0
 40
3.0923400000000001
  1
22
 50
90.0
 41
0.5
 72
     1
 11
169.077
 21
130.779
 31
0.0
  0
TEXT
  5
29
  8
0
 62
     7
 10
62.744925000000002
 20
102.20099999999999
 30
0.0
 40
3.0923400000000001
  1
24
 41
0.5
 72
     1
 11
64.0334
 21
102.20099999999999
 31
0.0
  0
ARC
  5
2A
  8
0
 62
     7
 10
64.033360999999999
 20
209.49534199999991
 30
0.0
 40
1.5000039999999999
 50
270.00002000000001
 51
359.99998999999991
  0
ARC
  5
2B
  8
0
 62
     7
 10
64.033360999999999
 20
209.495341
 30
0.0
 40
1.5000039999999999
 50
179.99996999999991
 51
270.00002000000001
  0
ARC
  5
2C
  8
0
 62
     7
 10
64.033360999999999
 20
209.495341
 30
0.0
 40
1.5000039999999999
 50
90.0
 51
179.99996999999991
  0
ARC
  5
2D
  8
0
 62
     7
 10
64.033360999999999
 20
209.495341
 30
0.0
 40
1.5000039999999999
 50
0.00001
 51
89.999980000000008
  0
ARC
  5
2E
  8
0
 62
     7
 10
74.033502999999996
 20
187.644341
 30
0.0
 40
0.9999450000000001
 50
0.00001
 51
89.999980000000008
  0
ARC
  5
2F
  8
0
 62
     7
 10
74.033502999999996
 20
187.44417999999999
 30
0.0
 40
0.9999450000000001
 50
270.00002000000001
 51
359.99998999999991
  0
LINE
  5
30
  8
0
 62
     7
 10
75.0334
 20
187.44399999999999
 30
0.0
 11
75.0334
 21
187.64400000000001
 31
0.0
  0
LINE
  5
31
  8
0
 62
     7
 10
75.0334
 20
187.64400000000001
 30
0.0
 11
76.0334
 21
199.744
 31
0.0
  0
ARC
  5
32
  8
0
 62
     7
 10
54.033218999999988
 20
187.644341
 30
0.0
 40
0.9999450000000001
 50
90.0
 51
179.99996999999991
  0
ARC
  5
33
  8
0
 62
     7
 10
54.033218999999988
 20
187.44417899999991
 30
0.0
 40
0.9999450000000001
 50
179.99996999999991
 51
270.00002000000001
  0
LINE
  5
34
  8
0
  6
AIGENLINE001
 62
     7
 10
66.0334
 20
118.7789999999999
 30
0.0
 11
66.0334
 21
120.7789999999999
 31
0.0
  0
LINE
  5
35
  8
0
  6
AIGENLINE001
 62
     7
 10
62.033299999999997
 20
118.7789999999999
 30
0.0
 11
62.033299999999997
 21
120.7789999999999
 31
0.0
  0
ARC
  5
36
  8
0
  6
AIGENLINE001
 62
     7
 10
64.033447999999993
 20
120.77900699999999
 30
0.0
 40
2.0001489999999991
 50
90.00246700000001
 51
180.002477
  0
ARC
  5
37
  8
0
  6
AIGENLINE001
 62
     7
 10
64.033275000000003
 20
120.77900699999999
 30
0.0
 40
2.0001489999999991
 50
359.99754300000001
 51
89.997512999999984
  0
ARC
  5
38
  8
0
  6
AIGENLINE001
 62
     7
 10
64.033446999999995
 20
118.778772
 30
0.0
 40
1.9999769999999999
 50
269.99755199999993
 51
359.997523
  0
ARC
  5
39
  8
0
  6
AIGENLINE001
 62
     7
 10
64.033275000000003
 20
118.778772
 30
0.0
 40
1.9999759999999991
 50
180.002477
 51
270.00248699999997
  0
LINE
  5
3A
  8
0
  6
AIGENLINE001
 62
     7
 10
63.0334
 20
139.779
 30
0.0
 11
65.033500000000004
 21
139.779
 31
0.0
  0
LINE
  5
3B
  8
0
  6
AIGENLINE001
 62
     7
 10
63.0334
 20
143.77899999999991
 30
0.0
 11
65.033500000000004
 21
143.77899999999991
 31
0.0
  0
ARC
  5
3C
  8
0
  6
AIGENLINE001
 62
     7
 10
65.033563999999998
 20
141.778547
 30
0.0
 40
1.9999769999999999
 50
0.002477
 51
90.002447999999987
  0
ARC
  5
3D
  8
0
  6
AIGENLINE001
 62
     7
 10
65.033563999999998
 20
141.77871999999999
 30
0.0
 40
1.9999769999999999
 50
269.99755199999993
 51
359.997523
  0
ARC
  5
3E
  8
0
  6
AIGENLINE001
 62
     7
 10
63.033329000000002
 20
141.778719
 30
0.0
 40
1.9999759999999991
 50
180.002477
 51
270.00248699999997
  0
ARC
  5
3F
  8
0
  6
AIGENLINE001
 62
     7
 10
63.033330000000007
 20
141.778547
 30
0.0
 40
1.9999769999999999
 50
89.997533000000004
 51
179.99750299999991
  0
LINE
  5
40
  8
0
 62
     7
 10
76.0334
 20
220.495
 30
0.0
 11
52.033299999999997
 21
220.495
 31
0.0
  0
LINE
  5
41
  8
0
 62
     7
 10
53.03329999999999
 20
187.44399999999999
 30
0.0
 11
53.03329999999999
 21
187.64400000000001
 31
0.0
  0
LINE
  5
42
  8
0
 62
     7
 10
74.033500000000004
 20
188.64400000000001
 30
0.0
 11
54.033200000000001
 21
188.64400000000001
 31
0.0
  0
LINE
  5
43
  8
0
 62
     7
 10
74.033500000000004
 20
186.44399999999999
 30
0.0
 11
54.033200000000001
 21
186.44399999999999
 31
0.0
  0
LINE
  5
44
  8
0
 62
     7
 10
53.03329999999999
 20
187.64400000000001
 30
0.0
 11
52.033299999999997
 21
199.744
 31
0.0
  0
LINE
  5
45
  8
0
 62
     7
 10
76.0334
 20
199.744
 30
0.0
 11
52.033299999999997
 21
199.744
 31
0.0
  0
LINE
  5
46
  8
0
 62
     7
 10
76.0334
 20
200.44200000000001
 30
0.0
 11
52.033299999999997
 21
200.44200000000001
 31
0.0
  0
LINE
  5
47
  8
0
 62
     7
 10
53.039299999999997
 20
200.23400000000001
 30
0.0
 11
53.043399999999991
 21
200.44200000000001
 31
0.0
  0
ARC
  5
48
  8
0
 62
     7
 10
52.523096000000002
 20
200.26035200000001
 30
0.0
 40
0.516879
 50
271.92404399999992
 51
357.07815499999992
  0
LINE
  5
49
  8
0
 62
     7
 10
75.0274
 20
200.23400000000001
 30
0.0
 11
75.023300000000006
 21
200.44200000000001
 31
0.0
  0
ARC
  5
4A
  8
0
 62
     7
 10
75.543626000000003
 20
200.26035200000001
 30
0.0
 40
0.516879
 50
182.92186499999991
 51
268.07597599999991
  0
LINE
  5
4B
  8
0
 62
     7
 10
65.783699999999996
 20
248.17699999999999
 30
0.0
 11
62.283200000000001
 21
246.767
 31
0.0
  0
LINE
  5
4C
  8
0
 62
     7
 10
65.783699999999996
 20
246.18299999999991
 30
0.0
 11
62.283200000000001
 21
244.77299999999991
 31
0.0
  0
LINE
  5
4D
  8
0
 62
     7
 10
65.783699999999996
 20
244.18700000000001
 30
0.0
 11
62.283200000000001
 21
242.779
 31
0.0
  0
LINE
  5
4E
  8
0
 62
     7
 10
65.783699999999996
 20
242.19399999999999
 30
0.0
 11
62.283200000000001
 21
240.78399999999999
 31
0.0
  0
LINE
  5
4F
  8
0
 62
     7
 10
65.783699999999996
 20
240.19999999999999
 30
0.0
 11
62.283200000000001
 21
238.78999999999999
 31
0.0
  0
LINE
  5
50
  8
0
 62
     7
 10
65.783699999999996
 20
238.20599999999999
 30
0.0
 11
62.283200000000001
 21
236.79599999999999
 31
0.0
  0
LINE
  5
51
  8
0
 62
     7
 10
65.783699999999996
 20
236.2109999999999
 30
0.0
 11
62.283200000000001
 21
234.803
 31
0.0
  0
LINE
  5
52
  8
0
 62
     7
 10
65.783699999999996
 20
234.21700000000001
 30
0.0
 11
62.283200000000001
 21
232.80699999999999
 31
0.0
  0
LINE
  5
53
  8
0
 62
     7
 10
65.783699999999996
 20
232.2229999999999
 30
0.0
 11
62.283200000000001
 21
230.8129999999999
 31
0.0
  0
LINE
  5
54
  8
0
 62
     7
 10
65.783699999999996
 20
222.25700000000001
 30
0.0
 11
62.283200000000001
 21
220.84599999999989
 31
0.0
  0
LINE
  5
55
  8
0
 62
     7
 10
65.783699999999996
 20
224.25
 30
0.0
 11
62.283200000000001
 21
222.84
 31
0.0
  0
LINE
  5
56
  8
0
 62
     7
 10
65.783699999999996
 20
226.24299999999999
 30
0.0
 11
62.283200000000001
 21
224.833
 31
0.0
  0
LINE
  5
57
  8
0
 62
     7
 10
65.783699999999996
 20
228.23699999999991
 30
0.0
 11
62.283200000000001
 21
226.827
 31
0.0
  0
LINE
  5
58
  8
0
 62
     7
 10
65.783699999999996
 20
230.2299999999999
 30
0.0
 11
62.283200000000001
 21
228.81999999999991
 31
0.0
  0
LINE
  5
59
  8
0
 62
     7
 10
64.870000000000005
 20
248.44499999999991
 30
0.0
 11
64.0334
 21
250.49600000000001
 31
0.0
  0
LINE
  5
5A
  8
0
 62
     7
 10
63.196899999999999
 20
248.44499999999991
 30
0.0
 11
64.0334
 21
250.49600000000001
 31
0.0
  0
LINE
  5
5B
  8
0
 62
     7
 10
63.196899999999999
 20
248.44499999999991
 30
0.0
 11
63.196899999999999
 21
220.495
 31
0.0
  0
LINE
  5
5C
  8
0
 62
     7
 10
64.870000000000005
 20
248.44499999999991
 30
0.0
 11
64.870000000000005
 21
220.495
 31
0.0
  0
LINE
  5
5D
  8
0
  6
AIGENLINE002
 62
     7
 10
64.0334
 20
252.68999999999991
 30
0.0
 11
64.0334
 21
183.261
 31
0.0
  0
LINE
  5
5E
  8
0
 62
     7
 10
132.4439999999999
 20
113.4889999999999
 30
0.0
 11
132.4439999999999
 21
148.0689999999999
 31
0.0
  0
LINE
  5
5F
  8
0
 62
     7
 10
76.0334
 20
200.44200000000001
 30
0.0
 11
76.0334
 21
220.495
 31
0.0
  0
LINE
  5
60
  8
0
 62
     7
 10
52.033299999999997
 20
200.44200000000001
 30
0.0
 11
52.033299999999997
 21
220.495
 31
0.0
  0
LINE
  5
61
  8
0
 62
     7
 10
111.6929999999999
 20
113.315
 30
0.0
 11
111.6929999999999
 21
148.24299999999991
 31
0.0
  0
LINE
  5
62
  8
0
 62
     7
 10
112.39100000000001
 20
113.315
 30
0.0
 11
112.39100000000001
 21
148.24299999999991
 31
0.0
  0
ARC
  5
63
  8
0
 62
     7
 10
119.2074719999999
 20
148.17756199999999
 30
0.0
 40
0.000135
 50
13.73420499999999
 51
242.015773
  0
ARC
  5
64
  8
0
 62
     7
 10
119.28215400000001
 20
148.53502199999991
 30
0.0
 40
0.365307
 50
258.19349399999999
 51
259.76589100000001
  0
ARC
  5
65
  8
0
 62
     7
 10
122.156006
 20
163.4770509999999
 30
0.0
 40
15.581173
 50
259.12836499999992
 51
260.06863099999993
  0
ARC
  5
66
  8
0
 62
     7
 10
121.61765699999999
 20
160.64827199999991
 30
0.0
 40
12.702005
 50
260.25991800000003
 51
262.36971299999999
  0
ARC
  5
67
  8
0
 62
     7
 10
121.516353
 20
159.9025419999999
 30
0.0
 40
11.949427
 50
262.37636800000001
 51
265.4235339999999
  0
ARC
  5
68
  8
0
 62
     7
 10
121.685345
 20
163.15651299999999
 30
0.0
 40
15.206780999999999
 50
265.7670819999999
 51
267.80442799999992
  0
ARC
  5
69
  8
0
 62
     7
 10
121.4791799999999
 20
176.3517019999999
 30
0.0
 40
28.393301000000001
 50
269.24040200000002
 51
270.70523199999991
  0
ARC
  5
6A
  8
0
 62
     7
 10
121.589384
 20
157.54755599999999
 30
0.0
 40
9.5899889999999992
 50
271.42965299999992
 51
275.46794999999992
  0
ARC
  5
6B
  8
0
 62
     7
 10
121.3474419999999
 20
160.63146299999991
 30
0.0
 40
12.683028999999999
 50
275.22842899999989
 51
277.74892299999999
  0
ARC
  5
6C
  8
0
 62
     7
 10
121.750058
 20
157.92774399999999
 30
0.0
 40
9.9497730000000004
 50
277.5508789999999
 51
279.71815099999992
  0
ARC
  5
6D
  8
0
 62
     7
 10
117.001273
 20
185.4474139999999
 30
0.0
 40
37.876156000000002
 50
279.77151800000001
 51
279.98417199999989
  0
ARC
  5
6E
  8
0
 62
     7
 10
123.510341
 20
148.48935199999991
 30
0.0
 40
0.3492929999999999
 50
278.42911800000002
 51
279.51615299999992
  0
LINE
  5
6F
  8
0
 62
     7
 10
99.848500000000016
 20
160.21700000000001
 30
0.0
 11
99.893900000000002
 21
160.24299999999999
 31
0.0
  0
ARC
  5
70
  8
0
 62
     7
 10
99.434849999999997
 20
158.785381
 30
0.0
 40
1.0330019999999991
 50
121.6964309999999
 51
201.41481899999991
  0
LINE
  5
71
  8
0
 62
     7
 10
98.892099999999999
 20
159.6639999999999
 30
0.0
 11
99.4161
 21
159.96700000000001
 31
0.0
  0
ARC
  5
72
  8
0
 62
     7
 10
100.333054
 20
159.30001499999989
 30
0.0
 40
1.036977
 50
31.82859199999999
 51
117.602278
  0
ARC
  5
73
  8
0
 62
     7
 10
99.835915000000014
 20
160.24280400000001
 30
0.0
 40
0.02909
 50
295.53776099999988
 51
304.97512599999988
  0
ARC
  5
74
  8
0
 62
     7
 10
171.684719
 20
35.167239000000002
 30
0.0
 40
144.21401099999991
 50
120.00854200000001
 51
120.07415899999999
  0
ARC
  5
75
  8
0
 62
     7
 10
61.978203000000001
 20
225.4307279999999
 30
0.0
 40
75.412402
 50
299.89010799999988
 51
300.00127199999997
  0
LINE
  5
76
  8
0
 62
     7
 10
99.685800000000015
 20
160.12299999999991
 30
0.0
 11
99.782700000000006
 21
160.17799999999991
 31
0.0
  0
ARC
  5
77
  8
0
 62
     7
 10
103.614935
 20
153.64858000000001
 30
0.0
 40
7.57125
 50
119.9260399999999
 51
120.408525
  0
ARC
  5
78
  8
0
 62
     7
 10
99.678753000000015
 20
160.49652499999999
 30
0.0
 40
0.327386
 50
299.06066900000002
 51
301.22211499999992
  0
ARC
  5
79
  8
0
 62
     7
 10
-433.16703199999989
 20
-29.985803999999991
 30
0.0
 40
564.31089099999986
 50
18.418903
 51
18.628060999999999
  0
ARC
  5
7A
  8
0
 62
     7
 10
-13.099422000000001
 20
111.5273219999999
 30
0.0
 40
121.0471629999999
 50
18.665887999999988
 51
20.237487999999999
  0
ARC
  5
7B
  8
0
 62
     7
 10
17.73171099999999
 20
122.545042
 30
0.0
 40
88.308774999999983
 50
20.449846999999998
 51
21.679970000000001
  0
ARC
  5
7C
  8
0
 62
     7
 10
-36.599131
 20
101.087952
 30
0.0
 40
146.723128
 50
21.628520000000002
 51
22.171628999999989
  0
ARC
  5
7D
  8
0
 62
     7
 10
-238.87208799999999
 20
18.533093999999998
 30
0.0
 40
365.19428900000003
 50
22.189876999999999
 51
22.520600999999999
  0
ARC
  5
7E
  8
0
 62
     7
 10
-7.2956529999999988
 20
113.283073
 30
0.0
 40
114.99901299999991
 50
5.8174259999999993
 51
11.539464999999989
  0
ARC
  5
7F
  8
0
 62
     7
 10
-485.77947999999992
 20
10.094982999999999
 30
0.0
 40
604.47734600000001
 50
12.049899999999999
 51
12.23214999999999
  0
ARC
  5
80
  8
0
 62
     7
 10
-12.779301
 20
112.4132029999999
 30
0.0
 40
120.53732599999999
 50
12.337094
 51
12.922907999999991
  0
ARC
  5
81
  8
0
 62
     7
 10
11.820722
 20
118.002308
 30
0.0
 40
95.310445000000001
 50
12.955370999999991
 51
14.853246
  0
ARC
  5
82
  8
0
 62
     7
 10
8.5638539999999992
 20
117.059496
 30
0.0
 40
98.700199999999995
 50
14.897614000000001
 51
16.064319000000001
  0
ARC
  5
83
  8
0
 62
     7
 10
-48.573209000000013
 20
100.7699979999999
 30
0.0
 40
158.1138029999999
 50
16.007304999999999
 51
16.527470999999998
  0
ARC
  5
84
  8
0
 62
     7
 10
-245.81030000000001
 20
42.101193000000002
 30
0.0
 40
363.89157299999988
 50
16.548850000000002
 51
16.970735999999992
  0
ARC
  5
85
  8
0
 62
     7
 10
110.508678
 20
114.438301
 30
0.0
 40
2.8129869999999988
 50
180.353297
 51
180.963829
  0
ARC
  5
86
  8
0
 62
     7
 10
23.705883
 20
113.6515669999999
 30
0.0
 40
83.993385000000004
 50
0.524844
 51
0.7561060000000002
  0
ARC
  5
87
  8
0
 62
     7
 10
-47.005590000000012
 20
112.6714149999999
 30
0.0
 40
154.7116419999999
 50
0.773492
 51
1.0110870000000001
  0
ARC
  5
88
  8
0
 62
     7
 10
-5.1677689999999989
 20
113.3562949999999
 30
0.0
 40
112.8682629999999
 50
1.0382409999999991
 51
1.490081999999999
  0
ARC
  5
89
  8
0
 62
     7
 10
-23.923988999999999
 20
112.82801599999991
 30
0.0
 40
131.63188299999999
 50
1.5076519999999991
 51
2.015047
  0
ARC
  5
8A
  8
0
 62
     7
 10
4.6805289999999991
 20
113.8050479999999
 30
0.0
 40
103.01070300000001
 50
2.0313789999999998
 51
2.776106
  0
ARC
  5
8B
  8
0
 62
     7
 10
-2.6980970000000002
 20
113.5343009999999
 30
0.0
 40
110.3938179999999
 50
2.730982
 51
3.538611
  0
ARC
  5
8C
  8
0
 62
     7
 10
-4.6344890000000003
 20
113.4936219999999
 30
0.0
 40
112.32905599999999
 50
3.4983589999999989
 51
4.332196999999999
  0
ARC
  5
8D
  8
0
 62
     7
 10
-6.1166949999999991
 20
113.3878689999999
 30
0.0
 40
113.8150159999999
 50
4.3289179999999989
 51
5.2187669999999988
  0
ARC
  5
8E
  8
0
 62
     7
 10
-43.149405000000002
 20
109.869506
 30
0.0
 40
151.01429999999999
 50
5.2701109999999991
 51
5.727085999999999
  0
LINE
  5
8F
  8
0
 62
     7
 10
119.876
 20
148.24299999999991
 30
0.0
 11
122.87
 21
148.24299999999991
 31
0.0
  0
LINE
  5
90
  8
0
 62
     7
 10
112.39100000000001
 20
113.315
 30
0.0
 11
132.4439999999999
 21
113.4889999999999
 31
0.0
  0
LINE
  5
91
  8
0
 62
     7
 10
132.4439999999999
 20
148.0689999999999
 30
0.0
 11
123.562
 21
148.14500000000001
 31
0.0
  0
LINE
  5
92
  8
0
 62
     7
 10
119.208
 20
148.18299999999991
 30
0.0
 11
112.39100000000001
 21
148.24299999999991
 31
0.0
  0
LINE
  5
93
  8
0
 62
     7
 10
112.18299999999989
 20
114.321
 30
0.0
 11
112.39100000000001
 21
114.325
 31
0.0
  0
ARC
  5
94
  8
0
 62
     7
 10
112.209737
 20
113.8044679999999
 30
0.0
 40
0.5172720000000001
 50
92.961820999999986
 51
178.03596099999999
  0
LINE
  5
95
  8
0
 62
     7
 10
112.39100000000001
 20
147.233
 30
0.0
 11
112.182
 21
147.2359999999999
 31
0.0
  0
ARC
  5
96
  8
0
 62
     7
 10
112.203306
 20
159.85636700000001
 30
0.0
 40
11.62487599999999
 50
266.07639999999992
 51
267.48290400000002
  0
ARC
  5
97
  8
0
 62
     7
 10
111.63673300000001
 20
151.199927
 30
0.0
 40
2.9500820000000001
 50
262.00274200000001
 51
265.5503819999999
  0
ARC
  5
98
  8
0
 62
     7
 10
111.6024449999999
 20
150.96815100000001
 30
0.0
 40
2.715789
 50
253.439931
 51
262.03878199999991
  0
ARC
  5
99
  8
0
 62
     7
 10
111.926232
 20
152.22460100000001
 30
0.0
 40
4.0126939999999998
 50
245.080172
 51
254.12185099999991
  0
ARC
  5
9A
  8
0
 62
     7
 10
112.2508559999999
 20
152.92821499999999
 30
0.0
 40
4.7875809999999994
 50
240.746668
 51
245.10490599999989
  0
ARC
  5
9B
  8
0
 62
     7
 10
112.5852399999999
 20
153.53661199999999
 30
0.0
 40
5.4817949999999991
 50
238.146038
 51
240.80485999999999
  0
ARC
  5
9C
  8
0
 62
     7
 10
112.9830279999999
 20
154.174632
 30
0.0
 40
6.2336609999999988
 50
233.78961299999989
 51
238.1353729999999
  0
ARC
  5
9D
  8
0
 62
     7
 10
113.9608799999999
 20
155.53630699999999
 30
0.0
 40
7.9100159999999997
 50
229.19683399999991
 51
233.90137799999991
  0
ARC
  5
9E
  8
0
 62
     7
 10
115.7536689999999
 20
157.66153899999989
 30
0.0
 40
10.69029699999999
 50
224.76009999999991
 51
229.366691
  0
ARC
  5
9F
  8
0
 62
     7
 10
118.15385499999999
 20
160.10536999999999
 30
0.0
 40
14.115447
 50
221.66673900000001
 51
224.94358800000001
  0
ARC
  5
A0
  8
0
 62
     7
 10
121.965935
 20
163.62830099999991
 30
0.0
 40
19.305443
 50
219.07877899999991
 51
221.9559799999999
  0
ARC
  5
A1
  8
0
 62
     7
 10
129.010097
 20
169.41500500000001
 30
0.0
 40
28.421600999999999
 50
216.85865499999991
 51
219.182695
  0
ARC
  5
A2
  8
0
 62
     7
 10
139.86038400000001
 20
177.65157400000001
 30
0.0
 40
42.043837000000003
 50
215.1188929999999
 51
216.97007400000001
  0
ARC
  5
A3
  8
0
 62
     7
 10
159.67834099999999
 20
191.66578000000001
 30
0.0
 40
66.316186000000002
 50
213.803315
 51
215.17271199999999
  0
ARC
  5
A4
  8
0
 62
     7
 10
197.84182699999991
 20
217.43835000000001
 30
0.0
 40
112.3667779999999
 50
212.96306699999991
 51
213.897021
  0
ARC
  5
A5
  8
0
 62
     7
 10
54.176643000000013
 20
124.104162
 30
0.0
 40
58.954538999999997
 50
33.100520000000003
 51
33.738906
  0
ARC
  5
A6
  8
0
 62
     7
 10
838.14952800000015
 20
646.16928499999995
 30
0.0
 40
882.94014000000004
 50
213.42184900000001
 51
213.65531899999991
  0
ARC
  5
A7
  8
0
 62
     7
 10
112.2109489999999
 20
147.75416699999991
 30
0.0
 40
0.5185649999999999
 50
182.20585899999989
 51
267.63545699999992
  0
ARC
  5
A8
  8
0
 62
     7
 10
109.81447300000001
 20
114.518332
 30
0.0
 40
2.1241810000000001
 50
185.82388299999991
 51
191.26671799999991
  0
ARC
  5
A9
  8
0
 62
     7
 10
108.550597
 20
114.30617100000001
 30
0.0
 40
0.8441059999999998
 50
193.9052879999999
 51
209.88501099999999
  0
ARC
  5
AA
  8
0
 62
     7
 10
108.74853400000001
 20
114.4042
 30
0.0
 40
1.0646539999999991
 50
209.1515
 51
220.557444
  0
ARC
  5
AB
  8
0
 62
     7
 10
108.6775929999999
 20
114.347461
 30
0.0
 40
0.973868
 50
220.73502999999991
 51
234.86176099999989
  0
ARC
  5
AC
  8
0
 62
     7
 10
108.729479
 20
114.429563
 30
0.0
 40
1.070883
 50
235.11980199999999
 51
248.49314200000001
  0
ARC
  5
AD
  8
0
 62
     7
 10
108.71609099999991
 20
114.36568
 30
0.0
 40
1.006599
 50
247.86904999999999
 51
258.55408299999988
  0
ARC
  5
AE
  8
0
 62
     7
 10
108.6017699999999
 20
113.879741
 30
0.0
 40
0.5078780000000001
 50
260.31610099999989
 51
269.14941699999991
  0
ARC
  5
AF
  8
0
 62
     7
 10
108.561959
 20
114.865455
 30
0.0
 40
1.4938849999999999
 50
271.23782199999999
 51
274.439773
  0
LINE
  5
B0
  8
0
 62
     7
 10
108.6759999999999
 20
113.367
 30
0.0
 11
111.6929999999999
 21
113.315
 31
0.0
  0
LINE
  5
B1
  8
0
 62
     7
 10
119.876
 20
148.24299999999991
 30
0.0
 11
119.7239999999999
 21
148.09
 31
0.0
  0
LINE
  5
B2
  8
0
 62
     7
 10
123.04899999999989
 20
148.0629999999999
 30
0.0
 11
122.87
 21
148.24299999999991
 31
0.0
  0
ARC
  5
B3
  8
0
 62
     7
 10
63.742404000000001
 20
125.11042500000001
 30
0.0
 40
11.709386999999991
 50
180.41788399999999
 51
231.169489
  0
ARC
  5
B4
  8
0
 62
     7
 10
64.023325999999997
 20
125.51715
 30
0.0
 40
12.202424000000001
 50
231.33939599999999
 51
270.04713099999992
  0
ARC
  5
B5
  8
0
 62
     7
 10
63.918151000000002
 20
125.69535
 30
0.0
 40
12.38115599999999
 50
270.53316799999999
 51
325.67201299999999
  0
ARC
  5
B6
  8
0
 62
     7
 10
64.446906000000013
 20
125.056549
 30
0.0
 40
11.586529999999989
 50
326.80626000000001
 51
359.8441259999999
  0
LINE
  5
B7
  8
0
 62
     7
 10
52.033299999999997
 20
136.46100000000001
 30
0.0
 11
52.033299999999997
 21
125.02500000000001
 31
0.0
  0
LINE
  5
B8
  8
0
 62
     7
 10
76.0334
 20
125.02500000000001
 30
0.0
 11
76.0334
 21
136.46100000000001
 31
0.0
  0
ARC
  5
B9
  8
0
 62
     7
 10
83.418370999999993
 20
136.74832499999999
 30
0.0
 40
7.3872059999999991
 50
180.378736
 51
181.16974399999989
  0
LINE
  5
BA
  8
0
 62
     7
 10
76.031300000000002
 20
136.6989999999999
 30
0.0
 11
76.027199999999993
 21
136.9439999999999
 31
0.0
  0
ARC
  5
BB
  8
0
 62
     7
 10
-64.488230999999999
 20
134.62257600000001
 30
0.0
 40
140.534606
 50
0.946666
 51
1.9845749999999991
  0
ARC
  5
BC
  8
0
 62
     7
 10
-123.6471699999999
 20
132.67071100000001
 30
0.0
 40
199.72567799999999
 50
1.956459999999999
 51
2.6733759999999989
  0
ARC
  5
BD
  8
0
 62
     7
 10
-227.38275299999989
 20
127.836777
 30
0.0
 40
303.573826
 50
2.671527999999999
 51
3.138533999999999
  0
ARC
  5
BE
  8
0
 62
     7
 10
-578.352712
 20
109.0370909999999
 30
0.0
 40
655.04679699999986
 50
3.0996769999999998
 51
3.3657900000000001
  0
ARC
  5
BF
  8
0
 62
     7
 10
2262.6262299999989
 20
272.89816200000001
 30
0.0
 40
2190.6539999999991
 50
183.17944399999999
 51
183.28168500000001
  0
ARC
  5
C0
  8
0
 62
     7
 10
611.95932100000005
 20
180.97746599999999
 30
0.0
 40
537.43007099999988
 50
182.654606
 51
183.15509800000001
  0
ARC
  5
C1
  8
0
 62
     7
 10
567.88576499999999
 20
178.68297000000001
 30
0.0
 40
493.29760399999992
 50
182.2784749999999
 51
182.62547900000001
  0
ARC
  5
C2
  8
0
 62
     7
 10
574.40319599999998
 20
137.43995799999999
 30
0.0
 40
521.762878
 50
177.62390899999991
 51
177.695243
  0
ARC
  5
C3
  8
0
 62
     7
 10
-385.69042899999999
 20
176.30738799999989
 30
0.0
 40
439.11718999999999
 50
357.00700499999999
 51
357.66572300000001
  0
ARC
  5
C4
  8
0
 62
     7
 10
-677.11817400000007
 20
190.9099709999999
 30
0.0
 40
730.91013899999984
 50
356.65816100000001
 51
357.05669599999987
  0
ARC
  5
C5
  8
0
 62
     7
 10
3892.616
 20
-71.982015000000004
 30
0.0
 40
3846.3799999999992
 50
176.71681299999989
 51
176.77056899999991
  0
ARC
  5
C6
  8
0
 62
     7
 10
549.055341
 20
117.67102
 30
0.0
 40
497.44612799999999
 50
176.88524199999989
 51
177.11419599999999
  0
ARC
  5
C7
  8
0
 62
     7
 10
339.652737
 20
128.64580900000001
 30
0.0
 40
287.75684799999988
 50
177.197518
 51
177.59462199999999
  0
ARC
  5
C8
  8
0
 62
     7
 10
206.69741499999989
 20
134.32862499999999
 30
0.0
 40
154.68020000000001
 50
177.63084599999999
 51
178.38306900000001
  0
ARC
  5
C9
  8
0
 62
     7
 10
235.71043499999999
 20
133.7204769999999
 30
0.0
 40
183.698949
 50
178.448801
 51
179.1025919999999
  0
ARC
  5
CA
  8
0
 62
     7
 10
56.05966200000001
 20
-2135.4119999999998
 30
0.0
 40
2295.762999999999
 50
89.565647999999996
 51
89.642825999999999
  0
ARC
  5
CB
  8
0
 62
     7
 10
67.422805000000011
 20
-424.28247699999991
 30
0.0
 40
584.59638299999995
 50
89.711072999999985
 51
89.915272999999985
  0
ARC
  5
CC
  8
0
 62
     7
 10
65.38382
 20
-1838.6959999999999
 30
0.0
 40
1999.011
 50
89.916774000000004
 51
90.030796999999978
  0
ARC
  5
CD
  8
0
 62
     7
 10
63.578330000000001
 20
-3506.1770000000001
 30
0.0
 40
3666.4920000000002
 50
89.988571999999991
 51
90.068402000000006
  0
ARC
  5
CE
  8
0
 62
     7
 10
60.611321999999987
 20
-439.35421799999989
 30
0.0
 40
599.66842299999996
 50
90.134787000000003
 51
90.333239999999975
  0
ARC
  5
CF
  8
0
 62
     7
 10
62.614956999999997
 20
-754.13774599999988
 30
0.0
 40
914.45829700000002
 50
90.344061999999965
 51
90.501943000000011
  0
ARC
  5
D0
  8
0
 62
     7
 10
73.02436800000001
 20
159.126688
 30
0.0
 40
1.945579999999999
 50
358.82827999999989
 51
1.923128999999999
  0
ARC
  5
D1
  8
0
 62
     7
 10
74.294720999999996
 20
159.14175499999999
 30
0.0
 40
0.6759990000000001
 50
4.2606950000000001
 51
18.482050000000001
  0
ARC
  5
D2
  8
0
 62
     7
 10
73.829611
 20
159.00241800000001
 30
0.0
 40
1.1613919999999991
 50
17.72758
 51
23.444341999999988
  0
ARC
  5
D3
  8
0
 62
     7
 10
73.676440999999997
 20
158.93609900000001
 30
0.0
 40
1.328303
 50
23.440200999999998
 51
35.204208000000001
  0
ARC
  5
D4
  8
0
 62
     7
 10
73.847538999999983
 20
159.0528459999999
 30
0.0
 40
1.1211999999999991
 50
35.369889000000001
 51
48.750546
  0
ARC
  5
D5
  8
0
 62
     7
 10
73.702646999999985
 20
158.91289599999999
 30
0.0
 40
1.3220590000000001
 50
48.028432999999993
 51
59.487999000000002
  0
ARC
  5
D6
  8
0
 62
     7
 10
73.588968999999992
 20
158.72930299999999
 30
0.0
 40
1.5379519999999991
 50
59.312075999999998
 51
69.815477000000001
  0
ARC
  5
D7
  8
0
 62
     7
 10
73.456075999999996
 20
158.344886
 30
0.0
 40
1.944629999999999
 50
70.048532999999992
 51
79.320045999999991
  0
ARC
  5
D8
  8
0
 62
     7
 10
73.332295000000002
 20
157.89494500000001
 30
0.0
 40
2.4100199999999998
 50
78.410578999999998
 51
81.487853999999984
  0
ARC
  5
D9
  8
0
 62
     7
 10
73.531028000000006
 20
159.21109199999989
 30
0.0
 40
1.078956
 50
81.579660000000004
 51
93.010568999999975
  0
ARC
  5
DA
  8
0
 62
     7
 10
73.464370000000002
 20
160.42222299999989
 30
0.0
 40
0.134036
 50
268.82171599999998
 51
274.27461899999992
  0
ARC
  5
DB
  8
0
 62
     7
 10
54.602672999999989
 20
160.69638
 30
0.0
 40
0.408169
 50
267.633039
 51
270.24515700000001
  0
ARC
  5
DC
  8
0
 62
     7
 10
54.550224999999998
 20
159.01820499999991
 30
0.0
 40
1.270853
 50
88.395172000000017
 51
98.616421000000003
  0
ARC
  5
DD
  8
0
 62
     7
 10
54.645057000000001
 20
158.26987199999991
 30
0.0
 40
2.0250309999999998
 50
98.097144999999983
 51
101.809287
  0
ARC
  5
DE
  8
0
 62
     7
 10
54.661605000000002
 20
158.17972499999991
 30
0.0
 40
2.116657
 50
101.74835400000001
 51
110.9121189999999
  0
ARC
  5
DF
  8
0
 62
     7
 10
54.453306999999988
 20
158.78275999999991
 30
0.0
 40
1.479139999999999
 50
111.712703
 51
123.751007
  0
ARC
  5
E0
  8
0
 62
     7
 10
54.31712499999999
 20
158.96468200000001
 30
0.0
 40
1.252278
 50
123.19479799999991
 51
136.48607200000001
  0
ARC
  5
E1
  8
0
 62
     7
 10
54.265040999999997
 20
159.007139
 30
0.0
 40
1.185284
 50
136.24092999999991
 51
149.878984
  0
ARC
  5
E2
  8
0
 62
     7
 10
54.197972
 20
159.04060799999999
 30
0.0
 40
1.1104849999999991
 50
149.6360929999999
 51
164.242108
  0
ARC
  5
E3
  8
0
 62
     7
 10
54.043022000000001
 20
159.106717
 30
0.0
 40
0.9436519999999999
 50
165.550308
 51
170.62327300000001
  0
ARC
  5
E4
  8
0
 62
     7
 10
55.247668999999988
 20
158.91326100000001
 30
0.0
 40
2.163729
 50
170.766167
 51
175.854455
  0
LINE
  5
E5
  8
0
 62
     7
 10
160.126
 20
118.029
 30
0.0
 11
158.71600000000001
 21
121.5289999999999
 31
0.0
  0
LINE
  5
E6
  8
0
 62
     7
 10
158.13200000000001
 20
118.029
 30
0.0
 11
156.72200000000001
 21
121.5289999999999
 31
0.0
  0
LINE
  5
E7
  8
0
 62
     7
 10
156.136
 20
118.029
 30
0.0
 11
154.72799999999989
 21
121.5289999999999
 31
0.0
  0
LINE
  5
E8
  8
0
 62
     7
 10
154.143
 20
118.029
 30
0.0
 11
152.733
 21
121.5289999999999
 31
0.0
  0
LINE
  5
E9
  8
0
 62
     7
 10
152.149
 20
118.029
 30
0.0
 11
150.739
 21
121.5289999999999
 31
0.0
  0
LINE
  5
EA
  8
0
 62
     7
 10
150.15499999999989
 20
118.029
 30
0.0
 11
148.745
 21
121.5289999999999
 31
0.0
  0
LINE
  5
EB
  8
0
 62
     7
 10
148.16
 20
118.029
 30
0.0
 11
146.75200000000001
 21
121.5289999999999
 31
0.0
  0
LINE
  5
EC
  8
0
 62
     7
 10
146.166
 20
118.029
 30
0.0
 11
144.756
 21
121.5289999999999
 31
0.0
  0
LINE
  5
ED
  8
0
 62
     7
 10
144.17199999999991
 20
118.029
 30
0.0
 11
142.762
 21
121.5289999999999
 31
0.0
  0
LINE
  5
EE
  8
0
 62
     7
 10
134.20599999999999
 20
118.029
 30
0.0
 11
132.7949999999999
 21
121.5289999999999
 31
0.0
  0
LINE
  5
EF
  8
0
 62
     7
 10
136.1989999999999
 20
118.029
 30
0.0
 11
134.7889999999999
 21
121.5289999999999
 31
0.0
  0
LINE
  5
F0
  8
0
 62
     7
 10
138.19200000000001
 20
118.029
 30
0.0
 11
136.78200000000001
 21
121.5289999999999
 31
0.0
  0
LINE
  5
F1
  8
0
 62
     7
 10
140.18600000000001
 20
118.029
 30
0.0
 11
138.77600000000001
 21
121.5289999999999
 31
0.0
  0
LINE
  5
F2
  8
0
 62
     7
 10
142.179
 20
118.029
 30
0.0
 11
140.76900000000001
 21
121.5289999999999
 31
0.0
  0
LINE
  5
F3
  8
0
 62
     7
 10
160.39400000000001
 20
118.94199999999999
 30
0.0
 11
162.44499999999991
 21
119.7789999999999
 31
0.0
  0
LINE
  5
F4
  8
0
 62
     7
 10
160.39400000000001
 20
120.61499999999999
 30
0.0
 11
162.44499999999991
 21
119.7789999999999
 31
0.0
  0
LINE
  5
F5
  8
0
 62
     7
 10
160.39400000000001
 20
120.61499999999999
 30
0.0
 11
132.4439999999999
 21
120.61499999999999
 31
0.0
  0
LINE
  5
F6
  8
0
 62
     7
 10
160.39400000000001
 20
118.94199999999999
 30
0.0
 11
132.4439999999999
 21
118.94199999999999
 31
0.0
  0
LINE
  5
F7
  8
0
  6
AIGENLINE002
 62
     7
 10
163.589
 20
119.7789999999999
 30
0.0
 11
131.02600000000001
 21
119.7789999999999
 31
0.0
  0
LINE
  5
F8
  8
0
 62
     7
 10
160.126
 20
140.029
 30
0.0
 11
158.71600000000001
 21
143.52899999999991
 31
0.0
  0
LINE
  5
F9
  8
0
 62
     7
 10
158.13200000000001
 20
140.029
 30
0.0
 11
156.72200000000001
 21
143.52899999999991
 31
0.0
  0
LINE
  5
FA
  8
0
 62
     7
 10
156.136
 20
140.029
 30
0.0
 11
154.72799999999989
 21
143.52899999999991
 31
0.0
  0
LINE
  5
FB
  8
0
 62
     7
 10
154.143
 20
140.029
 30
0.0
 11
152.733
 21
143.52899999999991
 31
0.0
  0
LINE
  5
FC
  8
0
 62
     7
 10
152.149
 20
140.029
 30
0.0
 11
150.739
 21
143.52899999999991
 31
0.0
  0
LINE
  5
FD
  8
0
 62
     7
 10
150.15499999999989
 20
140.029
 30
0.0
 11
148.745
 21
143.52899999999991
 31
0.0
  0
LINE
  5
FE
  8
0
 62
     7
 10
148.16
 20
140.029
 30
0.0
 11
146.75200000000001
 21
143.52899999999991
 31
0.0
  0
LINE
  5
FF
  8
0
 62
     7
 10
146.166
 20
140.029
 30
0.0
 11
144.756
 21
143.52899999999991
 31
0.0
  0
LINE
  5
100
  8
0
 62
     7
 10
144.17199999999991
 20
140.029
 30
0.0
 11
142.762
 21
143.52899999999991
 31
0.0
  0
LINE
  5
101
  8
0
 62
     7
 10
134.20599999999999
 20
140.029
 30
0.0
 11
132.7949999999999
 21
143.52899999999991
 31
0.0
  0
LINE
  5
102
  8
0
 62
     7
 10
136.1989999999999
 20
140.029
 30
0.0
 11
134.7889999999999
 21
143.52899999999991
 31
0.0
  0
LINE
  5
103
  8
0
 62
     7
 10
138.19200000000001
 20
140.029
 30
0.0
 11
136.78200000000001
 21
143.52899999999991
 31
0.0
  0
LINE
  5
104
  8
0
 62
     7
 10
140.18600000000001
 20
140.029
 30
0.0
 11
138.77600000000001
 21
143.52899999999991
 31
0.0
  0
LINE
  5
105
  8
0
 62
     7
 10
142.179
 20
140.029
 30
0.0
 11
140.76900000000001
 21
143.52899999999991
 31
0.0
  0
LINE
  5
106
  8
0
 62
     7
 10
160.39400000000001
 20
140.94200000000001
 30
0.0
 11
162.44499999999991
 21
141.77899999999991
 31
0.0
  0
LINE
  5
107
  8
0
 62
     7
 10
160.39400000000001
 20
142.6149999999999
 30
0.0
 11
162.44499999999991
 21
141.77899999999991
 31
0.0
  0
LINE
  5
108
  8
0
 62
     7
 10
160.39400000000001
 20
142.6149999999999
 30
0.0
 11
132.4439999999999
 21
142.6149999999999
 31
0.0
  0
LINE
  5
109
  8
0
 62
     7
 10
160.39400000000001
 20
140.94200000000001
 30
0.0
 11
132.4439999999999
 21
140.94200000000001
 31
0.0
  0
LINE
  5
10A
  8
0
  6
AIGENLINE002
 62
     7
 10
163.589
 20
141.77899999999991
 30
0.0
 11
131.02600000000001
 21
141.77899999999991
 31
0.0
  0
LINE
  5
10B
  8
0
  6
AIGENLINE002
 62
     7
 10
59.377600000000001
 20
119.7789999999999
 30
0.0
 11
68.877499999999998
 21
119.7789999999999
 31
0.0
  0
LINE
  5
10C
  8
0
  6
AIGENLINE002
 62
     7
 10
59.377600000000001
 20
141.74600000000001
 30
0.0
 11
68.877499999999998
 21
141.74600000000001
 31
0.0
  0
LINE
  5
10D
  8
0
  6
AIGENLINE002
 62
     7
 10
64.0334
 20
163.244
 30
0.0
 11
64.0334
 21
109.41799999999991
 31
0.0
  0
LINE
  5
10E
  8
0
 62
     7
 10
136.0329999999999
 20
145.4499999999999
 30
0.0
 11
134.7889999999999
 21
143.52899999999991
 31
0.0
  0
LINE
  5
10F
  8
0
 62
     7
 10
134.7889999999999
 20
143.52899999999991
 30
0.0
 11
134.90600000000001
 21
145.815
 31
0.0
  0
LINE
  5
110
  8
0
 62
     7
 10
134.90600000000001
 20
145.815
 30
0.0
 11
136.0329999999999
 21
145.4499999999999
 31
0.0
  0
LINE
  5
111
  8
0
 62
     7
 10
134.7889999999999
 20
143.52899999999991
 30
0.0
 11
139.75200000000001
 21
159.52799999999991
 31
0.0
  0
LINE
  5
112
  8
0
 62
     7
 10
180.86000000000001
 20
159.52799999999991
 30
0.0
 11
139.75200000000001
 21
159.52799999999991
 31
0.0
  0
LINE
  5
113
  8
0
 62
     7
 10
41.307600000000001
 20
158.042
 30
0.0
 11
41.900199999999991
 21
160.25200000000001
 31
0.0
  0
LINE
  5
114
  8
0
 62
     7
 10
41.900199999999991
 20
160.25200000000001
 30
0.0
 11
42.492800000000003
 21
158.042
 31
0.0
  0
LINE
  5
115
  8
0
 62
     7
 10
42.492800000000003
 20
158.042
 30
0.0
 11
41.307600000000001
 21
158.042
 31
0.0
  0
LINE
  5
116
  8
0
 62
     7
 10
42.477600000000002
 20
115.526
 30
0.0
 11
41.8857
 21
113.315
 31
0.0
  0
LINE
  5
117
  8
0
 62
     7
 10
41.8857
 20
113.315
 30
0.0
 11
41.293199999999992
 21
115.526
 31
0.0
  0
LINE
  5
118
  8
0
 62
     7
 10
41.293199999999992
 20
115.526
 30
0.0
 11
42.477600000000002
 21
115.526
 31
0.0
  0
LINE
  5
119
  8
0
 62
     7
 10
41.892599999999987
 20
160.25200000000001
 30
0.0
 11
41.892599999999987
 21
113.315
 31
0.0
  0
LINE
  5
11A
  8
0
 62
     7
 10
130.23400000000001
 20
102.086
 30
0.0
 11
132.4439999999999
 21
101.4939999999999
 31
0.0
  0
LINE
  5
11B
  8
0
 62
     7
 10
132.4439999999999
 20
101.4939999999999
 30
0.0
 11
130.23400000000001
 21
100.901
 31
0.0
  0
LINE
  5
11C
  8
0
 62
     7
 10
130.23400000000001
 20
100.901
 30
0.0
 11
130.23400000000001
 21
102.086
 31
0.0
  0
LINE
  5
11D
  8
0
 62
     7
 10
100.604
 20
100.916
 30
0.0
 11
98.393199999999993
 21
101.5079999999999
 31
0.0
  0
LINE
  5
11E
  8
0
 62
     7
 10
98.393199999999993
 20
101.5079999999999
 30
0.0
 11
100.604
 21
102.1009999999999
 31
0.0
  0
LINE
  5
11F
  8
0
 62
     7
 10
100.604
 20
102.1009999999999
 30
0.0
 11
100.604
 21
100.916
 31
0.0
  0
LINE
  5
120
  8
0
 62
     7
 10
132.4439999999999
 20
101.50099999999991
 30
0.0
 11
98.393199999999993
 21
101.50099999999991
 31
0.0
  0
LINE
  5
121
  8
0
 62
     7
 10
175.553
 20
145.85799999999989
 30
0.0
 11
176.1459999999999
 21
148.0689999999999
 31
0.0
  0
LINE
  5
122
  8
0
 62
     7
 10
176.1459999999999
 20
148.0689999999999
 30
0.0
 11
176.73799999999989
 21
145.85799999999989
 31
0.0
  0
LINE
  5
123
  8
0
 62
     7
 10
176.73799999999989
 20
145.85799999999989
 30
0.0
 11
175.553
 21
145.85799999999989
 31
0.0
  0
LINE
  5
124
  8
0
 62
     7
 10
176.7229999999999
 20
115.7
 30
0.0
 11
176.13099999999989
 21
113.4889999999999
 31
0.0
  0
LINE
  5
125
  8
0
 62
     7
 10
176.13099999999989
 20
113.4889999999999
 30
0.0
 11
175.53899999999999
 21
115.7
 31
0.0
  0
LINE
  5
126
  8
0
 62
     7
 10
175.53899999999999
 20
115.7
 30
0.0
 11
176.7229999999999
 21
115.7
 31
0.0
  0
LINE
  5
127
  8
0
 62
     7
 10
176.13800000000001
 20
148.0689999999999
 30
0.0
 11
176.13800000000001
 21
113.4889999999999
 31
0.0
  0
LINE
  5
128
  8
0
 62
     7
 10
176.84599999999989
 20
148.0689999999999
 30
0.0
 11
133.14400000000001
 21
148.0689999999999
 31
0.0
  0
LINE
  5
129
  8
0
 62
     7
 10
176.84599999999989
 20
113.4889999999999
 30
0.0
 11
133.14400000000001
 21
113.4889999999999
 31
0.0
  0
LINE
  5
12A
  8
0
 62
     7
 10
169.19200000000001
 20
139.5679999999999
 30
0.0
 11
169.785
 21
141.77899999999991
 31
0.0
  0
LINE
  5
12B
  8
0
 62
     7
 10
169.785
 20
141.77899999999991
 30
0.0
 11
170.3779999999999
 21
139.5679999999999
 31
0.0
  0
LINE
  5
12C
  8
0
 62
     7
 10
170.3779999999999
 20
139.5679999999999
 30
0.0
 11
169.19200000000001
 21
139.5679999999999
 31
0.0
  0
LINE
  5
12D
  8
0
 62
     7
 10
170.36199999999991
 20
121.9899999999999
 30
0.0
 11
169.7709999999999
 21
119.7789999999999
 31
0.0
  0
LINE
  5
12E
  8
0
 62
     7
 10
169.7709999999999
 20
119.7789999999999
 30
0.0
 11
169.178
 21
121.9899999999999
 31
0.0
  0
LINE
  5
12F
  8
0
 62
     7
 10
169.178
 20
121.9899999999999
 30
0.0
 11
170.36199999999991
 21
121.9899999999999
 31
0.0
  0
LINE
  5
130
  8
0
 62
     7
 10
169.77699999999999
 20
141.77899999999991
 30
0.0
 11
169.77699999999999
 21
119.7789999999999
 31
0.0
  0
LINE
  5
131
  8
0
 62
     7
 10
170.48500000000001
 20
141.77899999999991
 30
0.0
 11
164.28899999999999
 21
141.77899999999991
 31
0.0
  0
LINE
  5
132
  8
0
 62
     7
 10
170.48500000000001
 20
119.7789999999999
 30
0.0
 11
164.28899999999999
 21
119.7789999999999
 31
0.0
  0
LINE
  5
133
  8
0
 62
     7
 10
73.822999999999993
 20
102.086
 30
0.0
 11
76.0334
 21
101.4939999999999
 31
0.0
  0
LINE
  5
134
  8
0
 62
     7
 10
76.0334
 20
101.4939999999999
 30
0.0
 11
73.822999999999993
 21
100.901
 31
0.0
  0
LINE
  5
135
  8
0
 62
     7
 10
73.822999999999993
 20
100.901
 30
0.0
 11
73.822999999999993
 21
102.086
 31
0.0
  0
LINE
  5
136
  8
0
 62
     7
 10
54.244399999999999
 20
100.916
 30
0.0
 11
52.033299999999997
 21
101.5079999999999
 31
0.0
  0
LINE
  5
137
  8
0
 62
     7
 10
52.033299999999997
 20
101.5079999999999
 30
0.0
 11
54.244399999999999
 21
102.1009999999999
 31
0.0
  0
LINE
  5
138
  8
0
 62
     7
 10
54.244399999999999
 20
102.1009999999999
 30
0.0
 11
54.244399999999999
 21
100.916
 31
0.0
  0
LINE
  5
139
  8
0
 62
     7
 10
76.0334
 20
101.50099999999991
 30
0.0
 11
52.033299999999997
 21
101.50099999999991
 31
0.0
  0
LINE
  5
13A
  8
0
 62
     7
 10
76.0334
 20
100.794
 30
0.0
 11
76.0334
 21
121.52500000000001
 31
0.0
  0
LINE
  5
13B
  8
0
 62
     7
 10
60.53309999999999
 20
113.315
 30
0.0
 11
41.200200000000002
 21
113.315
 31
0.0
  0
LINE
  5
13C
  8
0
 62
     7
 10
52.830500000000001
 20
160.25200000000001
 30
0.0
 11
41.200200000000002
 21
160.25200000000001
 31
0.0
  0
LINE
  5
13D
  8
0
 62
     7
 10
132.4439999999999
 20
100.794
 30
0.0
 11
132.4439999999999
 21
112.789
 31
0.0
  0
LINE
  5
13E
  8
0
 62
     7
 10
98.393199999999993
 20
100.794
 30
0.0
 11
98.393199999999993
 21
157.39799999999991
 31
0.0
  0
LINE
  5
13F
  8
0
 62
     7
 10
52.033299999999997
 20
100.794
 30
0.0
 11
52.033299999999997
 21
121.52500000000001
 31
0.0
  0
TEXT
  5
140
  8
_________2
 62
     7
 10
143.07741250000001
 20
30.627400000000002
 30
0.0
 40
3.9357000000000002
  1
GE4560
 41
0.5
 72
     1
 11
148.489
 21
30.627400000000002
 31
0.0
  0
TEXT
  5
141
  8
_________2
 62
     7
 10
143.07741250000001
 20
20.6266
 30
0.0
 40
3.9357000000000002
  1
GE4560
 41
0.5
 72
     1
 11
148.489
 21
20.6266
 31
0.0
  0
LINE
  5
142
  8
_________2
 62
     7
 10
210.24000000000001
 20
148.93100000000001
 30
0.0
 11
188.49000000000001
 21
148.93100000000001
 31
0.0
  0
LINE
  5
143
  8
_________2
 62
     7
 10
105.2389999999999
 20
17.4282
 30
0.0
 11
105.2389999999999
 21
0.4482100000000001
 31
0.0
  0
LINE
  5
144
  8
_________2
 62
     7
 10
105.2389999999999
 20
297.44999999999987
 30
0.0
 11
105.2389999999999
 21
280.42999999999989
 31
0.0
  0
LINE
  5
145
  8
_________2
 62
     7
 10
21.988499999999991
 20
148.93100000000001
 30
0.0
 11
0.238058
 21
148.93100000000001
 31
0.0
  0
LINE
  5
146
  8
_________2
 62
     7
 10
81.679900000000004
 20
51.323999999999998
 30
0.0
 11
79.493700000000004
 21
51.323999999999998
 31
0.0
  0
LINE
  5
147
  8
_________2
 62
     7
 10
82.172600000000017
 20
51.323999999999998
 30
0.0
 11
81.920400000000001
 21
51.323999999999998
 31
0.0
  0
LINE
  5
148
  8
_________2
 62
     7
 10
82.665199999999984
 20
51.323999999999998
 30
0.0
 11
85.590100000000007
 21
51.323999999999998
 31
0.0
  0
LINE
  5
149
  8
_________2
 62
     7
 10
82.172600000000017
 20
51.323999999999998
 30
0.0
 11
82.424800000000005
 21
51.323999999999998
 31
0.0
  0
LINE
  5
14A
  8
_________2
 62
     7
 10
75.776399999999995
 20
51.323999999999998
 30
0.0
 11
73.589399999999998
 21
51.323999999999998
 31
0.0
  0
LINE
  5
14B
  8
_________2
 62
     7
 10
76.2684
 20
51.323999999999998
 30
0.0
 11
76.016900000000007
 21
51.323999999999998
 31
0.0
  0
LINE
  5
14C
  8
_________2
 62
     7
 10
76.2684
 20
51.816600000000001
 30
0.0
 11
76.2684
 21
54.003599999999999
 31
0.0
  0
LINE
  5
14D
  8
_________2
 62
     7
 10
76.2684
 20
51.323999999999998
 30
0.0
 11
76.2684
 21
51.576500000000003
 31
0.0
  0
LINE
  5
14E
  8
_________2
 62
     7
 10
76.76100000000001
 20
51.323999999999998
 30
0.0
 11
78.947999999999993
 21
51.323999999999998
 31
0.0
  0
LINE
  5
14F
  8
_________2
 62
     7
 10
76.2684
 20
51.323999999999998
 30
0.0
 11
76.520499999999998
 21
51.323999999999998
 31
0.0
  0
LINE
  5
150
  8
_________2
 62
     7
 10
76.2684
 20
50.832000000000001
 30
0.0
 11
76.2684
 21
48.645400000000002
 31
0.0
  0
LINE
  5
151
  8
_________2
 62
     7
 10
76.2684
 20
51.323999999999998
 30
0.0
 11
76.2684
 21
51.072499999999998
 31
0.0
  0
LINE
  5
152
  8
_________2
 62
     7
 10
79.979399999999984
 20
50.104399999999998
 30
0.0
 11
85.157399999999996
 21
49.239699999999999
 31
0.0
  0
LINE
  5
153
  8
_________2
 62
     7
 10
79.979399999999984
 20
52.543900000000001
 30
0.0
 11
85.157399999999996
 21
53.409300000000002
 31
0.0
  0
LINE
  5
154
  8
_________2
 62
     7
 10
85.157399999999996
 20
49.239699999999999
 30
0.0
 11
85.157399999999996
 21
53.409300000000002
 31
0.0
  0
LINE
  5
155
  8
_________2
 62
     7
 10
79.979399999999984
 20
50.104399999999998
 30
0.0
 11
79.979399999999984
 21
52.543900000000001
 31
0.0
  0
ARC
  5
156
  8
_________2
 62
     7
 10
76.221766000000002
 20
51.277037
 30
0.0
 40
1.267714
 50
2.1220840000000001
 51
87.894083999999992
  0
ARC
  5
157
  8
_________2
 62
     7
 10
76.315297000000001
 20
51.277389999999997
 30
0.0
 40
1.267374999999999
 50
92.122849999999985
 51
177.893304
  0
ARC
  5
158
  8
_________2
 62
     7
 10
76.315273000000005
 20
51.370902000000001
 30
0.0
 40
1.267363
 50
182.12181499999991
 51
267.87821400000001
  0
ARC
  5
159
  8
_________2
 62
     7
 10
76.221461000000005
 20
51.371583999999999
 30
0.0
 40
1.2680439999999991
 50
272.11916400000001
 51
357.84848499999993
  0
ARC
  5
15A
  8
_________2
 62
     7
 10
76.187981999999991
 20
51.243968000000002
 30
0.0
 40
2.1668310000000002
 50
2.1161439999999989
 51
87.874379000000005
  0
ARC
  5
15B
  8
_________2
 62
     7
 10
76.348411999999996
 20
51.244990000000001
 30
0.0
 40
2.1657980000000001
 50
92.118487999999999
 51
177.90988599999989
  0
ARC
  5
15C
  8
_________2
 62
     7
 10
76.348354
 20
51.403983000000011
 30
0.0
 40
2.1657779999999991
 50
182.11700400000001
 51
267.88302499999992
  0
ARC
  5
15D
  8
_________2
 62
     7
 10
76.188378999999983
 20
51.404665999999992
 30
0.0
 40
2.1664590000000001
 50
272.11546800000002
 51
357.86560400000002
  0
TEXT
  5
15E
  8
_________2
 62
     7
 10
109.5439999999999
 20
23.198699999999992
 30
0.0
 40
3.0923400000000001
  1
図番
 41
0.5
  0
LINE
  5
15F
  8
_________2
 62
     7
 10
108.4889999999999
 20
27.428000000000001
 30
0.0
 11
188.49000000000001
 21
27.428000000000001
 31
0.0
  0
TEXT
  5
160
  8
_________2
 62
     7
 10
109.5439999999999
 20
33.198500000000003
 30
0.0
 40
3.0923400000000001
  1
品番
 41
0.5
  0
TEXT
  5
161
  8
_________2
 62
     7
 10
109.5439999999999
 20
53.337699999999998
 30
0.0
 40
3.0923400000000001
  1
名称
 41
0.5
  0
TEXT
  5
162
  8
_________2
 62
     7
 10
96.784158333333338
 20
48.341500000000011
 30
0.0
 40
3.6545800000000002
  1
mm
 41
0.5
 72
     1
 11
98.306899999999999
 21
48.341500000000011
 31
0.0
  0
TEXT
  5
163
  8
_________2
 62
     7
 10
90.582099999999997
 20
53.337699999999998
 30
0.0
 40
3.0923400000000001
  1
単位
 41
0.5
  0
TEXT
  5
164
  8
_________2
 62
     7
 10
90.582099999999997
 20
40.930100000000003
 30
0.0
 40
3.0923400000000001
  1
尺度
 41
0.5
  0
TEXT
  5
165
  8
_________2
 62
     7
 10
95.792406999999983
 20
34.73749999999999
 30
0.0
 40
3.6545800000000002
  1
1 ： 1
 41
0.5
 72
     1
 11
98.898799999999994
 21
34.73749999999999
 31
0.0
  0
TEXT
  5
166
  8
_________2
 62
     7
 10
114.11799999999999
 20
45.7453
 30
0.0
 40
3.9357000000000002
  1
ウィンク　フック
 41
0.5
  0
TEXT
  5
167
  8
_________2
 62
     7
 10
44.364200333333329
 20
35.122599999999991
 30
0.0
 40
3.6545800000000002
  1
早川
 41
0.5
 72
     1
 11
46.252400000000002
 21
35.122599999999991
 31
0.0
  0
TEXT
  5
168
  8
_________2
 62
     7
 10
25.729290666666671
 20
35.122599999999991
 30
0.0
 40
3.6545800000000002
  1
菅原
 41
0.5
 72
     1
 11
27.6784
 21
35.122599999999991
 31
0.0
  0
TEXT
  5
169
  8
_________2
 62
     7
 10
72.724699999999999
 20
34.73749999999999
 30
0.0
 40
3.6545800000000002
  1
13.12.09
 41
0.5
  0
TEXT
  5
16A
  8
_________2
 62
     7
 10
71.531999999999996
 20
40.930100000000003
 30
0.0
 40
3.0923400000000001
  1
日付
 41
0.5
  0
TEXT
  5
16B
  8
_________2
 62
     7
 10
34.578299999999992
 20
40.930100000000003
 30
0.0
 40
3.0923400000000001
  1
検図
 41
0.5
  0
TEXT
  5
16C
  8
_________2
 62
     7
 10
22.960000000000001
 20
26.730699999999999
 30
0.0
 40
3.0923400000000001
  1
備考
 41
0.5
  0
TEXT
  5
16D
  8
_________2
 62
     7
 10
22.960000000000001
 20
40.930100000000003
 30
0.0
 40
3.0923400000000001
  1
製図
 41
0.5
  0
TEXT
  5
16E
  8
_________2
 62
     7
 10
28.727365333333339
 20
49.456000000000003
 30
0.0
 40
4.4979399999999989
  1
セラトレーディング株式会社
 41
0.5
 72
     1
 11
46.119399999999992
 21
49.456000000000003
 31
0.0
  0
LINE
  5
16F
  8
_________2
 62
     7
 10
188.49000000000001
 20
17.4282
 30
0.0
 11
21.988499999999991
 21
17.4282
 31
0.0
  0
LINE
  5
170
  8
_________2
 62
     7
 10
21.988499999999991
 20
17.4282
 30
0.0
 11
21.988499999999991
 21
280.42999999999989
 31
0.0
  0
LINE
  5
171
  8
_________2
 62
     7
 10
21.988499999999991
 20
280.42999999999989
 30
0.0
 11
188.49000000000001
 21
280.42999999999989
 31
0.0
  0
LINE
  5
172
  8
_________2
 62
     7
 10
188.49000000000001
 20
280.42999999999989
 30
0.0
 11
188.49000000000001
 21
17.4282
 31
0.0
  0
LINE
  5
173
  8
_________2
 62
     7
 10
70.488799999999998
 20
30.9285
 30
0.0
 11
70.488799999999998
 21
57.428400000000011
 31
0.0
  0
LINE
  5
174
  8
_________2
 62
     7
 10
89.488600000000005
 20
30.9285
 30
0.0
 11
89.488600000000005
 21
57.428400000000011
 31
0.0
  0
LINE
  5
175
  8
_________2
 62
     7
 10
108.4889999999999
 20
17.4282
 30
0.0
 11
108.4889999999999
 21
57.428400000000011
 31
0.0
  0
LINE
  5
176
  8
_________2
 62
     7
 10
33.488300000000002
 20
30.9285
 30
0.0
 11
33.488300000000002
 21
44.928499999999993
 31
0.0
  0
LINE
  5
177
  8
_________2
 62
     7
 10
21.988499999999991
 20
30.9285
 30
0.0
 11
108.4889999999999
 21
30.9285
 31
0.0
  0
LINE
  5
178
  8
_________2
 62
     7
 10
21.988499999999991
 20
44.928499999999993
 30
0.0
 11
108.4889999999999
 21
44.928499999999993
 31
0.0
  0
LINE
  5
179
  8
_________2
 62
     7
 10
108.4889999999999
 20
37.427799999999991
 30
0.0
 11
188.49000000000001
 21
37.427799999999991
 31
0.0
  0
LINE
  5
17A
  8
_________2
 62
     7
 10
21.988499999999991
 20
57.428400000000011
 30
0.0
 11
188.49000000000001
 21
57.428400000000011
 31
0.0
  0
ENDSEC
  0
EOF
