  0
SECTION
  2
HEADER
  9
$ACADVER
  1
AC1009
  9
$INSBASE
 10
0.0
 20
0.0
 30
0.0
  9
$EXTMIN
 10
-4.7000000000000002
 20
-21.070699999999999
 30
0.0
  9
$EXTMAX
 10
205.30099999999999
 20
275.93099999999998
 30
0.0
  9
$LIMMIN
 10
0.0
 20
0.0
  9
$LIMMAX
 10
12.0
 20
9.0
  9
$ORTHOMODE
 70
     0
  9
$REGENMODE
 70
     1
  9
$FILLMODE
 70
     1
  9
$QTEXTMODE
 70
     0
  9
$MIRRTEXT
 70
     1
  9
$DRAGMODE
 70
     2
  9
$LTSCALE
 40
1.0
  9
$OSMODE
 70
    37
  9
$ATTMODE
 70
     1
  9
$TEXTSIZE
 40
0.0
  9
$TRACEWID
 40
0.05
  9
$TEXTSTYLE
  7
STANDARD
  9
$CLAYER
  8
0
  9
$CELTYPE
  6
CONTINUOUS
  9
$CECOLOR
 62
   256
  9
$DIMSCALE
 40
1.0
  9
$DIMASZ
 40
0.18
  9
$DIMEXO
 40
0.0625
  9
$DIMDLI
 40
0.38
  9
$DIMRND
 40
0.0
  9
$DIMDLE
 40
0.0
  9
$DIMEXE
 40
0.18
  9
$DIMTP
 40
0.0
  9
$DIMTM
 40
0.0
  9
$DIMTXT
 40
0.18
  9
$DIMCEN
 40
0.09
  9
$DIMTSZ
 40
0.0
  9
$DIMTOL
 70
     0
  9
$DIMLIM
 70
     0
  9
$DIMTIH
 70
     1
  9
$DIMTOH
 70
     1
  9
$DIMSE1
 70
     0
  9
$DIMSE2
 70
     0
  9
$DIMTAD
 70
     0
  9
$DIMZIN
 70
     0
  9
$DIMBLK
  1

  9
$DIMASO
 70
     1
  9
$DIMSHO
 70
     1
  9
$DIMPOST
  1

  9
$DIMAPOST
  1

  9
$DIMALT
 70
     0
  9
$DIMALTD
 70
     2
  9
$DIMALTF
 40
25.399999999999999
  9
$DIMLFAC
 40
1.0
  9
$DIMTOFL
 70
     0
  9
$DIMTVP
 40
0.0
  9
$DIMTIX
 70
     0
  9
$DIMSOXD
 70
     0
  9
$DIMSAH
 70
     0
  9
$DIMBLK1
  1

  9
$DIMBLK2
  1

  9
$DIMSTYLE
  2
STANDARD
  9
$DIMCLRD
 70
     0
  9
$DIMCLRE
 70
     0
  9
$DIMCLRT
 70
     0
  9
$DIMTFAC
 40
1.0
  9
$DIMGAP
 40
0.09
  9
$LUNITS
 70
     2
  9
$LUPREC
 70
     4
  9
$SKETCHINC
 40
0.1
  9
$FILLETRAD
 40
0.0
  9
$AUNITS
 70
     0
  9
$AUPREC
 70
     0
  9
$MENU
  1
.
  9
$ELEVATION
 40
0.0
  9
$PELEVATION
 40
0.0
  9
$THICKNESS
 40
0.0
  9
$LIMCHECK
 70
     0
  9
$BLIPMODE
 70
     0
  9
$CHAMFERA
 40
0.0
  9
$CHAMFERB
 40
0.0
  9
$SKPOLY
 70
     0
  9
$TDCREATE
 40
2457161.687715949
  9
$TDUPDATE
 40
2457164.2504180898
  9
$TDINDWG
 40
0.0017316204
  9
$TDUSRTIMER
 40
0.0017316204
  9
$USRTIMER
 70
     1
  9
$ANGBASE
 50
0.0
  9
$ANGDIR
 70
     0
  9
$PDMODE
 70
     0
  9
$PDSIZE
 40
0.0
  9
$PLINEWID
 40
0.0
  9
$COORDS
 70
     1
  9
$SPLFRAME
 70
     0
  9
$SPLINETYPE
 70
     6
  9
$SPLINESEGS
 70
     8
  9
$ATTDIA
 70
     1
  9
$ATTREQ
 70
     1
  9
$HANDLING
 70
     1
  9
$HANDSEED
  5
33A
  9
$SURFTAB1
 70
     6
  9
$SURFTAB2
 70
     6
  9
$SURFTYPE
 70
     6
  9
$SURFU
 70
     6
  9
$SURFV
 70
     6
  9
$UCSNAME
  2

  9
$UCSORG
 10
0.0
 20
0.0
 30
0.0
  9
$UCSXDIR
 10
1.0
 20
0.0
 30
0.0
  9
$UCSYDIR
 10
0.0
 20
1.0
 30
0.0
  9
$PUCSNAME
  2

  9
$PUCSORG
 10
0.0
 20
0.0
 30
0.0
  9
$PUCSXDIR
 10
1.0
 20
0.0
 30
0.0
  9
$PUCSYDIR
 10
0.0
 20
1.0
 30
0.0
  9
$USERI1
 70
     0
  9
$USERI2
 70
     0
  9
$USERI3
 70
     0
  9
$USERI4
 70
     0
  9
$USERI5
 70
     0
  9
$USERR1
 40
0.0
  9
$USERR2
 40
0.0
  9
$USERR3
 40
0.0
  9
$USERR4
 40
0.0
  9
$USERR5
 40
0.0
  9
$WORLDVIEW
 70
     1
  9
$SHADEDGE
 70
     3
  9
$SHADEDIF
 70
    70
  9
$TILEMODE
 70
     1
  9
$MAXACTVP
 70
    48
  9
$PLIMCHECK
 70
     0
  9
$PEXTMIN
 10
1.0000000000000000E+020
 20
1.0000000000000000E+020
 30
1.0000000000000000E+020
  9
$PEXTMAX
 10
-1.0000000000000000E+020
 20
-1.0000000000000000E+020
 30
-1.0000000000000000E+020
  9
$PLIMMIN
 10
0.0
 20
0.0
  9
$PLIMMAX
 10
12.0
 20
9.0
  9
$UNITMODE
 70
     0
  9
$VISRETAIN
 70
     1
  9
$PLINEGEN
 70
     0
  9
$PSLTSCALE
 70
     1
  0
ENDSEC
  0
SECTION
  2
TABLES
  0
TABLE
  2
VPORT
 70
     1
  0
VPORT
  2
*ACTIVE
 70
     0
 10
0.0
 20
0.0
 11
1.0
 21
1.0
 12
136.77656964302221
 22
127.4301499999999
 13
0.0
 23
0.0
 14
1.0
 24
1.0
 15
0.0
 25
0.0
 16
0.0
 26
0.0
 36
1.0
 17
0.0
 27
0.0
 37
0.0
 40
283.65086748507741
 41
1.9691714836223499
 42
50.0
 43
0.0
 44
0.0
 50
0.0
 51
0.0
 71
     0
 72
   100
 73
     1
 74
     1
 75
     1
 76
     0
 77
     0
 78
     0
  0
ENDTAB
  0
TABLE
  2
LTYPE
 70
     3
  0
LTYPE
  2
CONTINUOUS
 70
     0
  3
Solid line
 72
    65
 73
     0
 40
0.0
  0
LTYPE
  2
AIGENLINE001
 70
     0
  3
generate AI->DXF Converter
 72
    65
 73
     4
 40
5.8561449999999988
 49
3.5278
 49
-0.776115
 49
0.776115
 49
-0.776115
  0
LTYPE
  2
AIGENLINE002
 70
     0
  3
generate AI->DXF Converter
 72
    65
 73
     2
 40
1.5522299999999991
 49
0.776115
 49
-0.776115
  0
ENDTAB
  0
TABLE
  2
LAYER
 70
     2
  0
LAYER
  2
0
 70
     0
 62
     7
  6
CONTINUOUS
  0
LAYER
  2
_________2
 70
     0
 62
     7
  6
CONTINUOUS
  0
ENDTAB
  0
TABLE
  2
STYLE
 70
     1
  0
STYLE
  2
STANDARD
 70
     0
 40
0.0
 41
0.0
 50
0.0
 71
     0
 42
0.0
  3
TXT
  4
EXTFONT.SHX
  0
ENDTAB
  0
TABLE
  2
VIEW
 70
     0
  0
ENDTAB
  0
TABLE
  2
UCS
 70
     0
  0
ENDTAB
  0
TABLE
  2
APPID
 70
     4
  0
APPID
  2
ACAD
 70
     0
  0
APPID
  2
ACAD_DSTYLE_DIMJOGGED_JOGA
 70
     0
  0
APPID
  2
ACAD_NAV_VCDISPLAY
 70
     0
  0
APPID
  2
ACAD_MLEADERVER
 70
     0
  0
ENDTAB
  0
TABLE
  2
DIMSTYLE
 70
     1
  0
DIMSTYLE
  2
STANDARD
 70
     0
  3

  4

  5

  6

  7

 40
1.0
 41
0.18
 42
0.0625
 43
0.38
 44
0.18
 45
0.0
 46
0.0
 47
0.0
 48
0.0
140
0.18
141
0.09
142
0.0
143
25.399999999999999
144
1.0
145
0.0
146
1.0
147
0.09
 71
     0
 72
     0
 73
     1
 74
     1
 75
     0
 76
     0
 77
     0
 78
     0
170
     0
171
     2
172
     0
173
     0
174
     0
175
     0
176
     0
177
     0
178
     0
  0
ENDTAB
  0
ENDSEC
  0
SECTION
  2
BLOCKS
  0
BLOCK
  8
0
  2
$MODEL_SPACE
 70
     0
 10
0.0
 20
0.0
 30
0.0
  3
$MODEL_SPACE
  1

  0
ENDBLK
  5
1A
  8
0
  0
BLOCK
 67
     1
  8
0
  2
$PAPER_SPACE
 70
     0
 10
0.0
 20
0.0
 30
0.0
  3
$PAPER_SPACE
  1

  0
ENDBLK
  5
17
 67
     1
  8
0
  0
ENDSEC
  0
SECTION
  2
ENTITIES
  0
TEXT
  5
23
  8
0
 62
     7
 10
131.02854666666661
 20
143.53299999999999
 30
0.0
 40
3.660169999999999
  1
カウンター切込寸法
 41
0.5
 72
     1
 11
140.78899999999999
 21
143.53299999999999
 31
0.0
  0
TEXT
  5
24
  8
0
 62
     7
 10
173.00399999999999
 20
177.1458866666666
 30
0.0
 40
3.660169999999999
  1
376
 50
90.0
 41
0.5
 72
     1
 11
173.00399999999999
 21
179.58600000000001
 31
0.0
  0
TEXT
  5
25
  8
0
 62
     7
 10
95.224199999999996
 20
177.1458866666666
 30
0.0
 40
3.660169999999999
  1
395
 50
90.0
 41
0.5
 72
     1
 11
95.224199999999996
 21
179.58600000000001
 31
0.0
  0
TEXT
  5
26
  8
0
 62
     7
 10
124.14956912226189
 20
183.19299286754759
 30
0.0
 40
3.660169999999999
  1
R175
 50
346.38499999999999
 41
0.5
 72
     1
 11
127.114
 21
182.47499999999999
 31
0.0
  0
TEXT
  5
27
  8
0
 62
     7
 10
132.48785634582171
 20
189.40297575336041
 30
0.0
 40
3.660169999999999
  1
R308
 50
292.58800000000002
 41
0.5
 72
     1
 11
133.71799999999999
 21
186.446
 31
0.0
  0
TEXT
  5
28
  8
0
 62
     7
 10
138.3488866666666
 20
153.05500000000001
 30
0.0
 40
3.660169999999999
  1
465
 41
0.5
 72
     1
 11
140.78899999999999
 21
153.05500000000001
 31
0.0
  0
TEXT
  5
29
  8
0
 62
     7
 10
56.555993749999999
 20
147.90199999999999
 30
0.0
 40
3.660169999999999
  1
490
 41
0.5
 72
     1
 11
58.843600000000002
 21
147.90199999999999
 31
0.0
  0
TEXT
  5
2A
  8
0
 62
     7
 10
138.50139375000001
 20
72.904499999999985
 30
0.0
 40
3.660169999999999
  1
360
 41
0.5
 72
     1
 11
140.78899999999999
 21
72.904499999999985
 31
0.0
  0
TEXT
  5
2B
  8
0
 62
     7
 10
138.274
 20
91.543800833333336
 30
0.0
 40
3.660169999999999
  1
155
 50
90.0
 41
0.5
 72
     1
 11
138.274
 21
93.678899999999999
 31
0.0
  0
TEXT
  5
2C
  8
0
 62
     7
 10
98.478700000000003
 20
89.611100833333339
 30
0.0
 40
3.660169999999999
  1
200
 50
90.0
 41
0.5
 72
     1
 11
98.478700000000003
 21
91.746200000000002
 31
0.0
  0
TEXT
  5
2D
  8
0
 62
     7
 10
90.236800000000002
 20
105.98487249999999
 30
0.0
 40
3.660169999999999
  1
20
 50
90.0
 41
0.5
 72
     2
 11
90.236800000000002
 21
108.73
 31
0.0
  0
TEXT
  5
2E
  8
0
 62
     7
 10
90.236800000000002
 20
88.763207916666673
 30
0.0
 40
3.660169999999999
  1
180
 50
90.0
 41
0.5
 72
     1
 11
90.236800000000002
 21
90.745800000000003
 31
0.0
  0
TEXT
  5
2F
  8
0
 62
     7
 10
56.73209374999999
 20
72.904499999999985
 30
0.0
 40
3.660169999999999
  1
450
 41
0.5
 72
     1
 11
59.0197
 21
72.904499999999985
 31
0.0
  0
TEXT
  5
30
  8
0
 62
     7
 10
29.956299999999999
 20
194.94
 30
0.0
 40
3.660169999999999
  1
%%c46
 41
0.5
  0
LINE
  5
37
  8
0
  6
AIGENLINE001
 62
     7
 10
140.78899999999999
 20
156.28899999999999
 30
0.0
 11
140.78899999999999
 21
202.64500000000001
 31
0.0
  0
LINE
  5
38
  8
0
  6
AIGENLINE001
 62
     7
 10
112.983
 20
179.58600000000001
 30
0.0
 11
168.042
 21
179.58600000000001
 31
0.0
  0
LINE
  5
39
  8
0
 62
     7
 10
126.706
 20
81.746099999999984
 30
0.0
 11
153.43000000000001
 21
81.746099999999984
 31
0.0
  0
ARC
  5
3A
  8
0
 62
     7
 10
130.00311300000001
 20
98.558121999999997
 30
0.0
 40
27.766052999999999
 50
344.85605700000002
 51
345.798563
  0
ARC
  5
3B
  8
0
 62
     7
 10
107.978461
 20
104.493754
 30
0.0
 40
50.576503999999993
 50
344.01332300000001
 51
344.88361499999991
  0
ARC
  5
3C
  8
0
 62
     7
 10
72.230851999999985
 20
114.722891
 30
0.0
 40
87.758848999999984
 50
343.30416000000002
 51
344.02106199999997
  0
ARC
  5
3D
  8
0
 62
     7
 10
0.353967
 20
136.31331
 30
0.0
 40
162.80838
 50
342.20277599999997
 51
343.29337099999998
  0
ARC
  5
3E
  8
0
 62
     7
 10
-116.082733
 20
173.27848900000001
 30
0.0
 40
284.97155700000002
 50
341.33756899999997
 51
342.28171200000003
  0
ARC
  5
3F
  8
0
 62
     7
 10
153.42024000000001
 20
82.259737999999999
 30
0.0
 40
0.513744
 50
271.09083500000003
 51
340.69666100000001
  0
ARC
  5
40
  8
0
 62
     7
 10
152.41357600000001
 20
82.259737999999999
 30
0.0
 40
0.513744
 50
271.09083500000003
 51
340.69666100000001
  0
LINE
  5
41
  8
0
 62
     7
 10
152.898
 20
82.0899
 30
0.0
 11
158.53899999999999
 21
99.745800000000017
 31
0.0
  0
ARC
  5
42
  8
0
 62
     7
 10
126.719652
 20
82.262336999999988
 30
0.0
 40
0.516424
 50
191.87649899999991
 51
268.51238799999999
  0
ARC
  5
43
  8
0
  6
AIGENLINE002
 62
     7
 10
62.907647999999988
 20
85.753217000000006
 30
0.0
 40
0.5068120000000002
 50
95.360706999999977
 51
137.721161
  0
LINE
  5
44
  8
0
  6
AIGENLINE002
 62
     7
 10
62.5199
 20
81.746099999999984
 30
0.0
 11
62.5199
 21
82.868499999999983
 31
0.0
  0
LINE
  5
45
  8
0
  6
AIGENLINE002
 62
     7
 10
61.319600000000001
 20
84.746099999999998
 30
0.0
 11
62.532699999999998
 21
86.094200000000001
 31
0.0
  0
LINE
  5
46
  8
0
  6
AIGENLINE002
 62
     7
 10
61.319600000000001
 20
84.746099999999998
 30
0.0
 11
61.319600000000001
 21
81.746099999999984
 31
0.0
  0
LINE
  5
47
  8
0
  6
AIGENLINE002
 62
     7
 10
61.319600000000001
 20
84.746099999999998
 30
0.0
 11
59.0197
 21
84.746099999999998
 31
0.0
  0
LINE
  5
48
  8
0
  6
AIGENLINE002
 62
     7
 10
62.78929999999999
 20
86.246099999999998
 30
0.0
 11
59.0197
 21
86.246099999999998
 31
0.0
  0
ARC
  5
49
  8
0
  6
AIGENLINE002
 62
     7
 10
67.762260999999995
 20
64.518393000000003
 30
0.0
 40
22.285233000000002
 50
99.871325000000013
 51
102.706942
  0
ARC
  5
4A
  8
0
  6
AIGENLINE002
 62
     7
 10
70.135443000000009
 20
51.396042000000001
 30
0.0
 40
35.620269999999998
 50
98.983475000000013
 51
100.013519
  0
ARC
  5
4B
  8
0
  6
AIGENLINE002
 62
     7
 10
74.337321000000003
 20
24.572244000000001
 30
0.0
 40
62.771163999999999
 50
98.060455000000033
 51
98.948612000000011
  0
ARC
  5
4C
  8
0
  6
AIGENLINE002
 62
     7
 10
12.312450999999999
 20
468.35637100000002
 30
0.0
 40
385.32652999999999
 50
277.93937
 51
278.209248
  0
ARC
  5
4D
  8
0
  6
AIGENLINE002
 62
     7
 10
60.697268999999991
 20
132.07084900000001
 30
0.0
 40
45.578237999999999
 50
278.37102299999998
 51
280.26318300000003
  0
ARC
  5
4E
  8
0
  6
AIGENLINE002
 62
     7
 10
64.383942000000005
 20
111.37428
 30
0.0
 40
24.556037
 50
280.40275500000001
 51
284.33537799999999
  0
ARC
  5
4F
  8
0
  6
AIGENLINE002
 62
     7
 10
66.466087999999999
 20
103.03149500000001
 30
0.0
 40
15.957561
 50
284.50892599999997
 51
293.07978500000002
  0
ARC
  5
50
  8
0
  6
AIGENLINE002
 62
     7
 10
68.000059999999991
 20
99.145060000000015
 30
0.0
 40
11.781396000000001
 50
293.62612300000001
 51
324.94014399999998
  0
ARC
  5
51
  8
0
  6
AIGENLINE002
 62
     7
 10
65.218994999999993
 20
101.219786
 30
0.0
 40
15.249965
 50
324.56164999999999
 51
333.36077599999999
  0
ARC
  5
52
  8
0
  6
AIGENLINE002
 62
     7
 10
61.130322999999997
 20
103.387478
 30
0.0
 40
19.876818
 50
333.060002
 51
339.18517500000002
  0
ARC
  5
53
  8
0
  6
AIGENLINE002
 62
     7
 10
55.542765000000003
 20
105.602847
 30
0.0
 40
25.887066000000001
 50
338.99649499999998
 51
344.30100900000002
  0
ARC
  5
54
  8
0
  6
AIGENLINE002
 62
     7
 10
47.850515999999999
 20
107.87654999999999
 30
0.0
 40
33.907764
 50
344.11937599999999
 51
348.09663799999998
  0
ARC
  5
55
  8
0
  6
AIGENLINE002
 62
     7
 10
82.047822999999994
 20
100.71426200000001
 30
0.0
 40
1.032494
 50
91.564752999999982
 51
170.61207400000001
  0
ARC
  5
56
  8
0
  6
AIGENLINE002
 62
     7
 10
55.131715999999997
 20
85.753217000000006
 30
0.0
 40
0.5068120000000002
 50
42.278818999999991
 51
84.639272999999989
  0
LINE
  5
57
  8
0
  6
AIGENLINE002
 62
     7
 10
55.519399999999997
 20
81.746099999999984
 30
0.0
 11
55.519399999999997
 21
82.868499999999983
 31
0.0
  0
LINE
  5
58
  8
0
  6
AIGENLINE002
 62
     7
 10
56.719700000000003
 20
84.746099999999998
 30
0.0
 11
55.506700000000002
 21
86.094200000000001
 31
0.0
  0
LINE
  5
59
  8
0
  6
AIGENLINE002
 62
     7
 10
56.719700000000003
 20
84.746099999999998
 30
0.0
 11
56.719700000000003
 21
81.746099999999984
 31
0.0
  0
LINE
  5
5A
  8
0
  6
AIGENLINE002
 62
     7
 10
56.719700000000003
 20
84.746099999999998
 30
0.0
 11
59.0197
 21
84.746099999999998
 31
0.0
  0
LINE
  5
5B
  8
0
  6
AIGENLINE002
 62
     7
 10
55.25
 20
86.246099999999998
 30
0.0
 11
59.0197
 21
86.246099999999998
 31
0.0
  0
ARC
  5
5C
  8
0
  6
AIGENLINE002
 62
     7
 10
142.44063299999999
 20
113.39110599999999
 30
0.0
 40
27.221409000000001
 50
274.611333
 51
278.24669599999999
  0
ARC
  5
5D
  8
0
  6
AIGENLINE002
 62
     7
 10
143.834396
 20
103.351474
 30
0.0
 40
17.085782999999999
 50
278.45021000000003
 51
284.74229600000001
  0
ARC
  5
5E
  8
0
  6
AIGENLINE002
 62
     7
 10
145.22160299999999
 20
97.800002000000006
 30
0.0
 40
11.364281999999999
 50
285.10102999999998
 51
297.8987029999999
  0
ARC
  5
5F
  8
0
  6
AIGENLINE002
 62
     7
 10
146.02845600000001
 20
96.004326000000006
 30
0.0
 40
9.4006310000000006
 50
298.673607
 51
320.16017099999999
  0
ARC
  5
60
  8
0
  6
AIGENLINE002
 62
     7
 10
143.70864800000001
 20
98.119125999999994
 30
0.0
 40
12.537458000000001
 50
319.53108400000002
 51
327.2265910000001
  0
ARC
  5
61
  8
0
  6
AIGENLINE002
 62
     7
 10
140.200312
 20
100.477436
 30
0.0
 40
16.764135
 50
326.94023800000002
 51
332.15071899999998
  0
ARC
  5
62
  8
0
  6
AIGENLINE002
 62
     7
 10
135.130675
 20
103.237146
 30
0.0
 40
22.535909
 50
331.968144
 51
336.257587
  0
ARC
  5
63
  8
0
  6
AIGENLINE002
 62
     7
 10
126.32870699999999
 20
107.208885
 30
0.0
 40
32.192174999999999
 50
336.09439200000003
 51
340.62539600000002
  0
ARC
  5
64
  8
0
  6
AIGENLINE002
 62
     7
 10
109.763875
 20
113.28202400000001
 30
0.0
 40
49.834206999999992
 50
340.35641900000002
 51
343.42882600000002
  0
ARC
  5
65
  8
0
  6
AIGENLINE002
 62
     7
 10
87.554209
 20
120.109589
 30
0.0
 40
73.068986999999993
 50
343.26442900000001
 51
344.74391900000001
  0
ARC
  5
66
  8
0
  6
AIGENLINE002
 62
     7
 10
159.06730400000001
 20
100.713758
 30
0.0
 40
1.0330090000000001
 50
91.588331999999994
 51
170.58849499999999
  0
ARC
  5
67
  8
0
  6
AIGENLINE002
 62
     7
 10
144.67647299999999
 20
85.753217000000006
 30
0.0
 40
0.5068120000000002
 50
95.360706999999977
 51
137.721161
  0
LINE
  5
68
  8
0
  6
AIGENLINE002
 62
     7
 10
143.08799999999999
 20
84.746099999999998
 30
0.0
 11
144.30099999999999
 21
86.094200000000001
 31
0.0
  0
LINE
  5
69
  8
0
  6
AIGENLINE002
 62
     7
 10
143.08799999999999
 20
84.746099999999998
 30
0.0
 11
143.08799999999999
 21
81.746099999999984
 31
0.0
  0
LINE
  5
6A
  8
0
  6
AIGENLINE002
 62
     7
 10
143.08799999999999
 20
84.746099999999998
 30
0.0
 11
140.78899999999999
 21
84.746099999999998
 31
0.0
  0
LINE
  5
6B
  8
0
  6
AIGENLINE002
 62
     7
 10
144.55799999999999
 20
86.246099999999998
 30
0.0
 11
140.78899999999999
 21
86.246099999999998
 31
0.0
  0
ARC
  5
6C
  8
0
  6
AIGENLINE002
 62
     7
 10
139.13638
 20
113.39110599999999
 30
0.0
 40
27.221409000000001
 50
261.75332400000002
 51
265.388687
  0
ARC
  5
6D
  8
0
  6
AIGENLINE002
 62
     7
 10
137.74261799999999
 20
103.351474
 30
0.0
 40
17.085782999999999
 50
255.257724
 51
261.54980999999998
  0
ARC
  5
6E
  8
0
  6
AIGENLINE002
 62
     7
 10
136.355411
 20
97.800002000000006
 30
0.0
 40
11.364281999999999
 50
242.10131699999999
 51
254.89899
  0
ARC
  5
6F
  8
0
  6
AIGENLINE002
 62
     7
 10
135.54855699999999
 20
96.004326000000006
 30
0.0
 40
9.4006310000000006
 50
219.83984799999999
 51
241.326412
  0
ARC
  5
70
  8
0
  6
AIGENLINE002
 62
     7
 10
137.86836500000001
 20
98.119125999999994
 30
0.0
 40
12.537458000000001
 50
212.77342899999999
 51
220.46893600000001
  0
ARC
  5
71
  8
0
  6
AIGENLINE002
 62
     7
 10
141.376701
 20
100.477436
 30
0.0
 40
16.764135
 50
207.849301
 51
213.05978200000001
  0
ARC
  5
72
  8
0
  6
AIGENLINE002
 62
     7
 10
146.446338
 20
103.237146
 30
0.0
 40
22.535909
 50
203.74243300000001
 51
208.03187600000001
  0
ARC
  5
73
  8
0
  6
AIGENLINE002
 62
     7
 10
155.24830600000001
 20
107.208885
 30
0.0
 40
32.192174999999999
 50
199.37462400000001
 51
203.90562800000001
  0
ARC
  5
74
  8
0
  6
AIGENLINE002
 62
     7
 10
171.8131379999999
 20
113.28202400000001
 30
0.0
 40
49.834206999999992
 50
196.57119399999999
 51
199.64360099999999
  0
ARC
  5
75
  8
0
  6
AIGENLINE002
 62
     7
 10
194.02280500000001
 20
120.109589
 30
0.0
 40
73.068986999999993
 50
195.256101
 51
196.735591
  0
ARC
  5
76
  8
0
  6
AIGENLINE002
 62
     7
 10
122.509709
 20
100.713758
 30
0.0
 40
1.0330090000000001
 50
9.4114850000000008
 51
88.411647999999985
  0
ARC
  5
77
  8
0
  6
AIGENLINE002
 62
     7
 10
50.277102999999997
 20
64.518393000000003
 30
0.0
 40
22.285233000000002
 50
77.293037999999996
 51
80.128655000000009
  0
ARC
  5
78
  8
0
  6
AIGENLINE002
 62
     7
 10
47.903920999999997
 20
51.396042000000001
 30
0.0
 40
35.620269999999998
 50
79.986461000000006
 51
81.016506000000007
  0
ARC
  5
79
  8
0
  6
AIGENLINE002
 62
     7
 10
43.702043000000003
 20
24.572244000000001
 30
0.0
 40
62.771163999999999
 50
81.051368000000025
 51
81.939524999999989
  0
ARC
  5
7A
  8
0
  6
AIGENLINE002
 62
     7
 10
105.726913
 20
468.35637100000002
 30
0.0
 40
385.32652999999999
 50
261.790772
 51
262.06065000000001
  0
ARC
  5
7B
  8
0
  6
AIGENLINE002
 62
     7
 10
57.342094999999993
 20
132.07084900000001
 30
0.0
 40
45.578237999999999
 50
259.73683699999998
 51
261.62899700000003
  0
ARC
  5
7C
  8
0
  6
AIGENLINE002
 62
     7
 10
53.655422000000002
 20
111.37428
 30
0.0
 40
24.556037
 50
255.66464099999999
 51
259.597264
  0
ARC
  5
7D
  8
0
  6
AIGENLINE002
 62
     7
 10
51.573275000000002
 20
103.03149500000001
 30
0.0
 40
15.957561
 50
246.9202350000001
 51
255.491094
  0
ARC
  5
7E
  8
0
  6
AIGENLINE002
 62
     7
 10
50.039290999999999
 20
99.145032
 30
0.0
 40
11.781364999999999
 50
215.05981399999999
 51
246.373897
  0
ARC
  5
7F
  8
0
  6
AIGENLINE002
 62
     7
 10
52.816976000000011
 20
101.217778
 30
0.0
 40
15.246031
 50
206.638214
 51
215.43962500000001
  0
ARC
  5
80
  8
0
  6
AIGENLINE002
 62
     7
 10
56.909041000000002
 20
103.387478
 30
0.0
 40
19.876818
 50
200.81484499999999
 51
206.94001800000001
  0
ARC
  5
81
  8
0
  6
AIGENLINE002
 62
     7
 10
62.496597999999992
 20
105.602847
 30
0.0
 40
25.887066000000001
 50
195.69901100000001
 51
201.003525
  0
ARC
  5
82
  8
0
  6
AIGENLINE002
 62
     7
 10
70.188846999999996
 20
107.87654999999999
 30
0.0
 40
33.907764
 50
191.90338199999999
 51
195.88064399999999
  0
ARC
  5
83
  8
0
  6
AIGENLINE002
 62
     7
 10
35.991540000000001
 20
100.71426200000001
 30
0.0
 40
1.032494
 50
9.3879059999999992
 51
88.435226999999983
  0
LINE
  5
84
  8
0
  6
AIGENLINE002
 62
     7
 10
136.08500000000001
 20
85.285899999999984
 30
0.0
 11
136.65700000000001
 21
85.285899999999984
 31
0.0
  0
LINE
  5
85
  8
0
  6
AIGENLINE002
 62
     7
 10
137.28899999999999
 20
84.584900000000005
 30
0.0
 11
136.65700000000001
 21
85.285899999999984
 31
0.0
  0
LINE
  5
86
  8
0
 62
     7
 10
156.92099999999999
 20
91.746200000000002
 30
0.0
 11
159.03899999999999
 21
99.745800000000017
 31
0.0
  0
LINE
  5
87
  8
0
  6
AIGENLINE002
 62
     7
 10
144.28800000000001
 20
82.745900000000006
 30
0.0
 11
146.27199999999999
 21
82.745900000000006
 31
0.0
  0
LINE
  5
88
  8
0
  6
AIGENLINE002
 62
     7
 10
143.089
 20
82.745900000000006
 30
0.0
 11
143.089
 21
81.746099999999984
 31
0.0
  0
ARC
  5
89
  8
0
  6
AIGENLINE002
 62
     7
 10
136.900541
 20
85.753217000000006
 30
0.0
 40
0.5068120000000002
 50
42.278818999999991
 51
84.639272999999989
  0
LINE
  5
8A
  8
0
  6
AIGENLINE002
 62
     7
 10
137.28899999999999
 20
81.746099999999984
 30
0.0
 11
137.28899999999999
 21
84.584900000000005
 31
0.0
  0
LINE
  5
8B
  8
0
  6
AIGENLINE002
 62
     7
 10
138.489
 20
84.746099999999998
 30
0.0
 11
137.27600000000001
 21
86.094200000000001
 31
0.0
  0
LINE
  5
8C
  8
0
  6
AIGENLINE002
 62
     7
 10
138.489
 20
84.746099999999998
 30
0.0
 11
138.489
 21
81.746099999999984
 31
0.0
  0
LINE
  5
8D
  8
0
  6
AIGENLINE002
 62
     7
 10
138.489
 20
84.746099999999998
 30
0.0
 11
140.78899999999999
 21
84.746099999999998
 31
0.0
  0
LINE
  5
8E
  8
0
  6
AIGENLINE002
 62
     7
 10
137.01900000000001
 20
86.246099999999998
 30
0.0
 11
140.78899999999999
 21
86.246099999999998
 31
0.0
  0
LINE
  5
8F
  8
0
 62
     7
 10
173.119
 20
162.99600000000001
 30
0.0
 11
173.71100000000001
 21
160.786
 31
0.0
  0
LINE
  5
90
  8
0
 62
     7
 10
173.71100000000001
 20
160.786
 30
0.0
 11
174.304
 21
162.99600000000001
 31
0.0
  0
LINE
  5
91
  8
0
 62
     7
 10
174.304
 20
162.99600000000001
 30
0.0
 11
173.119
 21
162.99600000000001
 31
0.0
  0
LINE
  5
92
  8
0
 62
     7
 10
174.28899999999999
 20
196.17500000000001
 30
0.0
 11
173.697
 21
198.386
 31
0.0
  0
LINE
  5
93
  8
0
 62
     7
 10
173.697
 20
198.386
 30
0.0
 11
173.10499999999999
 21
196.17500000000001
 31
0.0
  0
LINE
  5
94
  8
0
 62
     7
 10
173.10499999999999
 20
196.17500000000001
 30
0.0
 11
174.28899999999999
 21
196.17500000000001
 31
0.0
  0
LINE
  5
95
  8
0
 62
     7
 10
173.70400000000001
 20
160.786
 30
0.0
 11
173.70400000000001
 21
198.386
 31
0.0
  0
LINE
  5
96
  8
0
 62
     7
 10
147.98099999999999
 20
198.386
 30
0.0
 11
174.339
 21
198.386
 31
0.0
  0
LINE
  5
97
  8
0
 62
     7
 10
148.34700000000001
 20
160.786
 30
0.0
 11
174.339
 21
160.786
 31
0.0
  0
LINE
  5
98
  8
0
 62
     7
 10
119.749
 20
152.62899999999999
 30
0.0
 11
117.538
 21
152.03700000000001
 31
0.0
  0
LINE
  5
99
  8
0
 62
     7
 10
117.538
 20
152.03700000000001
 30
0.0
 11
119.749
 21
151.44399999999999
 31
0.0
  0
LINE
  5
9A
  8
0
 62
     7
 10
119.749
 20
151.44399999999999
 30
0.0
 11
119.749
 21
152.62899999999999
 31
0.0
  0
LINE
  5
9B
  8
0
 62
     7
 10
161.828
 20
151.459
 30
0.0
 11
164.03899999999999
 21
152.05099999999999
 31
0.0
  0
LINE
  5
9C
  8
0
 62
     7
 10
164.03899999999999
 20
152.05099999999999
 30
0.0
 11
161.828
 21
152.64400000000001
 31
0.0
  0
LINE
  5
9D
  8
0
 62
     7
 10
161.828
 20
152.64400000000001
 30
0.0
 11
161.828
 21
151.459
 31
0.0
  0
LINE
  5
9E
  8
0
 62
     7
 10
117.538
 20
152.0439999999999
 30
0.0
 11
164.03899999999999
 21
152.0439999999999
 31
0.0
  0
LINE
  5
9F
  8
0
 62
     7
 10
164.03899999999999
 20
151.221
 30
0.0
 11
164.03899999999999
 21
173.285
 31
0.0
  0
LINE
  5
A0
  8
0
 62
     7
 10
117.538
 20
151.221
 30
0.0
 11
117.538
 21
173.285
 31
0.0
  0
LINE
  5
A1
  8
0
 62
     7
 10
120.438
 20
184.17400000000001
 30
0.0
 11
118.149
 21
184.18299999999999
 31
0.0
  0
LINE
  5
A2
  8
0
 62
     7
 10
118.149
 20
184.18299999999999
 30
0.0
 11
120.127
 21
183.03100000000001
 31
0.0
  0
LINE
  5
A3
  8
0
 62
     7
 10
120.127
 20
183.03100000000001
 30
0.0
 11
120.438
 21
184.17400000000001
 31
0.0
  0
LINE
  5
A4
  8
0
 62
     7
 10
135.03899999999999
 20
179.58600000000001
 30
0.0
 11
118.149
 21
184.18299999999999
 31
0.0
  0
LINE
  5
A5
  8
0
 62
     7
 10
130.261
 20
194.18100000000001
 30
0.0
 11
128.85900000000001
 21
195.99000000000001
 31
0.0
  0
LINE
  5
A6
  8
0
 62
     7
 10
128.85900000000001
 20
195.99000000000001
 30
0.0
 11
129.16900000000001
 21
193.72200000000001
 31
0.0
  0
LINE
  5
A7
  8
0
 62
     7
 10
129.16900000000001
 20
193.72200000000001
 30
0.0
 11
130.261
 21
194.18100000000001
 31
0.0
  0
LINE
  5
A8
  8
0
 62
     7
 10
140.78899999999999
 20
167.58500000000001
 30
0.0
 11
128.85900000000001
 21
195.99000000000001
 31
0.0
  0
ARC
  5
A9
  8
0
 62
     7
 10
59.019681000000013
 20
179.58552299999999
 30
0.0
 40
3.4234139999999988
 50
270.00002000000001
 51
359.99999000000003
  0
ARC
  5
AA
  8
0
 62
     7
 10
59.019767000000002
 20
179.58543599999999
 30
0.0
 40
3.4233259999999999
 50
179.99852899999999
 51
269.99857800000001
  0
ARC
  5
AB
  8
0
 62
     7
 10
59.019941000000003
 20
179.58578
 30
0.0
 40
3.4235000000000002
 50
90.004323999999997
 51
180.004334
  0
ARC
  5
AC
  8
0
 62
     7
 10
59.019508999999999
 20
179.58569399999999
 30
0.0
 40
3.4235859999999998
 50
359.99712699999998
 51
89.997096999999997
  0
ARC
  5
AD
  8
0
 62
     7
 10
59.019681999999989
 20
179.58552299999999
 30
0.0
 40
2.2999610000000001
 50
270.00002000000001
 51
359.99999000000003
  0
ARC
  5
AE
  8
0
 62
     7
 10
59.019681999999989
 20
179.585522
 30
0.0
 40
2.29996
 50
179.99996999999999
 51
270.00002000000001
  0
ARC
  5
AF
  8
0
 62
     7
 10
59.019767999999999
 20
179.58560800000001
 30
0.0
 40
2.3000470000000002
 50
90.002145999999996
 51
180.00215499999999
  0
ARC
  5
B0
  8
0
 62
     7
 10
59.019595000000002
 20
179.58560800000001
 30
0.0
 40
2.3000470000000002
 50
359.99786399999999
 51
89.997834999999995
  0
ARC
  5
B1
  8
0
 62
     7
 10
58.97764200000001
 20
172.53347600000001
 30
0.0
 40
26.959441000000002
 50
60.705564000000003
 51
105.14620600000001
  0
ARC
  5
B2
  8
0
 62
     7
 10
59.000453
 20
172.917768
 30
0.0
 40
26.594740999999999
 50
105.4099649999999
 51
119.584722
  0
LINE
  5
B3
  8
0
 62
     7
 10
64.164100000000005
 20
199.51599999999999
 30
0.0
 11
97.263200000000012
 21
199.51599999999999
 31
0.0
  0
LINE
  5
B4
  8
0
 62
     7
 10
64.164100000000005
 20
160.01599999999999
 30
0.0
 11
97.516099999999994
 21
160.01599999999999
 31
0.0
  0
LINE
  5
B5
  8
0
 62
     7
 10
34.519599999999997
 20
173.34100000000001
 30
0.0
 11
34.519599999999997
 21
145.78800000000001
 31
0.0
  0
LINE
  5
B6
  8
0
 62
     7
 10
83.519800000000004
 20
173.34100000000001
 30
0.0
 11
83.519800000000004
 21
145.78800000000001
 31
0.0
  0
LINE
  5
B7
  8
0
  6
AIGENLINE001
 62
     7
 10
59.0197
 20
155.65600000000001
 30
0.0
 11
59.0197
 21
203.917
 31
0.0
  0
LINE
  5
B8
  8
0
  6
AIGENLINE001
 62
     7
 10
29.186499999999999
 20
179.58600000000001
 30
0.0
 11
88.852299999999985
 21
179.58600000000001
 31
0.0
  0
LINE
  5
B9
  8
0
 62
     7
 10
139.714
 20
99.536000000000016
 30
0.0
 11
139.12100000000001
 21
101.746
 31
0.0
  0
LINE
  5
BA
  8
0
 62
     7
 10
139.12100000000001
 20
101.746
 30
0.0
 11
138.529
 21
99.536000000000016
 31
0.0
  0
LINE
  5
BB
  8
0
 62
     7
 10
138.529
 20
99.536000000000016
 30
0.0
 11
139.714
 21
99.536000000000016
 31
0.0
  0
LINE
  5
BC
  8
0
 62
     7
 10
138.54400000000001
 20
88.456500000000005
 30
0.0
 11
139.136
 21
86.246099999999998
 31
0.0
  0
LINE
  5
BD
  8
0
 62
     7
 10
139.136
 20
86.246099999999998
 30
0.0
 11
139.72800000000001
 21
88.456500000000005
 31
0.0
  0
LINE
  5
BE
  8
0
 62
     7
 10
139.72800000000001
 20
88.456500000000005
 30
0.0
 11
138.54400000000001
 21
88.456500000000005
 31
0.0
  0
LINE
  5
BF
  8
0
 62
     7
 10
139.12899999999999
 20
101.717
 30
0.0
 11
139.12899999999999
 21
86.252600000000001
 31
0.0
  0
LINE
  5
C0
  8
0
 62
     7
 10
125.249
 20
72.796700000000001
 30
0.0
 11
123.038
 21
72.204499999999996
 31
0.0
  0
LINE
  5
C1
  8
0
 62
     7
 10
123.038
 20
72.204499999999996
 30
0.0
 11
125.249
 21
71.612300000000005
 31
0.0
  0
LINE
  5
C2
  8
0
 62
     7
 10
125.249
 20
71.612300000000005
 30
0.0
 11
125.249
 21
72.796700000000001
 31
0.0
  0
LINE
  5
C3
  8
0
 62
     7
 10
156.828
 20
71.612300000000005
 30
0.0
 11
159.03800000000001
 21
72.204499999999996
 31
0.0
  0
LINE
  5
C4
  8
0
 62
     7
 10
159.03800000000001
 20
72.204499999999996
 30
0.0
 11
156.828
 21
72.796700000000001
 31
0.0
  0
LINE
  5
C5
  8
0
 62
     7
 10
156.828
 20
72.796700000000001
 30
0.0
 11
156.828
 21
71.612300000000005
 31
0.0
  0
LINE
  5
C6
  8
0
 62
     7
 10
123.038
 20
72.204499999999996
 30
0.0
 11
159.03800000000001
 21
72.204499999999996
 31
0.0
  0
LINE
  5
C7
  8
0
 62
     7
 10
123.038
 20
98.330500000000001
 30
0.0
 11
123.038
 21
71.457599999999999
 31
0.0
  0
LINE
  5
C8
  8
0
 62
     7
 10
159.03800000000001
 20
98.330500000000001
 30
0.0
 11
159.03800000000001
 21
71.457599999999999
 31
0.0
  0
LINE
  5
C9
  8
0
 62
     7
 10
123.038
 20
99.745800000000017
 30
0.0
 11
126.214
 21
82.156099999999995
 31
0.0
  0
LINE
  5
CA
  8
0
  6
AIGENLINE002
 62
     7
 10
144.28800000000001
 20
82.745900000000006
 30
0.0
 11
144.28800000000001
 21
81.746099999999984
 31
0.0
  0
LINE
  5
CB
  8
0
  6
AIGENLINE001
 62
     7
 10
140.78899999999999
 20
103.777
 30
0.0
 11
140.78899999999999
 21
78.081900000000005
 31
0.0
  0
LINE
  5
CC
  8
0
 62
     7
 10
38.729700000000001
 20
72.789500000000004
 30
0.0
 11
36.519100000000002
 21
72.197299999999998
 31
0.0
  0
LINE
  5
CD
  8
0
 62
     7
 10
36.519100000000002
 20
72.197299999999998
 30
0.0
 11
38.729700000000001
 21
71.605000000000004
 31
0.0
  0
LINE
  5
CE
  8
0
 62
     7
 10
38.729700000000001
 20
71.605000000000004
 30
0.0
 11
38.729700000000001
 21
72.789500000000004
 31
0.0
  0
LINE
  5
CF
  8
0
 62
     7
 10
79.309200000000004
 20
71.619500000000002
 30
0.0
 11
81.5197
 21
72.211699999999993
 31
0.0
  0
LINE
  5
D0
  8
0
 62
     7
 10
81.5197
 20
72.211699999999993
 30
0.0
 11
79.309200000000004
 21
72.803899999999999
 31
0.0
  0
LINE
  5
D1
  8
0
 62
     7
 10
79.309200000000004
 20
72.803899999999999
 30
0.0
 11
79.309200000000004
 21
71.619500000000002
 31
0.0
  0
LINE
  5
D2
  8
0
 62
     7
 10
36.569200000000002
 20
72.204499999999996
 30
0.0
 11
81.543700000000001
 21
72.204499999999996
 31
0.0
  0
LINE
  5
D3
  8
0
 62
     7
 10
36.519100000000002
 20
96.743399999999994
 30
0.0
 11
36.519100000000002
 21
71.088300000000004
 31
0.0
  0
LINE
  5
D4
  8
0
 62
     7
 10
81.5197
 20
96.743399999999994
 30
0.0
 11
81.5197
 21
71.088300000000004
 31
0.0
  0
LINE
  5
D5
  8
0
 62
     7
 10
98.593699999999998
 20
83.956500000000005
 30
0.0
 11
99.186000000000007
 21
81.746099999999984
 31
0.0
  0
LINE
  5
D6
  8
0
 62
     7
 10
99.186000000000007
 20
81.746099999999984
 30
0.0
 11
99.778499999999994
 21
83.956500000000005
 31
0.0
  0
LINE
  5
D7
  8
0
 62
     7
 10
99.778499999999994
 20
83.956500000000005
 30
0.0
 11
98.593699999999998
 21
83.956500000000005
 31
0.0
  0
LINE
  5
D8
  8
0
 62
     7
 10
99.763700000000014
 20
99.536000000000016
 30
0.0
 11
99.171499999999995
 21
101.746
 31
0.0
  0
LINE
  5
D9
  8
0
 62
     7
 10
99.171499999999995
 20
101.746
 30
0.0
 11
98.579300000000003
 21
99.536000000000016
 31
0.0
  0
LINE
  5
DA
  8
0
 62
     7
 10
98.579300000000003
 20
99.536000000000016
 30
0.0
 11
99.763700000000014
 21
99.536000000000016
 31
0.0
  0
LINE
  5
DB
  8
0
 62
     7
 10
99.178700000000006
 20
81.705399999999997
 30
0.0
 11
99.178700000000006
 21
101.72
 31
0.0
  0
LINE
  5
DC
  8
0
 62
     7
 10
90.351799999999997
 20
103.95699999999999
 30
0.0
 11
90.944000000000003
 21
101.746
 31
0.0
  0
LINE
  5
DD
  8
0
 62
     7
 10
90.944000000000003
 20
101.746
 30
0.0
 11
91.536400000000015
 21
103.95699999999999
 31
0.0
  0
LINE
  5
DE
  8
0
 62
     7
 10
91.536400000000015
 20
103.95699999999999
 30
0.0
 11
90.351799999999997
 21
103.95699999999999
 31
0.0
  0
LINE
  5
DF
  8
0
 62
     7
 10
90.351799999999997
 20
83.956500000000005
 30
0.0
 11
90.944000000000003
 21
81.746099999999984
 31
0.0
  0
LINE
  5
E0
  8
0
 62
     7
 10
90.944000000000003
 20
81.746099999999984
 30
0.0
 11
91.536400000000015
 21
83.956500000000005
 31
0.0
  0
LINE
  5
E1
  8
0
 62
     7
 10
91.536400000000015
 20
83.956500000000005
 30
0.0
 11
90.351799999999997
 21
83.956500000000005
 31
0.0
  0
LINE
  5
E2
  8
0
 62
     7
 10
91.521799999999985
 20
97.535399999999996
 30
0.0
 11
90.929599999999994
 21
99.745800000000017
 31
0.0
  0
LINE
  5
E3
  8
0
 62
     7
 10
90.929599999999994
 20
99.745800000000017
 30
0.0
 11
90.337199999999996
 21
97.535399999999996
 31
0.0
  0
LINE
  5
E4
  8
0
 62
     7
 10
90.337199999999996
 20
97.535399999999996
 30
0.0
 11
91.521799999999985
 21
97.535399999999996
 31
0.0
  0
LINE
  5
E5
  8
0
 62
     7
 10
90.936800000000005
 20
81.782599999999988
 30
0.0
 11
90.936800000000005
 21
108.73
 31
0.0
  0
LINE
  5
E6
  8
0
 62
     7
 10
84.535600000000017
 20
99.745800000000017
 30
0.0
 11
91.805700000000016
 21
99.745800000000017
 31
0.0
  0
LINE
  5
E7
  8
0
 62
     7
 10
78.546300000000002
 20
81.746099999999984
 30
0.0
 11
100.258
 21
81.746099999999984
 31
0.0
  0
LINE
  5
E8
  8
0
 62
     7
 10
83.513900000000007
 20
101.746
 30
0.0
 11
100.258
 21
101.746
 31
0.0
  0
LINE
  5
E9
  8
0
  6
AIGENLINE001
 62
     7
 10
59.0197
 20
103.777
 30
0.0
 11
59.0197
 21
79.380700000000004
 31
0.0
  0
LINE
  5
EA
  8
0
 62
     7
 10
63.07030000000001
 20
177.51499999999999
 30
0.0
 11
60.9148
 21
178.28399999999999
 31
0.0
  0
LINE
  5
EB
  8
0
 62
     7
 10
60.9148
 20
178.28399999999999
 30
0.0
 11
62.397100000000002
 21
176.53999999999999
 31
0.0
  0
LINE
  5
EC
  8
0
 62
     7
 10
62.397100000000002
 20
176.53999999999999
 30
0.0
 11
63.07030000000001
 21
177.51499999999999
 31
0.0
  0
LINE
  5
ED
  8
0
 62
     7
 10
54.949300000000001
 20
181.62799999999999
 30
0.0
 11
57.104700000000001
 21
180.85900000000001
 31
0.0
  0
LINE
  5
EE
  8
0
 62
     7
 10
57.104700000000001
 20
180.85900000000001
 30
0.0
 11
55.622500000000002
 21
182.602
 31
0.0
  0
LINE
  5
EF
  8
0
 62
     7
 10
55.622500000000002
 20
182.602
 30
0.0
 11
54.949300000000001
 21
181.62799999999999
 31
0.0
  0
LINE
  5
F0
  8
0
 62
     7
 10
63.546399999999991
 20
176.505
 30
0.0
 11
37.3065
 21
194.24000000000001
 31
0.0
  0
LINE
  5
F1
  8
0
 62
     7
 10
37.3065
 20
194.24000000000001
 30
0.0
 11
29.956299999999999
 21
194.24000000000001
 31
0.0
  0
LINE
  5
F2
  8
0
 62
     7
 10
95.3429
 20
162.226
 30
0.0
 11
95.935100000000006
 21
160.01599999999999
 31
0.0
  0
LINE
  5
F3
  8
0
 62
     7
 10
95.935100000000006
 20
160.01599999999999
 30
0.0
 11
96.527400000000014
 21
162.226
 31
0.0
  0
LINE
  5
F4
  8
0
 62
     7
 10
96.527400000000014
 20
162.226
 30
0.0
 11
95.3429
 21
162.226
 31
0.0
  0
LINE
  5
F5
  8
0
 62
     7
 10
96.512900000000016
 20
197.30500000000001
 30
0.0
 11
95.920699999999997
 21
199.51599999999999
 31
0.0
  0
LINE
  5
F6
  8
0
 62
     7
 10
95.920699999999997
 20
199.51599999999999
 30
0.0
 11
95.328500000000005
 21
197.30500000000001
 31
0.0
  0
LINE
  5
F7
  8
0
 62
     7
 10
95.328500000000005
 20
197.30500000000001
 30
0.0
 11
96.512900000000016
 21
197.30500000000001
 31
0.0
  0
LINE
  5
F8
  8
0
 62
     7
 10
95.927899999999994
 20
160.00200000000001
 30
0.0
 11
95.920699999999997
 21
199.51599999999999
 31
0.0
  0
LINE
  5
F9
  8
0
 62
     7
 10
36.729900000000001
 20
147.71199999999999
 30
0.0
 11
34.519599999999997
 21
147.12
 31
0.0
  0
LINE
  5
FA
  8
0
 62
     7
 10
34.519599999999997
 20
147.12
 30
0.0
 11
36.729900000000001
 21
146.52699999999999
 31
0.0
  0
LINE
  5
FB
  8
0
 62
     7
 10
36.729900000000001
 20
146.52699999999999
 30
0.0
 11
36.729900000000001
 21
147.71199999999999
 31
0.0
  0
LINE
  5
FC
  8
0
 62
     7
 10
81.309200000000004
 20
146.542
 30
0.0
 11
83.519800000000004
 21
147.13399999999999
 31
0.0
  0
LINE
  5
FD
  8
0
 62
     7
 10
83.519800000000004
 20
147.13399999999999
 30
0.0
 11
81.309200000000004
 21
147.726
 31
0.0
  0
LINE
  5
FE
  8
0
 62
     7
 10
81.309200000000004
 20
147.726
 30
0.0
 11
81.309200000000004
 21
146.542
 31
0.0
  0
LINE
  5
FF
  8
0
 62
     7
 10
34.482700000000001
 20
147.12700000000001
 30
0.0
 11
83.552700000000002
 21
147.12700000000001
 31
0.0
  0
LINE
  5
100
  8
0
 62
     7
 10
151.65700000000001
 20
101.746
 30
0.0
 11
150.24000000000001
 21
101.515
 31
0.0
  0
ARC
  5
101
  8
0
 62
     7
 10
154.71395899999999
 20
95.969513000000006
 30
0.0
 40
5.9842360000000001
 50
74.872152
 51
113.977397
  0
ARC
  5
102
  8
0
 62
     7
 10
26.078645000000002
 20
88.440694999999991
 30
0.0
 40
126.93595500000001
 50
5.1096129999999986
 51
5.5385369999999989
  0
ARC
  5
103
  8
0
 62
     7
 10
139.41233399999999
 20
99.347892000000002
 30
0.0
 40
13.078911
 50
5.8984279999999991
 51
8.2308869999999992
  0
ARC
  5
104
  8
0
 62
     7
 10
151.72815299999999
 20
101.123126
 30
0.0
 40
0.6358380000000001
 50
8.7909419999999994
 51
53.263184999999993
  0
ARC
  5
105
  8
0
 62
     7
 10
151.7334899999999
 20
101.119074
 30
0.0
 40
0.635929
 50
53.866943000000013
 51
98.239976999999996
  0
ARC
  5
106
  8
0
 62
     7
 10
151.73772500000001
 20
101.124127
 30
0.0
 40
0.631554
 50
98.685920999999979
 51
143.35440800000001
  0
ARC
  5
107
  8
0
 62
     7
 10
151.74051700000001
 20
101.125657
 30
0.0
 40
0.632888
 50
143.61642399999999
 51
188.2712689999999
  0
ARC
  5
108
  8
0
 62
     7
 10
143.77609899999999
 20
99.94378300000001
 30
0.0
 40
7.4187469999999989
 50
6.6410450000000001
 51
8.4552250000000004
  0
ARC
  5
109
  8
0
 62
     7
 10
131.50661199999999
 20
98.492800000000003
 30
0.0
 40
19.773724999999999
 50
5.3206020000000001
 51
6.7056499999999986
  0
ARC
  5
10A
  8
0
 62
     7
 10
-1211.9079999999999
 20
-25.410577
 30
0.0
 40
1368.8900000000001
 50
5.2458260000000001
 51
5.2702299999999997
  0
LINE
  5
10B
  8
0
 62
     7
 10
129.92099999999999
 20
101.746
 30
0.0
 11
131.339
 21
101.515
 31
0.0
  0
ARC
  5
10C
  8
0
 62
     7
 10
133.78043500000001
 20
99.671204000000003
 30
0.0
 40
3.230643999999999
 50
175.93209899999999
 51
178.67704499999999
  0
ARC
  5
10D
  8
0
 62
     7
 10
134.96971300000001
 20
99.610382000000001
 30
0.0
 40
4.4213050000000003
 50
170.15764200000001
 51
176.23918699999999
  0
ARC
  5
10E
  8
0
 62
     7
 10
132.04058499999999
 20
100.113601
 30
0.0
 40
1.4492769999999999
 50
162.35172499999999
 51
169.96450200000001
  0
ARC
  5
10F
  8
0
 62
     7
 10
132.64337399999999
 20
99.869562000000016
 30
0.0
 40
2.0982729999999989
 50
116.561593
 51
160.991625
  0
LINE
  5
110
  8
0
 62
     7
 10
131.70500000000001
 20
101.746
 30
0.0
 11
140.78899999999999
 21
101.746
 31
0.0
  0
LINE
  5
111
  8
0
 62
     7
 10
140.78899999999999
 20
101.746
 30
0.0
 11
149.87299999999999
 21
101.746
 31
0.0
  0
ARC
  5
112
  8
0
 62
     7
 10
148.97656799999999
 20
99.914486999999994
 30
0.0
 40
2.039277999999999
 50
46.255912000000009
 51
63.935481000000003
  0
ARC
  5
113
  8
0
 62
     7
 10
149.355324
 20
100.307877
 30
0.0
 40
1.4931939999999999
 50
30.800277000000001
 51
46.318143999999997
  0
ARC
  5
114
  8
0
 62
     7
 10
148.617199
 20
99.822294000000014
 30
0.0
 40
2.376174999999999
 50
18.828897999999999
 51
31.744108000000001
  0
ARC
  5
115
  8
0
 62
     7
 10
148.14575600000001
 20
99.631017000000014
 30
0.0
 40
2.8842689999999989
 50
2.280586
 51
19.402723999999999
  0
ARC
  5
116
  8
0
 62
     7
 10
126.86443199999999
 20
95.969513000000006
 30
0.0
 40
5.9842360000000001
 50
66.022583999999995
 51
105.12782900000001
  0
ARC
  5
117
  8
0
 62
     7
 10
238.779235
 20
90.053299999999979
 30
0.0
 40
110.13833
 50
174.48229699999999
 51
174.951255
  0
ARC
  5
118
  8
0
 62
     7
 10
142.82889900000001
 20
99.261164000000008
 30
0.0
 40
13.747343000000001
 50
171.80685299999999
 51
174.229274
  0
ARC
  5
119
  8
0
 62
     7
 10
129.85161099999999
 20
101.122939
 30
0.0
 40
0.637223
 50
126.87527300000001
 51
171.21126000000001
  0
ARC
  5
11A
  8
0
 62
     7
 10
129.84442300000001
 20
101.11877
 30
0.0
 40
0.636298
 50
81.721266
 51
126.132209
  0
ARC
  5
11B
  8
0
 62
     7
 10
129.84053
 20
101.123193
 30
0.0
 40
0.632498
 50
36.687399000000013
 51
81.314592000000005
  0
ARC
  5
11C
  8
0
 62
     7
 10
129.836569
 20
101.126171
 30
0.0
 40
0.6339130000000001
 50
351.69526200000001
 51
36.257711
  0
ARC
  5
11D
  8
0
 62
     7
 10
137.67278099999999
 20
99.962907000000016
 30
0.0
 40
7.2881720000000003
 50
171.54415599999999
 51
173.39077499999999
  0
ARC
  5
11E
  8
0
 62
     7
 10
150.10869400000001
 20
98.500050999999999
 30
0.0
 40
19.809822
 50
173.32772
 51
174.71016299999999
  0
ARC
  5
11F
  8
0
 62
     7
 10
-259.55040600000001
 20
135.91137499999999
 30
0.0
 40
391.55400700000001
 50
354.70036600000009
 51
354.785684
  0
LINE
  5
120
  8
0
 62
     7
 10
156.761
 20
99.745800000000017
 30
0.0
 11
156.27600000000001
 21
101.746
 31
0.0
  0
ARC
  5
121
  8
0
 62
     7
 10
156.68776099999999
 20
101.060008
 30
0.0
 40
0.800562
 50
107.81937499999999
 51
120.979472
  0
ARC
  5
122
  8
0
 62
     7
 10
156.69889800000001
 20
101.01730999999999
 30
0.0
 40
0.8446229999999999
 50
63.143259999999991
 51
107.652288
  0
ARC
  5
123
  8
0
 62
     7
 10
156.69379799999999
 20
101.022001
 30
0.0
 40
0.8427690000000001
 50
18.164069999999999
 51
62.689820999999988
  0
LINE
  5
124
  8
0
 62
     7
 10
157.495
 20
101.285
 30
0.0
 11
157.78899999999999
 21
99.745800000000017
 31
0.0
  0
LINE
  5
125
  8
0
 62
     7
 10
123.789
 20
99.745800000000017
 30
0.0
 11
124.084
 21
101.285
 31
0.0
  0
ARC
  5
126
  8
0
 62
     7
 10
124.832362
 20
101.046468
 30
0.0
 40
0.7855430000000001
 50
148.96453500000001
 51
162.34389300000001
  0
ARC
  5
127
  8
0
 62
     7
 10
124.883489
 20
101.022093
 30
0.0
 40
0.8419360000000001
 50
104.748768
 51
149.337084
  0
ARC
  5
128
  8
0
 62
     7
 10
124.876126
 20
101.017679
 30
0.0
 40
0.84437
 50
59.655132999999999
 51
104.189342
  0
LINE
  5
129
  8
0
 62
     7
 10
125.303
 20
101.746
 30
0.0
 11
124.81699999999999
 21
99.745800000000017
 31
0.0
  0
LINE
  5
12A
  8
0
 62
     7
 10
124.455
 20
101.746
 30
0.0
 11
122.52800000000001
 21
101.746
 31
0.0
  0
ARC
  5
12B
  8
0
 62
     7
 10
122.532455
 20
100.29589199999999
 30
0.0
 40
1.450485
 50
90.175674999999998
 51
134.74657999999999
  0
ARC
  5
12C
  8
0
 62
     7
 10
122.14899200000001
 20
100.689802
 30
0.0
 40
0.900787
 50
135.06178499999999
 51
147.61856700000001
  0
ARC
  5
12D
  8
0
 62
     7
 10
122.62808099999999
 20
100.366642
 30
0.0
 40
1.478537999999999
 50
146.98570100000001
 51
157.76447300000001
  0
ARC
  5
12E
  8
0
 62
     7
 10
123.297132
 20
100.076916
 30
0.0
 40
2.2075230000000001
 50
157.37508500000001
 51
178.90135100000001
  0
LINE
  5
130
  8
0
 62
     7
 10
121.09
 20
100.119
 30
0.0
 11
121.038
 21
99.745800000000017
 31
0.0
  0
LINE
  5
131
  8
0
 62
     7
 10
121.038
 20
99.745800000000017
 30
0.0
 11
140.78899999999999
 21
99.745800000000017
 31
0.0
  0
LINE
  5
132
  8
0
 62
     7
 10
140.78899999999999
 20
99.745800000000017
 30
0.0
 11
160.53899999999999
 21
99.745800000000017
 31
0.0
  0
LINE
  5
133
  8
0
 62
     7
 10
160.53899999999999
 20
99.745800000000017
 30
0.0
 11
160.48699999999999
 21
100.119
 31
0.0
  0
ARC
  5
134
  8
0
 62
     7
 10
158.74064899999999
 20
100.117024
 30
0.0
 40
1.7466950000000001
 50
0.06144
 51
8.9720220000000008
  0
ARC
  5
135
  8
0
 62
     7
 10
158.23555099999999
 20
100.05783
 30
0.0
 40
2.2549359999999998
 50
8.4561929999999972
 51
25.843202999999999
  0
ARC
  5
136
  8
0
 62
     7
 10
159.18350799999999
 20
100.49856800000001
 30
0.0
 40
1.209775
 50
26.627714999999998
 51
43.157853000000003
  0
ARC
  5
137
  8
0
 62
     7
 10
159.04492300000001
 20
100.29594400000001
 30
0.0
 40
1.450434
 50
45.252515000000002
 51
89.811475999999985
  0
LINE
  5
138
  8
0
 62
     7
 10
159.05000000000001
 20
101.746
 30
0.0
 11
157.124
 21
101.746
 31
0.0
  0
LINE
  5
139
  8
0
 62
     7
 10
36.519100000000002
 20
99.745800000000017
 30
0.0
 11
40.160400000000003
 21
82.523600000000016
 31
0.0
  0
ARC
  5
13A
  8
0
 62
     7
 10
41.102336999999999
 20
82.696313000000004
 30
0.0
 40
0.95761
 50
190.38762800000001
 51
234.61568299999999
  0
ARC
  5
13B
  8
0
 62
     7
 10
41.090148999999997
 20
82.698428000000007
 30
0.0
 40
0.9523430000000001
 50
235.287161
 51
269.89256599999999
  0
LINE
  5
13C
  8
0
 62
     7
 10
41.088399999999993
 20
81.746099999999984
 30
0.0
 11
76.950299999999999
 21
81.746099999999984
 31
0.0
  0
ARC
  5
13D
  8
0
 62
     7
 10
76.945959000000002
 20
82.700634999999991
 30
0.0
 40
0.9545580000000001
 50
270.26123899999999
 51
314.63308499999999
  0
ARC
  5
13E
  8
0
 62
     7
 10
76.942582000000002
 20
82.692080000000004
 30
0.0
 40
0.95088
 50
315.14004599999998
 51
349.79732100000012
  0
LINE
  5
13F
  8
0
 62
     7
 10
77.878399999999999
 20
82.523600000000016
 30
0.0
 11
81.5197
 21
99.745800000000017
 31
0.0
  0
ARC
  5
140
  8
0
 62
     7
 10
59.019424000000001
 20
-88.090395999999998
 30
0.0
 40
190.28823800000001
 50
86.290078000000008
 51
93.709901999999985
  0
ARC
  5
141
  8
0
 62
     7
 10
79.245399000000006
 20
101.00315999999999
 30
0.0
 40
0.8773559999999999
 50
111.633049
 51
124.320255
  0
ARC
  5
142
  8
0
 62
     7
 10
79.250866000000002
 20
100.987572
 30
0.0
 40
0.8938620000000001
 50
67.012144999999975
 51
111.590447
  0
ARC
  5
143
  8
0
 62
     7
 10
79.236438000000007
 20
100.983591
 30
0.0
 40
0.903237
 50
22.187501000000001
 51
66.268221999999994
  0
LINE
  5
144
  8
0
 62
     7
 10
80.072799999999987
 20
101.325
 30
0.0
 11
80.680700000000002
 21
99.745800000000017
 31
0.0
  0
LINE
  5
145
  8
0
 62
     7
 10
79.677999999999997
 20
99.745800000000017
 30
0.0
 11
78.750699999999995
 21
101.72799999999999
 31
0.0
  0
ARC
  5
146
  8
0
 62
     7
 10
76.742763999999994
 20
96.158030000000011
 30
0.0
 40
5.9206329999999996
 50
70.175066000000001
 51
114.605611
  0
ARC
  5
147
  8
0
 62
     7
 10
76.718897999999996
 20
96.268822999999998
 30
0.0
 40
5.8100160000000001
 50
114.846553
 51
124.138538
  0
LINE
  5
148
  8
0
 62
     7
 10
73.458299999999994
 20
99.745800000000017
 30
0.0
 11
73.458299999999994
 21
101.17100000000001
 31
0.0
  0
ARC
  5
149
  8
0
 62
     7
 10
72.824151000000001
 20
101.168103
 30
0.0
 40
0.634197
 50
0.265004
 51
44.816820999999997
  0
ARC
  5
14A
  8
0
 62
     7
 10
72.829278000000002
 20
101.169507
 30
0.0
 40
0.629575
 50
45.055095000000009
 51
89.891719999999992
  0
ARC
  5
14B
  8
0
 62
     7
 10
72.833376999999999
 20
101.164107
 30
0.0
 40
0.63498
 50
90.262460000000004
 51
134.74348800000001
  0
ARC
  5
14C
  8
0
 62
     7
 10
72.835305000000005
 20
101.16874799999999
 30
0.0
 40
0.6330580000000001
 50
135.163128
 51
179.79293000000001
  0
LINE
  5
14D
  8
0
 62
     7
 10
72.202299999999994
 20
101.17100000000001
 30
0.0
 11
72.202299999999994
 21
99.745800000000017
 31
0.0
  0
LINE
  5
14E
  8
0
 62
     7
 10
72.202299999999994
 20
99.745800000000017
 30
0.0
 11
71.331999999999994
 21
101.79900000000001
 31
0.0
  0
LINE
  5
14F
  8
0
 62
     7
 10
71.331999999999994
 20
101.79900000000001
 30
0.0
 11
72.202299999999994
 21
100.971
 31
0.0
  0
LINE
  5
150
  8
0
 62
     7
 10
79.720500000000001
 20
101.746
 30
0.0
 11
82.125200000000007
 21
101.746
 31
0.0
  0
ARC
  5
151
  8
0
 62
     7
 10
82.119170999999994
 20
100.32593900000001
 30
0.0
 40
1.4204439999999989
 50
45.584313999999992
 51
89.755916999999997
  0
ARC
  5
152
  8
0
 62
     7
 10
82.113722999999979
 20
100.35159400000001
 30
0.0
 40
1.4061019999999991
 50
0.302669
 51
44.694082999999999
  0
LINE
  5
153
  8
0
 62
     7
 10
83.519800000000004
 20
100.35899999999999
 30
0.0
 11
83.519800000000004
 21
99.745800000000017
 31
0.0
  0
LINE
  5
154
  8
0
 62
     7
 10
83.519800000000004
 20
99.745800000000017
 30
0.0
 11
59.0197
 21
99.745800000000017
 31
0.0
  0
LINE
  5
155
  8
0
 62
     7
 10
59.0197
 20
99.745800000000017
 30
0.0
 11
34.519599999999997
 21
99.745800000000017
 31
0.0
  0
LINE
  5
156
  8
0
 62
     7
 10
34.519599999999997
 20
99.745800000000017
 30
0.0
 11
34.519599999999997
 21
100.35899999999999
 31
0.0
  0
ARC
  5
157
  8
0
 62
     7
 10
35.923689000000003
 20
100.352053
 30
0.0
 40
1.4041479999999991
 50
135.25328500000001
 51
179.71559500000001
  0
ARC
  5
158
  8
0
 62
     7
 10
35.913713000000001
 20
100.34259299999999
 30
0.0
 40
1.403789999999999
 50
90.235611000000006
 51
134.692441
  0
LINE
  5
159
  8
0
 62
     7
 10
35.907899999999998
 20
101.746
 30
0.0
 11
38.3185
 21
101.746
 31
0.0
  0
ARC
  5
15A
  8
0
 62
     7
 10
38.785760000000003
 20
100.984708
 30
0.0
 40
0.8968430000000001
 50
55.947780000000002
 51
100.35288
  0
ARC
  5
15B
  8
0
 62
     7
 10
38.799348000000002
 20
100.979843
 30
0.0
 40
0.904157
 50
101.144571
 51
145.169299
  0
ARC
  5
15C
  8
0
 62
     7
 10
38.792448999999998
 20
100.994922
 30
0.0
 40
0.889921
 50
145.712503
 51
158.25003100000001
  0
LINE
  5
15D
  8
0
 62
     7
 10
37.965899999999998
 20
101.325
 30
0.0
 11
37.358899999999998
 21
99.745800000000017
 31
0.0
  0
LINE
  5
15E
  8
0
 62
     7
 10
38.361400000000003
 20
99.745800000000017
 30
0.0
 11
39.2879
 21
101.72799999999999
 31
0.0
  0
ARC
  5
15F
  8
0
 62
     7
 10
41.289976000000003
 20
96.266126000000014
 30
0.0
 40
5.8170140000000004
 50
100.844264
 51
110.131013
  0
ARC
  5
160
  8
0
 62
     7
 10
41.284084
 20
96.159942000000015
 30
0.0
 40
5.9202490000000001
 50
56.166890000000002
 51
100.59491300000001
  0
LINE
  5
161
  8
0
 62
     7
 10
44.580299999999987
 20
99.745800000000017
 30
0.0
 11
44.580299999999987
 21
101.17100000000001
 31
0.0
  0
ARC
  5
162
  8
0
 62
     7
 10
45.222060999999997
 20
101.16550700000001
 30
0.0
 40
0.6417510000000001
 50
135.52558999999999
 51
179.50634600000001
  0
ARC
  5
163
  8
0
 62
     7
 10
45.213107999999998
 20
101.15928
 30
0.0
 40
0.639815
 50
90.377228000000002
 51
134.56593599999999
  0
ARC
  5
164
  8
0
 62
     7
 10
45.205976999999997
 20
101.164501
 30
0.0
 40
0.634586
 50
45.241847
 51
89.736443000000008
  0
ARC
  5
165
  8
0
 62
     7
 10
45.20070599999999
 20
101.16817
 30
0.0
 40
0.635725
 50
0.25836
 51
44.67170999999999
  0
LINE
  5
166
  8
0
 62
     7
 10
45.83639999999999
 20
101.17100000000001
 30
0.0
 11
45.83639999999999
 21
99.745800000000017
 31
0.0
  0
LINE
  5
167
  8
0
 62
     7
 10
45.83639999999999
 20
99.745800000000017
 30
0.0
 11
46.706799999999987
 21
101.79900000000001
 31
0.0
  0
LINE
  5
168
  8
0
 62
     7
 10
46.706799999999987
 20
101.79900000000001
 30
0.0
 11
45.83639999999999
 21
100.971
 31
0.0
  0
ARC
  5
169
  8
0
 62
     7
 10
43.043132999999997
 20
184.712008
 30
0.0
 40
7.1409159999999998
 50
130.813354
 51
147.05771300000001
  0
ARC
  5
16A
  8
0
 62
     7
 10
50.457647999999999
 20
180.00216
 30
0.0
 40
15.9247
 50
147.34329500000001
 51
191.73194899999999
  0
ARC
  5
16B
  8
0
 62
     7
 10
55.844313999999997
 20
181.24855600000001
 30
0.0
 40
21.452635000000001
 50
192.06599
 51
201.57243600000001
  0
ARC
  5
16C
  8
0
 62
     7
 10
50.289914000000003
 20
179.126229
 30
0.0
 40
15.507121
 50
201.82575
 51
208.587929
  0
ARC
  5
16D
  8
0
 62
     7
 10
46.235056
 20
177.00081900000001
 30
0.0
 40
10.929843
 50
208.975787
 51
212.82465400000009
  0
ARC
  5
16E
  8
0
 62
     7
 10
43.061957999999997
 20
174.978126
 30
0.0
 40
7.1669720000000003
 50
212.98696699999999
 51
229.16767799999991
  0
ARC
  5
16F
  8
0
 62
     7
 10
31.836804000000001
 20
168.58577299999999
 30
0.0
 40
7.674879999999999
 50
12.628515
 51
26.990527
  0
ARC
  5
170
  8
0
 62
     7
 10
53.487696999999997
 20
179.62503000000001
 30
0.0
 40
16.627927
 50
197.963088
 51
207.027646
  0
ARC
  5
171
  8
0
 62
     7
 10
53.609916000000013
 20
179.660965
 30
0.0
 40
16.755271
 50
179.259996
 51
197.951088
  0
ARC
  5
172
  8
0
 62
     7
 10
54.779835999999989
 20
179.771365
 30
0.0
 40
17.924108
 50
158.05771999999999
 51
179.66117
  0
ARC
  5
173
  8
0
 62
     7
 10
52.659832999999999
 20
180.47881799999999
 30
0.0
 40
15.693909
 50
153.00569299999989
 51
157.561273
  0
ARC
  5
174
  8
0
 62
     7
 10
31.841028000000001
 20
191.08430100000001
 30
0.0
 40
7.6705709999999998
 50
333.003151
 51
347.370833
  0
ARC
  5
175
  8
0
 62
     7
 10
75.013495999999989
 20
184.730356
 30
0.0
 40
7.1152939999999996
 50
32.899906999999999
 51
49.199477000000009
  0
ARC
  5
176
  8
0
 62
     7
 10
67.649169000000001
 20
179.960733
 30
0.0
 40
15.889268
 50
12.31105
 51
32.916386000000003
  0
ARC
  5
177
  8
0
 62
     7
 10
67.512520999999992
 20
180.00957099999999
 30
0.0
 40
16.012544999999999
 50
356.01076899999998
 51
12.036061999999999
  0
ARC
  5
178
  8
0
 62
     7
 10
66.36049100000001
 20
179.99092300000001
 30
0.0
 40
17.160769999999999
 50
334.56339400000002
 51
356.34046799999999
  0
ARC
  5
179
  8
0
 62
     7
 10
68.610165000000009
 20
179.067814
 30
0.0
 40
14.733288
 50
327.151003
 51
334.047574
  0
ARC
  5
17A
  8
0
 62
     7
 10
75.010105999999993
 20
174.946313
 30
0.0
 40
7.1210699999999987
 50
310.79643600000003
 51
327.07847099999998
  0
ARC
  5
17B
  8
0
 62
     7
 10
86.162521999999996
 20
168.600257
 30
0.0
 40
7.632477999999999
 50
152.969347
 51
167.41157100000001
  0
ARC
  5
17C
  8
0
 62
     7
 10
64.936475000000002
 20
179.41869199999999
 30
0.0
 40
16.191535999999999
 50
333.00428099999999
 51
349.33123999999998
  0
ARC
  5
17D
  8
0
 62
     7
 10
63.164154000000003
 20
179.86235500000001
 30
0.0
 40
18.01568
 50
348.988136
 51
14.515259
  0
ARC
  5
17E
  8
0
 62
     7
 10
65.167147
 20
180.24501799999999
 30
0.0
 40
15.981252
 50
14.986995
 51
17.966874000000001
  0
ARC
  5
17F
  8
0
 62
     7
 10
64.396299999999997
 20
179.98223100000001
 30
0.0
 40
16.795573999999998
 50
18.008462000000002
 51
26.98104
  0
ARC
  5
180
  8
0
 62
     7
 10
86.161744999999996
 20
191.071056
 30
0.0
 40
7.6318029999999988
 50
192.5925
 51
207.033556
  0
ARC
  5
181
  8
0
 62
     7
 10
59.019337
 20
161.50384
 30
0.0
 40
35.678122000000002
 50
69.529801000000006
 51
110.470179
  0
LINE
  5
182
  8
0
 62
     7
 10
49.4998
 20
188.607
 30
0.0
 11
46.142499999999998
 21
195.78399999999999
 31
0.0
  0
ARC
  5
183
  8
0
 62
     7
 10
45.244911000000002
 20
195.46373800000001
 30
0.0
 40
0.952959
 50
19.623336999999999
 51
64.037413999999998
  0
ARC
  5
184
  8
0
 62
     7
 10
45.254359999999998
 20
195.463471
 30
0.0
 40
0.9491009999999999
 50
64.557310999999999
 51
109.1332
  0
ARC
  5
185
  8
0
 62
     7
 10
45.259231999999997
 20
195.46680499999999
 30
0.0
 40
0.9475649999999999
 50
109.477615
 51
154.11966899999999
  0
ARC
  5
186
  8
0
 62
     7
 10
45.267727999999998
 20
195.471148
 30
0.0
 40
0.953344
 50
154.5773669999999
 51
198.980909
  0
ARC
  5
187
  8
0
 62
     7
 10
45.322122999999998
 20
195.509241
 30
0.0
 40
1.0173369999999999
 50
200.01331999999999
 51
214.77206200000001
  0
LINE
  5
188
  8
0
 62
     7
 10
44.486499999999992
 20
194.929
 30
0.0
 11
49.12939999999999
 21
188.36699999999999
 31
0.0
  0
ARC
  5
189
  8
0
 62
     7
 10
36.263728999999998
 20
201.44827599999999
 30
0.0
 40
11.64716
 50
291.65526799999998
 51
319.938197
  0
ARC
  5
18A
  8
0
 62
     7
 10
46.82405399999999
 20
186.68718799999999
 30
0.0
 40
8.9158589999999993
 50
106.17474
 51
147.37879000000001
  0
LINE
  5
18B
  8
0
 62
     7
 10
46.2333
 20
185.85900000000001
 30
0.0
 11
39.701000000000001
 21
191.34599999999989
 31
0.0
  0
ARC
  5
18C
  8
0
 62
     7
 10
39.183232000000011
 20
190.562288
 30
0.0
 40
0.9396969999999999
 50
56.563634999999998
 51
101.03421299999999
  0
ARC
  5
18D
  8
0
 62
     7
 10
39.19020900000001
 20
190.56733700000001
 30
0.0
 40
0.9361089999999999
 50
101.512536
 51
146.17540600000001
  0
ARC
  5
18E
  8
0
 62
     7
 10
39.191642000000002
 20
190.57173599999999
 30
0.0
 40
0.9348610000000001
 50
146.44822600000001
 51
191.13885400000001
  0
ARC
  5
18F
  8
0
 62
     7
 10
39.193821
 20
190.578191
 30
0.0
 40
0.9382649999999999
 50
191.49992
 51
236.04190399999999
  0
ARC
  5
190
  8
0
 62
     7
 10
39.247317000000002
 20
190.66786399999989
 30
0.0
 40
1.0425420000000001
 50
236.35613599999999
 51
238.70150699999999
  0
LINE
  5
191
  8
0
 62
     7
 10
38.7057
 20
189.77699999999999
 30
0.0
 11
45.722900000000003
 21
185.59399999999999
 31
0.0
  0
ARC
  5
192
  8
0
 62
     7
 10
81.772599000000014
 20
201.444784
 30
0.0
 40
11.642984
 50
220.056645
 51
248.34992900000009
  0
ARC
  5
193
  8
0
 62
     7
 10
71.215893999999992
 20
186.68888899999999
 30
0.0
 40
8.9140139999999999
 50
32.615797999999998
 51
73.82686600000001
  0
LINE
  5
194
  8
0
 62
     7
 10
68.539100000000005
 20
188.607
 30
0.0
 11
71.896299999999997
 21
195.78399999999999
 31
0.0
  0
ARC
  5
195
  8
0
 62
     7
 10
72.799412000000004
 20
195.46355299999999
 30
0.0
 40
0.9581799999999999
 50
144.80550099999999
 51
160.476201
  0
ARC
  5
196
  8
0
 62
     7
 10
72.793559000000002
 20
195.45810499999999
 30
0.0
 40
0.956569
 50
100.13027199999991
 51
144.33679699999999
  0
ARC
  5
197
  8
0
 62
     7
 10
72.781429000000003
 20
195.457886
 30
0.0
 40
0.9547260000000001
 50
55.067549
 51
99.411321000000001
  0
ARC
  5
198
  8
0
 62
     7
 10
72.771357999999992
 20
195.46389400000001
 30
0.0
 40
0.9556389999999998
 50
10.080182000000001
 51
54.366241000000002
  0
ARC
  5
199
  8
0
 62
     7
 10
72.769983999999994
 20
195.47642999999999
 30
0.0
 40
0.9548809999999999
 50
325.02258799999998
 51
9.3251420000000014
  0
LINE
  5
19A
  8
0
 62
     7
 10
73.552400000000006
 20
194.929
 30
0.0
 11
68.909199999999998
 21
188.36699999999999
 31
0.0
  0
LINE
  5
19B
  8
0
 62
     7
 10
71.805400000000006
 20
185.85900000000001
 30
0.0
 11
78.337699999999998
 21
191.34599999999989
 31
0.0
  0
ARC
  5
19C
  8
0
 62
     7
 10
79.596675000000005
 20
189.35584299999999
 30
0.0
 40
2.355353
 50
121.262224
 51
122.31225499999999
  0
ARC
  5
19D
  8
0
 62
     7
 10
78.854849999999999
 20
190.56496300000001
 30
0.0
 40
0.9368459999999999
 50
76.251626000000002
 51
120.85655300000001
  0
ARC
  5
19E
  8
0
 62
     7
 10
78.848915000000005
 20
190.56705099999999
 30
0.0
 40
0.9362479999999999
 50
31.201807000000009
 51
75.868442000000002
  0
ARC
  5
19F
  8
0
 62
     7
 10
78.845974999999996
 20
190.57187400000001
 30
0.0
 40
0.9362809999999999
 50
346.22459199999997
 51
30.85615499999999
  0
ARC
  5
1A0
  8
0
 62
     7
 10
78.845337999999984
 20
190.5790879999999
 30
0.0
 40
0.938643
 50
301.29810400000002
 51
345.80614800000001
  0
LINE
  5
1A1
  8
0
 62
     7
 10
79.332999999999998
 20
189.77699999999999
 30
0.0
 11
72.316599999999994
 21
185.59399999999999
 31
0.0
  0
ARC
  5
1A2
  8
0
 62
     7
 10
59.011269999999989
 20
186.67245199999999
 30
0.0
 40
26.659001
 50
285.4339240000001
 51
299.57422000000003
  0
ARC
  5
1A3
  8
0
 62
     7
 10
59.063520999999987
 20
187.006226
 30
0.0
 40
26.967192000000001
 50
240.71001999999999
 51
285.13818600000002
  0
ARC
  5
1A4
  8
0
 62
     7
 10
59.019337
 20
198.16795200000001
 30
0.0
 40
35.678122000000002
 50
249.529821
 51
290.47019899999998
  0
LINE
  5
1A5
  8
0
 62
     7
 10
49.4998
 20
171.06399999999999
 30
0.0
 11
46.142499999999998
 21
163.88800000000001
 31
0.0
  0
ARC
  5
1A6
  8
0
 62
     7
 10
45.261161000000001
 20
164.196359
 30
0.0
 40
0.9337409999999998
 50
324.60092100000003
 51
340.71780799999999
  0
ARC
  5
1A7
  8
0
 62
     7
 10
45.248578999999992
 20
164.208518
 30
0.0
 40
0.9510439999999999
 50
279.97780899999998
 51
324.44289900000001
  0
ARC
  5
1A8
  8
0
 62
     7
 10
45.258435999999989
 20
164.216104
 30
0.0
 40
0.9568709999999999
 50
235.09551200000001
 51
279.31784099999999
  0
ARC
  5
1A9
  8
0
 62
     7
 10
45.265937999999991
 20
164.20632900000001
 30
0.0
 40
0.9532200000000001
 50
190.031272
 51
234.389455
  0
ARC
  5
1AA
  8
0
 62
     7
 10
45.267057999999999
 20
164.19662
 30
0.0
 40
0.9526809999999999
 50
145.022265
 51
189.44451799999999
  0
LINE
  5
1AB
  8
0
 62
     7
 10
44.486499999999992
 20
164.74299999999999
 30
0.0
 11
49.12939999999999
 21
171.304
 31
0.0
  0
ARC
  5
1AC
  8
0
 62
     7
 10
67.950749999999999
 20
168.013959
 30
0.0
 40
3.6197439999999999
 50
81.438564
 51
115.201385
  0
ARC
  5
1AD
  8
0
 62
     7
 10
59.158669999999987
 20
186.55394799999999
 30
0.0
 40
16.899335999999991
 50
289.62190099999998
 51
295.40777400000002
  0
ARC
  5
1AE
  8
0
 62
     7
 10
59.031082999999988
 20
187.12751499999999
 30
0.0
 40
17.482590999999999
 50
244.95153300000001
 51
289.38451800000001
  0
ARC
  5
1AF
  8
0
 62
     7
 10
50.088988999999998
 20
168.02001799999999
 30
0.0
 40
3.6138080000000001
 50
64.772965999999997
 51
98.581609000000014
  0
ARC
  5
1B0
  8
0
 62
     7
 10
44.889749000000002
 20
169.33531300000001
 30
0.0
 40
5.1782589999999988
 50
25.853038999999999
 51
70.259125999999995
  0
ARC
  5
1B1
  8
0
 62
     7
 10
44.895435999999997
 20
169.245182
 30
0.0
 40
5.2612930000000002
 50
70.648955000000001
 51
77.678786000000002
  0
ARC
  5
1B2
  8
0
 62
     7
 10
50.914763999999998
 20
178.121611
 30
0.0
 40
6.1592919999999989
 50
207.413467
 51
217.34518
  0
ARC
  5
1B3
  8
0
 62
     7
 10
53.609749000000001
 20
179.61843999999999
 30
0.0
 40
9.2412210000000012
 50
198.99670399999999
 51
207.95878300000001
  0
ARC
  5
1B4
  8
0
 62
     7
 10
55.955382
 20
180.51169200000001
 30
0.0
 40
11.75015
 50
187.83994699999991
 51
199.39201199999999
  0
ARC
  5
1B5
  8
0
 62
     7
 10
52.952194999999989
 20
180.01875699999999
 30
0.0
 40
8.7081509999999991
 50
142.77538699999999
 51
187.32229599999999
  0
ARC
  5
1B6
  8
0
 62
     7
 10
44.90115999999999
 20
190.33595500000001
 30
0.0
 40
5.171354
 50
282.47400399999998
 51
326.94566099999997
  0
ARC
  5
1B7
  8
0
 62
     7
 10
44.738841999999991
 20
190.39425900000001
 30
0.0
 40
5.3393499999999987
 50
327.371308
 51
334.29347100000001
  0
ARC
  5
1B8
  8
0
 62
     7
 10
50.08852199999999
 20
191.65479999999999
 30
0.0
 40
3.6168999999999989
 50
261.43327599999998
 51
295.21214900000001
  0
ARC
  5
1B9
  8
0
 62
     7
 10
58.991006999999989
 20
172.83371199999999
 30
0.0
 40
17.203471
 50
109.650201
 51
115.335916
  0
ARC
  5
1BA
  8
0
 62
     7
 10
59.008814000000001
 20
172.55245400000001
 30
0.0
 40
17.474511
 50
64.943553000000009
 51
109.395072
  0
ARC
  5
1BB
  8
0
 62
     7
 10
67.950671
 20
191.65711899999999
 30
0.0
 40
3.6192190000000002
 50
244.79609600000001
 51
278.56395499999991
  0
ARC
  5
1BC
  8
0
 62
     7
 10
73.142106000000013
 20
190.32847699999999
 30
0.0
 40
5.168088
 50
205.81124
 51
250.30509699999999
  0
ARC
  5
1BD
  8
0
 62
     7
 10
73.093009999999992
 20
190.24578500000001
 30
0.0
 40
5.0737199999999989
 50
250.51237900000001
 51
257.79869400000001
  0
ARC
  5
1BE
  8
0
 62
     7
 10
65.081474
 20
179.99571
 30
0.0
 40
8.726229
 50
7.9605119999999987
 51
37.324522999999999
  0
ARC
  5
1BF
  8
0
 62
     7
 10
64.724496000000002
 20
180.007409
 30
0.0
 40
9.0783520000000006
 50
353.14952499999998
 51
7.5753690000000002
  0
ARC
  5
1C0
  8
0
 62
     7
 10
63.629958999999999
 20
180.05086600000001
 30
0.0
 40
10.170634
 50
334.33939099999998
 51
353.64193899999998
  0
ARC
  5
1C1
  8
0
 62
     7
 10
65.699074999999993
 20
179.14859799999999
 30
0.0
 40
7.9152990000000001
 50
323.002163
 51
333.74055399999997
  0
ARC
  5
1C2
  8
0
 62
     7
 10
73.142336
 20
169.33050800000001
 30
0.0
 40
5.1777309999999988
 50
102.511059
 51
146.92802
  0
ARC
  5
1C3
  8
0
 62
     7
 10
72.924215000000004
 20
169.488282
 30
0.0
 40
4.9088709999999987
 50
147.08191600000001
 51
154.606469
  0
ARC
  5
1C4
  8
0
 62
     7
 10
36.264750999999997
 20
158.224029
 30
0.0
 40
11.645826
 50
40.061810999999999
 51
68.347536000000005
  0
ARC
  5
1C5
  8
0
 62
     7
 10
46.826690999999997
 20
172.98673400000001
 30
0.0
 40
8.9191350000000007
 50
212.62266600000001
 51
253.813726
  0
LINE
  5
1C6
  8
0
 62
     7
 10
46.2333
 20
173.81200000000001
 30
0.0
 11
39.701000000000001
 21
168.32599999999999
 31
0.0
  0
ARC
  5
1C7
  8
0
 62
     7
 10
28.609603
 20
185.24972500000001
 30
0.0
 40
20.234839999999998
 50
303.11791099999999
 51
303.239125
  0
ARC
  5
1C8
  8
0
 62
     7
 10
39.183306000000002
 20
169.114045
 30
0.0
 40
0.9441950000000002
 50
256.40388200000001
 51
300.687837
  0
ARC
  5
1C9
  8
0
 62
     7
 10
39.192833
 20
169.1090759999999
 30
0.0
 40
0.9416629999999999
 50
211.384355
 51
255.769372
  0
ARC
  5
1CA
  8
0
 62
     7
 10
39.205432999999999
 20
169.10101399999999
 30
0.0
 40
0.9483159999999999
 50
166.492266
 51
210.57200599999999
  0
ARC
  5
1CB
  8
0
 62
     7
 10
39.193703999999997
 20
169.091847
 30
0.0
 40
0.9391249999999999
 50
121.3064389999999
 51
165.78127599999999
  0
LINE
  5
1CC
  8
0
 62
     7
 10
38.7057
 20
169.89400000000001
 30
0.0
 11
45.722900000000003
 21
174.078
 31
0.0
  0
ARC
  5
1CD
  8
0
 62
     7
 10
81.771578000000005
 20
158.227521
 30
0.0
 40
11.641651
 50
111.647266
 51
139.94334599999999
  0
ARC
  5
1CE
  8
0
 62
     7
 10
71.213257999999996
 20
172.98503199999999
 30
0.0
 40
8.9172890000000002
 50
286.1846680000001
 51
327.38274699999999
  0
LINE
  5
1CF
  8
0
 62
     7
 10
68.539100000000005
 20
171.06399999999999
 30
0.0
 11
71.896299999999997
 21
163.88800000000001
 31
0.0
  0
ARC
  5
1D0
  8
0
 62
     7
 10
72.795518999999999
 20
164.20947200000001
 30
0.0
 40
0.9549260000000001
 50
199.67151799999999
 51
243.989273
  0
ARC
  5
1D1
  8
0
 62
     7
 10
72.785184000000001
 20
164.21058400000001
 30
0.0
 40
0.951443
 50
244.57797099999999
 51
289.02892300000002
  0
ARC
  5
1D2
  8
0
 62
     7
 10
72.773783999999992
 20
164.21080599999999
 30
0.0
 40
0.9554299999999999
 50
289.67084799999998
 51
333.949074
  0
ARC
  5
1D3
  8
0
 62
     7
 10
72.770300000000006
 20
164.200006
 30
0.0
 40
0.953883
 50
334.62383299999999
 51
18.955660000000002
  0
ARC
  5
1D4
  8
0
 62
     7
 10
72.767721999999992
 20
164.19083499999999
 30
0.0
 40
0.9593329999999999
 50
19.423632000000001
 51
35.121518999999999
  0
LINE
  5
1D5
  8
0
 62
     7
 10
73.552400000000006
 20
164.74299999999999
 30
0.0
 11
68.909199999999998
 21
171.304
 31
0.0
  0
LINE
  5
1D6
  8
0
 62
     7
 10
71.805400000000006
 20
173.81200000000001
 30
0.0
 11
78.337699999999998
 21
168.32599999999999
 31
0.0
  0
ARC
  5
1D7
  8
0
 62
     7
 10
78.855563000000004
 20
169.10983400000001
 30
0.0
 40
0.9398939999999999
 50
236.56283500000009
 51
281.04583100000002
  0
ARC
  5
1D8
  8
0
 62
     7
 10
78.848295999999991
 20
169.10732100000001
 30
0.0
 40
0.938851
 50
281.51048100000003
 51
326.03896400000008
  0
ARC
  5
1D9
  8
0
 62
     7
 10
78.839756000000008
 20
169.10124099999999
 30
0.0
 40
0.9425889999999998
 50
326.635493
 51
10.962374000000001
  0
ARC
  5
1DA
  8
0
 62
     7
 10
78.842776999999998
 20
169.09024199999999
 30
0.0
 40
0.941783
 50
11.654273
 51
56.033689000000003
  0
ARC
  5
1DB
  8
0
 62
     7
 10
79.084190000000007
 20
169.46357800000001
 30
0.0
 40
0.4973430000000001
 50
55.070008000000001
 51
59.987595000000013
  0
LINE
  5
1DC
  8
0
 62
     7
 10
79.332999999999998
 20
169.89400000000001
 30
0.0
 11
72.316599999999994
 21
174.078
 31
0.0
  0
ARC
  5
1DD
  8
0
 62
     7
 10
73.138743999999988
 20
169.33568199999999
 30
0.0
 40
4.6694389999999988
 50
102.514032
 51
146.92753300000001
  0
ARC
  5
1DE
  8
0
 62
     7
 10
73.059646000000001
 20
169.41193999999999
 30
0.0
 40
4.5615899999999989
 50
147.188028
 51
158.12887000000001
  0
ARC
  5
1DF
  8
0
 62
     7
 10
69.611581000000001
 20
165.444999
 30
0.0
 40
5.7203699999999991
 50
97.889542000000006
 51
118.705504
  0
ARC
  5
1E0
  8
0
 62
     7
 10
59.002012000000001
 20
184.83586299999999
 30
0.0
 40
16.383216999999998
 50
286.3128319999999
 51
298.67777699999999
  0
ARC
  5
1E1
  8
0
 62
     7
 10
59.041856000000003
 20
185.00032400000001
 30
0.0
 40
16.530082
 50
241.58053200000001
 51
286.02016900000001
  0
ARC
  5
1E2
  8
0
 62
     7
 10
48.419418
 20
165.421267
 30
0.0
 40
5.7449570000000003
 50
61.339513000000011
 51
82.065402000000006
  0
ARC
  5
1E3
  8
0
 62
     7
 10
44.896082999999997
 20
169.34827899999999
 30
0.0
 40
4.6625239999999986
 50
22.216615000000001
 51
66.691757999999993
  0
ARC
  5
1E4
  8
0
 62
     7
 10
44.947203999999999
 20
169.42864800000001
 30
0.0
 40
4.5685120000000001
 50
66.881737999999999
 51
77.812103000000022
  0
ARC
  5
1E5
  8
0
 62
     7
 10
51.054850000000002
 20
179.38650100000001
 30
0.0
 40
7.5244589999999993
 50
223.11966799999999
 51
226.88036199999999
  0
ARC
  5
1E6
  8
0
 62
     7
 10
50.289076000000001
 20
178.679383
 30
0.0
 40
6.4821710000000001
 50
210.775057
 51
223.184011
  0
ARC
  5
1E7
  8
0
 62
     7
 10
52.010638
 20
179.78015099999999
 30
0.0
 40
8.5247840000000004
 50
196.12799000000001
 51
211.211206
  0
ARC
  5
1E8
  8
0
 62
     7
 10
52.875893999999988
 20
180.11542
 30
0.0
 40
9.4494720000000001
 50
178.861684
 51
196.623493
  0
ARC
  5
1E9
  8
0
 62
     7
 10
51.336646999999999
 20
180.01632000000001
 30
0.0
 40
7.9135600000000004
 50
133.27694
 51
177.92289
  0
ARC
  5
1EA
  8
0
 62
     7
 10
44.904682000000001
 20
190.330298
 30
0.0
 40
4.6625680000000003
 50
282.47298899999998
 51
326.95022699999998
  0
ARC
  5
1EB
  8
0
 62
     7
 10
44.965571999999987
 20
190.26800299999999
 30
0.0
 40
4.5775959999999989
 50
327.188151
 51
338.0877680000001
  0
ARC
  5
1EC
  8
0
 62
     7
 10
48.420915999999991
 20
194.24246400000001
 30
0.0
 40
5.7376189999999996
 50
277.92971499999999
 51
298.68350400000003
  0
ARC
  5
1ED
  8
0
 62
     7
 10
59.021321999999998
 20
174.87546
 30
0.0
 40
16.340638999999999
 50
106.30045800000001
 51
118.697419
  0
ARC
  5
1EE
  8
0
 62
     7
 10
58.996549999999999
 20
174.66949700000001
 30
0.0
 40
16.531572000000001
 50
61.581566000000009
 51
106.017696
  0
ARC
  5
1EF
  8
0
 62
     7
 10
69.620373999999984
 20
194.24984799999999
 30
0.0
 40
5.7452690000000004
 50
241.33048700000001
 51
262.05633399999999
  0
ARC
  5
1F0
  8
0
 62
     7
 10
73.139271999999991
 20
190.31968499999999
 30
0.0
 40
4.6581700000000001
 50
202.19909200000001
 51
246.71316300000001
  0
ARC
  5
1F1
  8
0
 62
     7
 10
73.076943999999983
 20
190.20855
 30
0.0
 40
4.5314680000000003
 50
246.881507
 51
257.89885299999997
  0
ARC
  5
1F2
  8
0
 62
     7
 10
66.957859999999997
 20
180.259154
 30
0.0
 40
7.5614119999999989
 50
43.126994000000003
 51
46.872996000000001
  0
ARC
  5
1F3
  8
0
 62
     7
 10
66.636735999999999
 20
179.99560600000001
 30
0.0
 40
7.975992999999999
 50
358.66389400000003
 51
42.931754999999988
  0
ARC
  5
1F4
  8
0
 62
     7
 10
65.702618999999999
 20
180.091803
 30
0.0
 40
8.9124100000000013
 50
342.73572700000011
 51
358.185654
  0
ARC
  5
1F5
  8
0
 62
     7
 10
65.319879999999998
 20
180.130324
 30
0.0
 40
9.2896539999999987
 50
326.79485599999998
 51
343.20943799999998
  0
ARC
  5
1F6
  8
0
 62
     7
 10
67.323817000000005
 20
178.91220899999999
 30
0.0
 40
6.9462839999999986
 50
313.74671899999998
 51
326.14966600000002
  0
ARC
  5
1F7
  8
0
 62
     7
 10
57.110624999999999
 20
195.620259
 30
0.0
 40
0.477962
 50
0.315096
 51
44.570405999999998
  0
ARC
  5
1F8
  8
0
 62
     7
 10
57.114077000000002
 20
195.611254
 30
0.0
 40
0.4819040000000001
 50
45.621183000000002
 51
89.597705000000005
  0
ARC
  5
1F9
  8
0
 62
     7
 10
57.118352000000002
 20
195.618978
 30
0.0
 40
0.474169
 50
90.107715999999996
 51
134.75684699999999
  0
ARC
  5
1FA
  8
0
 62
     7
 10
57.12083299999999
 20
195.62148300000001
 30
0.0
 40
0.4741500000000001
 50
135.182894
 51
179.830265
  0
ARC
  5
1FB
  8
0
 62
     7
 10
57.126220999999987
 20
195.62548000000001
 30
0.0
 40
0.4795430000000001
 50
180.30974000000001
 51
224.55164099999999
  0
ARC
  5
1FC
  8
0
 62
     7
 10
57.119289999999999
 20
195.62684400000001
 30
0.0
 40
0.475596
 50
225.254546
 51
269.779629
  0
ARC
  5
1FD
  8
0
 62
     7
 10
57.116562000000002
 20
195.62626499999999
 30
0.0
 40
0.475015
 50
270.10837199999997
 51
314.77385399999997
  0
ARC
  5
1FE
  8
0
 62
     7
 10
57.109731999999987
 20
195.624844
 30
0.0
 40
0.478852
 50
315.47379599999999
 51
359.765939
  0
ARC
  5
1FF
  8
0
 62
     7
 10
60.914864999999999
 20
195.620251
 30
0.0
 40
0.477132
 50
0.316661
 51
44.670140000000004
  0
ARC
  5
200
  8
0
 62
     7
 10
60.918976999999998
 20
195.61571699999999
 30
0.0
 40
0.4774340000000001
 50
45.403964000000002
 51
89.731432999999996
  0
ARC
  5
201
  8
0
 62
     7
 10
60.92210699999999
 20
195.619394
 30
0.0
 40
0.473753
 50
90.107955000000004
 51
134.77752699999999
  0
ARC
  5
202
  8
0
 62
     7
 10
60.924114000000003
 20
195.62126000000001
 30
0.0
 40
0.4738500000000001
 50
135.10875899999999
 51
179.80317500000001
  0
ARC
  5
203
  8
0
 62
     7
 10
60.928970999999997
 20
195.62548899999999
 30
0.0
 40
0.478712
 50
180.311296
 51
224.6510890000001
  0
ARC
  5
204
  8
0
 62
     7
 10
60.923214000000002
 20
195.62683799999999
 30
0.0
 40
0.475591
 50
225.254155
 51
269.75906400000002
  0
ARC
  5
205
  8
0
 62
     7
 10
60.920310999999991
 20
195.624606
 30
0.0
 40
0.4733560000000001
 50
270.10933199999999
 51
314.85653300000001
  0
ARC
  5
206
  8
0
 62
     7
 10
60.911960000000001
 20
195.62568400000001
 30
0.0
 40
0.480037
 50
315.47236700000002
 51
359.666291
  0
ARC
  5
207
  8
0
 62
     7
 10
59.012127999999997
 20
195.590473
 30
0.0
 40
0.478336
 50
0.313174
 51
44.610813999999998
  0
ARC
  5
208
  8
0
 62
     7
 10
59.016222999999989
 20
195.58347599999999
 30
0.0
 40
0.480399
 50
45.547939
 51
89.587457999999998
  0
ARC
  5
209
  8
0
 62
     7
 10
59.020568999999988
 20
195.588031
 30
0.0
 40
0.475832
 50
90.106763999999984
 51
134.674308
  0
ARC
  5
20A
  8
0
 62
     7
 10
59.031936999999999
 20
195.58874399999999
 30
0.0
 40
0.483394
 50
135.69197199999999
 51
179.48518799999999
  0
ARC
  5
20B
  8
0
 62
     7
 10
59.026881000000003
 20
195.59569300000001
 30
0.0
 40
0.4783260000000001
 50
180.31210100000001
 51
224.55252100000001
  0
ARC
  5
20C
  8
0
 62
     7
 10
59.026643000000007
 20
195.610784
 30
0.0
 40
0.488865
 50
225.832617
 51
269.18415700000003
  0
ARC
  5
20D
  8
0
 62
     7
 10
59.018759000000003
 20
195.59453400000001
 30
0.0
 40
0.472567
 50
270.111898
 51
314.95515499999999
  0
ARC
  5
20E
  8
0
 62
     7
 10
59.016302000000003
 20
195.59432200000001
 30
0.0
 40
0.4741570000000001
 50
315.18332600000002
 51
359.85082899999998
  0
LINE
  5
20F
  8
_________2
 62
     7
 10
164.12
 20
258.911
 30
0.0
 11
164.12
 21
216.91
 31
0.0
  0
LINE
  5
210
  8
_________2
 62
     7
 10
141.92099999999999
 20
258.911
 30
0.0
 11
141.92099999999999
 21
216.90899999999999
 31
0.0
  0
TEXT
  5
211
  8
_________2
 62
     7
 10
24.587599999999998
 20
0.7079720000000001
 30
0.0
 40
4.6583899999999989
  1
490サイズ、実容量7.5L、重量：8.9kg、オーバーフロー付
 41
0.5
  0
LINE
  5
212
  8
_________2
 62
     7
 10
205.30099999999999
 20
127.411
 30
0.0
 11
183.55099999999999
 21
127.411
 31
0.0
  0
LINE
  5
213
  8
_________2
 62
     7
 10
100.3
 20
-4.0903900000000002
 30
0.0
 11
100.3
 21
-21.070699999999999
 31
0.0
  0
LINE
  5
214
  8
_________2
 62
     7
 10
100.3
 20
275.93099999999998
 30
0.0
 11
100.3
 21
258.911
 31
0.0
  0
LINE
  5
215
  8
_________2
 62
     7
 10
17.049700000000001
 20
127.411
 30
0.0
 11
-4.7000000000000002
 21
127.411
 31
0.0
  0
LINE
  5
216
  8
_________2
 62
     7
 10
76.741900000000001
 20
29.805399999999999
 30
0.0
 11
74.554900000000004
 21
29.805399999999999
 31
0.0
  0
LINE
  5
217
  8
_________2
 62
     7
 10
77.234499999999997
 20
29.805399999999999
 30
0.0
 11
76.982399999999998
 21
29.805399999999999
 31
0.0
  0
LINE
  5
218
  8
_________2
 62
     7
 10
77.727199999999996
 20
29.805399999999999
 30
0.0
 11
80.652100000000004
 21
29.805399999999999
 31
0.0
  0
LINE
  5
219
  8
_________2
 62
     7
 10
77.234499999999997
 20
29.805399999999999
 30
0.0
 11
77.486000000000004
 21
29.805399999999999
 31
0.0
  0
LINE
  5
21A
  8
_________2
 62
     7
 10
70.837599999999995
 20
29.805399999999999
 30
0.0
 11
68.650700000000001
 21
29.805399999999999
 31
0.0
  0
LINE
  5
21B
  8
_________2
 62
     7
 10
71.330299999999994
 20
29.805399999999999
 30
0.0
 11
71.078100000000006
 21
29.805399999999999
 31
0.0
  0
LINE
  5
21C
  8
_________2
 62
     7
 10
71.330299999999994
 20
30.298100000000002
 30
0.0
 11
71.330299999999994
 21
32.484999999999999
 31
0.0
  0
LINE
  5
21D
  8
_________2
 62
     7
 10
71.330299999999994
 20
29.805399999999999
 30
0.0
 11
71.330299999999994
 21
30.057600000000001
 31
0.0
  0
LINE
  5
21E
  8
_________2
 62
     7
 10
71.822900000000004
 20
29.805399999999999
 30
0.0
 11
74.009200000000007
 21
29.805399999999999
 31
0.0
  0
LINE
  5
21F
  8
_________2
 62
     7
 10
71.330299999999994
 20
29.805399999999999
 30
0.0
 11
71.582499999999996
 21
29.805399999999999
 31
0.0
  0
LINE
  5
220
  8
_________2
 62
     7
 10
71.330299999999994
 20
29.313500000000001
 30
0.0
 11
71.330299999999994
 21
27.1265
 31
0.0
  0
LINE
  5
221
  8
_________2
 62
     7
 10
71.330299999999994
 20
29.805399999999999
 30
0.0
 11
71.330299999999994
 21
29.553899999999999
 31
0.0
  0
LINE
  5
222
  8
_________2
 62
     7
 10
75.041399999999996
 20
28.585899999999999
 30
0.0
 11
80.219399999999979
 21
27.7211
 31
0.0
  0
LINE
  5
223
  8
_________2
 62
     7
 10
75.041399999999996
 20
31.024999999999999
 30
0.0
 11
80.219399999999979
 21
31.8904
 31
0.0
  0
LINE
  5
224
  8
_________2
 62
     7
 10
80.219399999999979
 20
27.7211
 30
0.0
 11
80.219399999999979
 21
31.8904
 31
0.0
  0
LINE
  5
225
  8
_________2
 62
     7
 10
75.041399999999996
 20
28.585899999999999
 30
0.0
 11
75.041399999999996
 21
31.024999999999999
 31
0.0
  0
ARC
  5
226
  8
_________2
 62
     7
 10
71.283383999999998
 20
29.758524999999999
 30
0.0
 40
1.267347
 50
2.1211329999999999
 51
87.878856999999996
  0
ARC
  5
227
  8
_________2
 62
     7
 10
71.376806999999999
 20
29.758917
 30
0.0
 40
1.2669410000000001
 50
92.104055000000017
 51
177.895915
  0
ARC
  5
228
  8
_________2
 62
     7
 10
71.377218999999997
 20
29.852360000000001
 30
0.0
 40
1.2673680000000001
 50
182.12203600000001
 51
267.877993
  0
ARC
  5
229
  8
_________2
 62
     7
 10
71.283383999999998
 20
29.852339000000001
 30
0.0
 40
1.267347
 50
272.12114300000002
 51
357.87886700000001
  0
ARC
  5
22A
  8
_________2
 62
     7
 10
71.249605000000003
 20
29.725460999999999
 30
0.0
 40
2.1664590000000001
 50
2.1154579999999998
 51
87.865593999999987
  0
ARC
  5
22B
  8
_________2
 62
     7
 10
71.330292
 20
29.805432
 30
0.0
 40
2.0849849999999992
 50
90.0
 51
179.99996999999999
  0
ARC
  5
22C
  8
_________2
 62
     7
 10
71.409633999999997
 20
29.885489
 30
0.0
 40
2.165807
 50
182.1183979999999
 51
267.90056900000002
  0
ARC
  5
22D
  8
_________2
 62
     7
 10
71.250302000000005
 20
29.885421000000001
 30
0.0
 40
2.1657630000000001
 50
272.11662699999999
 51
357.88338299999998
  0
TEXT
  5
22E
  8
_________2
 62
     7
 10
104.605
 20
1.68018
 30
0.0
 40
3.660169999999999
  1
図番
 41
0.5
  0
LINE
  5
22F
  8
_________2
 62
     7
 10
103.55
 20
5.9094100000000003
 30
0.0
 11
183.55099999999999
 21
5.9094100000000003
 31
0.0
  0
TEXT
  5
230
  8
_________2
 62
     7
 10
104.605
 20
11.68
 30
0.0
 40
3.660169999999999
  1
品番
 41
0.5
  0
TEXT
  5
231
  8
_________2
 62
     7
 10
104.605
 20
31.8188
 30
0.0
 40
3.660169999999999
  1
名称
 41
0.5
  0
TEXT
  5
232
  8
_________2
 62
     7
 10
91.565645833333335
 20
26.822600000000001
 30
0.0
 40
4.3256500000000004
  1
mm
 41
0.5
 72
     1
 11
93.367999999999995
 21
26.822600000000001
 31
0.0
  0
TEXT
  5
233
  8
_________2
 62
     7
 10
85.644099999999995
 20
31.8188
 30
0.0
 40
3.660169999999999
  1
単位
 41
0.5
  0
TEXT
  5
234
  8
_________2
 62
     7
 10
85.644099999999995
 20
19.4115
 30
0.0
 40
3.660169999999999
  1
尺度
 41
0.5
  0
TEXT
  5
235
  8
_________2
 62
     7
 10
89.382120416666666
 20
13.2186
 30
0.0
 40
4.3256500000000004
  1
1 ： 10
 41
0.5
 72
     1
 11
93.960099999999997
 21
13.2186
 31
0.0
  0
TEXT
  5
236
  8
_________2
 62
     7
 10
135.3978175
 20
9.1085499999999993
 30
0.0
 40
4.6583899999999989
  1
図中の表参照
 41
0.5
 72
     1
 11
143.55000000000001
 21
9.1085499999999993
 31
0.0
  0
TEXT
  5
237
  8
_________2
 62
     7
 10
169.29025050000001
 20
219.06
 30
0.0
 40
3.9929099999999988
  1
ホワイト
 41
0.5
 72
     1
 11
173.749
 21
219.06
 31
0.0
  0
TEXT
  5
238
  8
_________2
 62
     7
 10
155.56399999999999
 20
219.06
 30
0.0
 40
3.9929099999999988
  1
-WHI
 41
0.5
  0
TEXT
  5
239
  8
_________2
 62
     7
 10
170.288478
 20
226.06
 30
0.0
 40
3.9929099999999988
  1
ローズ
 41
0.5
 72
     1
 11
173.749
 21
226.06
 31
0.0
  0
TEXT
  5
23A
  8
_________2
 62
     7
 10
155.56399999999999
 20
226.06
 30
0.0
 40
3.9929099999999988
  1
-RSB
 41
0.5
  0
TEXT
  5
23B
  8
_________2
 62
     7
 10
165.63008300000001
 20
233.06100000000001
 30
0.0
 40
3.9929099999999988
  1
ゴールドライン
 41
0.5
 72
     1
 11
173.749
 21
233.06100000000001
 31
0.0
  0
TEXT
  5
23C
  8
_________2
 62
     7
 10
155.56399999999999
 20
233.06100000000001
 30
0.0
 40
3.9929099999999988
  1
-GL
 41
0.5
  0
TEXT
  5
23D
  8
_________2
 62
     7
 10
171.68599649999999
 20
240.06100000000001
 30
0.0
 40
3.9929099999999988
  1
ふじ
 41
0.5
 72
     1
 11
173.749
 21
240.06100000000001
 31
0.0
  0
TEXT
  5
23E
  8
_________2
 62
     7
 10
155.56399999999999
 20
240.06100000000001
 30
0.0
 40
3.9929099999999988
  1
-FE
 41
0.5
  0
TEXT
  5
23F
  8
_________2
 62
     7
 10
172.81732099999999
 20
247.06100000000001
 30
0.0
 40
3.9929099999999988
  1
桃
 41
0.5
 72
     1
 11
173.749
 21
247.06100000000001
 31
0.0
  0
TEXT
  5
240
  8
_________2
 62
     7
 10
155.56399999999999
 20
247.06100000000001
 30
0.0
 40
3.9929099999999988
  1
-CR
 41
0.5
  0
TEXT
  5
241
  8
_________2
 62
     7
 10
144.27349749999999
 20
247.06100000000001
 30
0.0
 40
3.9929099999999988
  1
GG1101R
 41
0.5
 72
     2
 11
155.25399999999999
 21
247.06100000000001
 31
0.0
  0
TEXT
  5
242
  8
_________2
 62
     7
 10
172.81732099999999
 20
254.06200000000001
 30
0.0
 40
3.9929099999999988
  1
色
 41
0.5
 72
     1
 11
173.749
 21
254.06200000000001
 31
0.0
  0
TEXT
  5
243
  8
_________2
 62
     7
 10
150.78044800000001
 20
254.06200000000001
 30
0.0
 40
3.9929099999999988
  1
品番
 41
0.5
 72
     1
 11
152.91
 21
254.06200000000001
 31
0.0
  0
TEXT
  5
244
  8
_________2
 62
     7
 10
137.24471374999999
 20
-0.8919409999999999
 30
0.0
 40
4.6583899999999989
  1
GG1101R
 41
0.5
 72
     1
 11
143.65000000000001
 21
-0.8919409999999999
 31
0.0
  0
TEXT
  5
245
  8
_________2
 62
     7
 10
20.572500000000002
 20
40.026099999999992
 30
0.0
 40
4.9911399999999997
  1
・カウンター切込参考図は当社へご請求ください。
 41
0.5
  0
TEXT
  5
246
  8
_________2
 62
     7
 10
109.179
 20
24.226400000000002
 30
0.0
 40
4.6583899999999989
  1
ジョルジオ オールドアメリカ カウンター式洗面器
 41
0.5
  0
TEXT
  5
247
  8
_________2
 62
     7
 10
39.078780833333333
 20
13.6037
 30
0.0
 40
4.3256500000000004
  1
早川
 41
0.5
 72
     1
 11
41.31369999999999
 21
13.6037
 31
0.0
  0
TEXT
  5
248
  8
_________2
 62
     7
 10
20.432686666666669
 20
13.6037
 30
0.0
 40
4.3256500000000004
  1
石原
 41
0.5
 72
     1
 11
22.739699999999999
 21
13.6037
 31
0.0
  0
TEXT
  5
249
  8
_________2
 62
     7
 10
67.786000000000001
 20
13.2186
 30
0.0
 40
4.3256500000000004
  1
15.05.18
 41
0.5
  0
TEXT
  5
24A
  8
_________2
 62
     7
 10
66.593299999999999
 20
19.4115
 30
0.0
 40
3.660169999999999
  1
日付
 41
0.5
  0
TEXT
  5
24B
  8
_________2
 62
     7
 10
29.639500000000002
 20
19.4115
 30
0.0
 40
3.660169999999999
  1
検図
 41
0.5
  0
TEXT
  5
24C
  8
_________2
 62
     7
 10
18.021899999999999
 20
5.2121199999999988
 30
0.0
 40
3.660169999999999
  1
備考
 41
0.5
  0
TEXT
  5
24D
  8
_________2
 62
     7
 10
18.021899999999999
 20
19.4115
 30
0.0
 40
3.660169999999999
  1
製図
 41
0.5
  0
TEXT
  5
24E
  8
_________2
 62
     7
 10
20.595730666666679
 20
27.9375
 30
0.0
 40
5.3238799999999991
  1
セラトレーディング株式会社
 41
0.5
 72
     1
 11
41.181399999999989
 21
27.9375
 31
0.0
  0
LINE
  5
24F
  8
_________2
 62
     7
 10
183.55099999999999
 20
-4.0903900000000002
 30
0.0
 11
17.049700000000001
 21
-4.0903900000000002
 31
0.0
  0
LINE
  5
250
  8
_________2
 62
     7
 10
17.049700000000001
 20
-4.0903900000000002
 30
0.0
 11
17.049700000000001
 21
258.911
 31
0.0
  0
LINE
  5
251
  8
_________2
 62
     7
 10
17.049700000000001
 20
258.911
 30
0.0
 11
183.55099999999999
 21
258.911
 31
0.0
  0
LINE
  5
252
  8
_________2
 62
     7
 10
183.55099999999999
 20
258.911
 30
0.0
 11
183.55099999999999
 21
-4.0903900000000002
 31
0.0
  0
LINE
  5
253
  8
_________2
 62
     7
 10
65.5501
 20
9.4096499999999992
 30
0.0
 11
65.5501
 21
35.909500000000001
 31
0.0
  0
LINE
  5
254
  8
_________2
 62
     7
 10
84.550600000000017
 20
9.4096499999999992
 30
0.0
 11
84.550600000000017
 21
35.909500000000001
 31
0.0
  0
LINE
  5
255
  8
_________2
 62
     7
 10
103.55
 20
-4.0903900000000002
 30
0.0
 11
103.55
 21
35.909500000000001
 31
0.0
  0
LINE
  5
256
  8
_________2
 62
     7
 10
28.5502
 20
9.4096499999999992
 30
0.0
 11
28.5502
 21
23.4099
 31
0.0
  0
LINE
  5
257
  8
_________2
 62
     7
 10
17.049700000000001
 20
9.4096499999999992
 30
0.0
 11
103.55
 21
9.4096499999999992
 31
0.0
  0
LINE
  5
258
  8
_________2
 62
     7
 10
17.049700000000001
 20
23.4099
 30
0.0
 11
103.55
 21
23.4099
 31
0.0
  0
LINE
  5
259
  8
_________2
 62
     7
 10
103.55
 20
15.9092
 30
0.0
 11
183.55099999999999
 21
15.9092
 31
0.0
  0
LINE
  5
25A
  8
_________2
 62
     7
 10
141.92099999999999
 20
251.911
 30
0.0
 11
183.55099999999999
 21
251.911
 31
0.0
  0
LINE
  5
25B
  8
_________2
 62
     7
 10
141.92099999999999
 20
244.911
 30
0.0
 11
183.55099999999999
 21
244.911
 31
0.0
  0
LINE
  5
25C
  8
_________2
 62
     7
 10
141.92099999999999
 20
237.911
 30
0.0
 11
183.55099999999999
 21
237.911
 31
0.0
  0
LINE
  5
25D
  8
_________2
 62
     7
 10
141.92099999999999
 20
230.91
 30
0.0
 11
183.55099999999999
 21
230.91
 31
0.0
  0
LINE
  5
25E
  8
_________2
 62
     7
 10
141.92099999999999
 20
223.91
 30
0.0
 11
183.55099999999999
 21
223.91
 31
0.0
  0
LINE
  5
25F
  8
_________2
 62
     7
 10
141.92099999999999
 20
216.91
 30
0.0
 11
183.55099999999999
 21
216.91
 31
0.0
  0
LINE
  5
260
  8
_________2
 62
     7
 10
17.049700000000001
 20
35.909500000000001
 30
0.0
 11
183.55099999999999
 21
35.909500000000001
 31
0.0
  0
ARC
  5
27D
  8
0
 62
     7
 10
140.78899999999999
 20
167.58600000000001
 30
0.0
 40
30.800000000000001
 50
65.745906676951051
 51
114.25409332304891
  0
ARC
  5
27E
  8
0
 62
     7
 10
135.03899999999999
 20
179.58600000000001
 30
0.0
 40
17.5
 50
113.22908216995179
 51
246.77091783004821
  0
ARC
  5
27F
  8
0
 62
     7
 10
146.53899999999999
 20
179.58600000000001
 30
0.0
 40
17.5
 50
293.22908216995182
 51
66.770917830048177
  0
ARC
  5
280
  8
0
 62
     7
 10
140.78899999999999
 20
191.58600000000001
 30
0.0
 40
30.800000000000001
 50
245.74590667695111
 51
294.25409332304889
  0
ENDSEC
  0
EOF
