  0
SECTION
  2
HEADER
  9
$ACADVER
  1
AC1009
  9
$INSBASE
 10
0.0
 20
0.0
 30
0.0
  9
$EXTMIN
 10
-4.7000000000000002
 20
-21.070699999999999
 30
0.0
  9
$EXTMAX
 10
205.30099999999999
 20
275.93099999999998
 30
0.0
  9
$LIMMIN
 10
0.0
 20
0.0
  9
$LIMMAX
 10
12.0
 20
9.0
  9
$ORTHOMODE
 70
     0
  9
$REGENMODE
 70
     1
  9
$FILLMODE
 70
     1
  9
$QTEXTMODE
 70
     0
  9
$MIRRTEXT
 70
     1
  9
$DRAGMODE
 70
     2
  9
$LTSCALE
 40
1.0
  9
$OSMODE
 70
    37
  9
$ATTMODE
 70
     1
  9
$TEXTSIZE
 40
0.0
  9
$TRACEWID
 40
0.05
  9
$TEXTSTYLE
  7
STANDARD
  9
$CLAYER
  8
0
  9
$CELTYPE
  6
CONTINUOUS
  9
$CECOLOR
 62
   256
  9
$DIMSCALE
 40
1.0
  9
$DIMASZ
 40
0.18
  9
$DIMEXO
 40
0.0625
  9
$DIMDLI
 40
0.38
  9
$DIMRND
 40
0.0
  9
$DIMDLE
 40
0.0
  9
$DIMEXE
 40
0.18
  9
$DIMTP
 40
0.0
  9
$DIMTM
 40
0.0
  9
$DIMTXT
 40
0.18
  9
$DIMCEN
 40
0.09
  9
$DIMTSZ
 40
0.0
  9
$DIMTOL
 70
     0
  9
$DIMLIM
 70
     0
  9
$DIMTIH
 70
     1
  9
$DIMTOH
 70
     1
  9
$DIMSE1
 70
     0
  9
$DIMSE2
 70
     0
  9
$DIMTAD
 70
     0
  9
$DIMZIN
 70
     0
  9
$DIMBLK
  1

  9
$DIMASO
 70
     1
  9
$DIMSHO
 70
     1
  9
$DIMPOST
  1

  9
$DIMAPOST
  1

  9
$DIMALT
 70
     0
  9
$DIMALTD
 70
     2
  9
$DIMALTF
 40
25.399999999999999
  9
$DIMLFAC
 40
1.0
  9
$DIMTOFL
 70
     0
  9
$DIMTVP
 40
0.0
  9
$DIMTIX
 70
     0
  9
$DIMSOXD
 70
     0
  9
$DIMSAH
 70
     0
  9
$DIMBLK1
  1

  9
$DIMBLK2
  1

  9
$DIMSTYLE
  2
STANDARD
  9
$DIMCLRD
 70
     0
  9
$DIMCLRE
 70
     0
  9
$DIMCLRT
 70
     0
  9
$DIMTFAC
 40
1.0
  9
$DIMGAP
 40
0.09
  9
$LUNITS
 70
     2
  9
$LUPREC
 70
     4
  9
$SKETCHINC
 40
0.1
  9
$FILLETRAD
 40
0.0
  9
$AUNITS
 70
     0
  9
$AUPREC
 70
     0
  9
$MENU
  1
.
  9
$ELEVATION
 40
0.0
  9
$PELEVATION
 40
0.0
  9
$THICKNESS
 40
0.0
  9
$LIMCHECK
 70
     0
  9
$BLIPMODE
 70
     0
  9
$CHAMFERA
 40
0.0
  9
$CHAMFERB
 40
0.0
  9
$SKPOLY
 70
     0
  9
$TDCREATE
 40
2457161.6896942481
  9
$TDUPDATE
 40
2457164.2513784491
  9
$TDINDWG
 40
0.0016309259
  9
$TDUSRTIMER
 40
0.0016309259
  9
$USRTIMER
 70
     1
  9
$ANGBASE
 50
0.0
  9
$ANGDIR
 70
     0
  9
$PDMODE
 70
     0
  9
$PDSIZE
 40
0.0
  9
$PLINEWID
 40
0.0
  9
$COORDS
 70
     1
  9
$SPLFRAME
 70
     0
  9
$SPLINETYPE
 70
     6
  9
$SPLINESEGS
 70
     8
  9
$ATTDIA
 70
     1
  9
$ATTREQ
 70
     1
  9
$HANDLING
 70
     1
  9
$HANDSEED
  5
2B4
  9
$SURFTAB1
 70
     6
  9
$SURFTAB2
 70
     6
  9
$SURFTYPE
 70
     6
  9
$SURFU
 70
     6
  9
$SURFV
 70
     6
  9
$UCSNAME
  2

  9
$UCSORG
 10
0.0
 20
0.0
 30
0.0
  9
$UCSXDIR
 10
1.0
 20
0.0
 30
0.0
  9
$UCSYDIR
 10
0.0
 20
1.0
 30
0.0
  9
$PUCSNAME
  2

  9
$PUCSORG
 10
0.0
 20
0.0
 30
0.0
  9
$PUCSXDIR
 10
1.0
 20
0.0
 30
0.0
  9
$PUCSYDIR
 10
0.0
 20
1.0
 30
0.0
  9
$USERI1
 70
     0
  9
$USERI2
 70
     0
  9
$USERI3
 70
     0
  9
$USERI4
 70
     0
  9
$USERI5
 70
     0
  9
$USERR1
 40
0.0
  9
$USERR2
 40
0.0
  9
$USERR3
 40
0.0
  9
$USERR4
 40
0.0
  9
$USERR5
 40
0.0
  9
$WORLDVIEW
 70
     1
  9
$SHADEDGE
 70
     3
  9
$SHADEDIF
 70
    70
  9
$TILEMODE
 70
     1
  9
$MAXACTVP
 70
    48
  9
$PLIMCHECK
 70
     0
  9
$PEXTMIN
 10
1.0000000000000000E+020
 20
1.0000000000000000E+020
 30
1.0000000000000000E+020
  9
$PEXTMAX
 10
-1.0000000000000000E+020
 20
-1.0000000000000000E+020
 30
-1.0000000000000000E+020
  9
$PLIMMIN
 10
0.0
 20
0.0
  9
$PLIMMAX
 10
12.0
 20
9.0
  9
$UNITMODE
 70
     0
  9
$VISRETAIN
 70
     1
  9
$PLINEGEN
 70
     0
  9
$PSLTSCALE
 70
     1
  0
ENDSEC
  0
SECTION
  2
TABLES
  0
TABLE
  2
VPORT
 70
     1
  0
VPORT
  2
*ACTIVE
 70
     0
 10
0.0
 20
0.0
 11
1.0
 21
1.0
 12
136.77656964302221
 22
127.4301499999999
 13
0.0
 23
0.0
 14
1.0
 24
1.0
 15
0.0
 25
0.0
 16
0.0
 26
0.0
 36
1.0
 17
0.0
 27
0.0
 37
0.0
 40
283.65086748507741
 41
1.9691714836223499
 42
50.0
 43
0.0
 44
0.0
 50
0.0
 51
0.0
 71
     0
 72
   100
 73
     1
 74
     1
 75
     0
 76
     0
 77
     0
 78
     0
  0
ENDTAB
  0
TABLE
  2
LTYPE
 70
     3
  0
LTYPE
  2
CONTINUOUS
 70
     0
  3
Solid line
 72
    65
 73
     0
 40
0.0
  0
LTYPE
  2
AIGENLINE001
 70
     0
  3
generate AI->DXF Converter
 72
    65
 73
     4
 40
5.8561449999999988
 49
3.5278
 49
-0.776115
 49
0.776115
 49
-0.776115
  0
LTYPE
  2
AIGENLINE002
 70
     0
  3
generate AI->DXF Converter
 72
    65
 73
     2
 40
1.5522299999999991
 49
0.776115
 49
-0.776115
  0
ENDTAB
  0
TABLE
  2
LAYER
 70
     2
  0
LAYER
  2
0
 70
     0
 62
     7
  6
CONTINUOUS
  0
LAYER
  2
_________2
 70
     0
 62
     7
  6
CONTINUOUS
  0
ENDTAB
  0
TABLE
  2
STYLE
 70
     1
  0
STYLE
  2
STANDARD
 70
     0
 40
0.0
 41
0.0
 50
0.0
 71
     0
 42
0.0
  3
TXT
  4
EXTFONT.SHX
  0
ENDTAB
  0
TABLE
  2
VIEW
 70
     0
  0
ENDTAB
  0
TABLE
  2
UCS
 70
     0
  0
ENDTAB
  0
TABLE
  2
APPID
 70
     4
  0
APPID
  2
ACAD
 70
     0
  0
APPID
  2
ACAD_DSTYLE_DIMJOGGED_JOGA
 70
     0
  0
APPID
  2
ACAD_NAV_VCDISPLAY
 70
     0
  0
APPID
  2
ACAD_MLEADERVER
 70
     0
  0
ENDTAB
  0
TABLE
  2
DIMSTYLE
 70
     1
  0
DIMSTYLE
  2
STANDARD
 70
     0
  3

  4

  5

  6

  7

 40
1.0
 41
0.18
 42
0.0625
 43
0.38
 44
0.18
 45
0.0
 46
0.0
 47
0.0
 48
0.0
140
0.18
141
0.09
142
0.0
143
25.399999999999999
144
1.0
145
0.0
146
1.0
147
0.09
 71
     0
 72
     0
 73
     1
 74
     1
 75
     0
 76
     0
 77
     0
 78
     0
170
     0
171
     2
172
     0
173
     0
174
     0
175
     0
176
     0
177
     0
178
     0
  0
ENDTAB
  0
ENDSEC
  0
SECTION
  2
BLOCKS
  0
BLOCK
  8
0
  2
$MODEL_SPACE
 70
     0
 10
0.0
 20
0.0
 30
0.0
  3
$MODEL_SPACE
  1

  0
ENDBLK
  5
1A
  8
0
  0
BLOCK
 67
     1
  8
0
  2
$PAPER_SPACE
 70
     0
 10
0.0
 20
0.0
 30
0.0
  3
$PAPER_SPACE
  1

  0
ENDBLK
  5
17
 67
     1
  8
0
  0
ENDSEC
  0
SECTION
  2
ENTITIES
  0
TEXT
  5
23
  8
0
 62
     7
 10
131.09954666666661
 20
139.46299999999999
 30
0.0
 40
3.660169999999999
  1
カウンター切込寸法
 41
0.5
 72
     1
 11
140.86000000000001
 21
139.46299999999999
 31
0.0
  0
TEXT
  5
24
  8
0
 62
     7
 10
129.434
 20
173.8509433333333
 30
0.0
 40
3.660169999999999
  1
14
 50
90.0
 41
0.5
 72
     1
 11
129.434
 21
175.071
 31
0.0
  0
TEXT
  5
25
  8
0
 62
     7
 10
147.97900000000001
 20
175.15692916666671
 30
0.0
 40
3.660169999999999
  1
56
 50
90.0
 41
0.5
 72
     1
 11
147.97900000000001
 21
176.68199999999999
 31
0.0
  0
TEXT
  5
26
  8
0
 62
     7
 10
174.84700000000001
 20
177.60490083333329
 30
0.0
 40
3.660169999999999
  1
400
 50
90.0
 41
0.5
 72
     1
 11
174.84700000000001
 21
179.74000000000001
 31
0.0
  0
TEXT
  5
27
  8
0
 62
     7
 10
144.72587250000001
 20
169.75800000000001
 30
0.0
 40
3.660169999999999
  1
25.5
 41
0.5
 72
     1
 11
147.471
 21
169.75800000000001
 31
0.0
  0
TEXT
  5
28
  8
0
 62
     7
 10
145.1184456413668
 20
186.59290691775129
 30
0.0
 40
3.660169999999999
  1
R185
 50
81.182400000000001
 41
0.5
 72
     1
 11
145.58600000000001
 21
189.607
 31
0.0
  0
TEXT
  5
29
  8
0
 62
     7
 10
131.66648229789121
 20
187.5894000681551
 30
0.0
 40
3.660169999999999
  1
R250
 50
298.91500000000002
 41
0.5
 72
     1
 11
133.215
 21
184.786
 31
0.0
  0
TEXT
  5
2A
  8
0
 62
     7
 10
119.36744625539831
 20
183.50472485789439
 30
0.0
 40
3.660169999999999
  1
R110
 50
343.399
 41
0.5
 72
     1
 11
121.852
 21
182.76400000000001
 31
0.0
  0
TEXT
  5
2B
  8
0
 62
     7
 10
130.1669008333333
 20
165.81200000000001
 30
0.0
 40
3.660169999999999
  1
152
 41
0.5
 72
     1
 11
132.30199999999999
 21
165.81200000000001
 31
0.0
  0
TEXT
  5
2C
  8
0
 62
     7
 10
138.41988666666671
 20
151.16499999999999
 30
0.0
 40
3.660169999999999
  1
524
 41
0.5
 72
     1
 11
140.86000000000001
 21
151.16499999999999
 31
0.0
  0
TEXT
  5
2D
  8
0
 62
     7
 10
23.703800000000001
 20
39.572000000000003
 30
0.0
 40
4.3256500000000004
  1
・カウンター切り込み参考図は当社へご請求ください。
 41
0.5
  0
TEXT
  5
2E
  8
0
 62
     7
 10
90.744699999999995
 20
178.23339374999989
 30
0.0
 40
3.660169999999999
  1
420
 50
90.0
 41
0.5
 72
     1
 11
90.744699999999995
 21
180.52099999999999
 31
0.0
  0
TEXT
  5
2F
  8
0
 62
     7
 10
51.040593749999999
 20
148.21700000000001
 30
0.0
 40
3.660169999999999
  1
550
 41
0.5
 72
     1
 11
53.328200000000002
 21
148.21700000000001
 31
0.0
  0
TEXT
  5
30
  8
0
 62
     7
 10
111.15300000000001
 20
101.29590083333331
 30
0.0
 40
3.660169999999999
  1
155
 50
90.0
 41
0.5
 72
     1
 11
111.15300000000001
 21
103.431
 31
0.0
  0
TEXT
  5
31
  8
0
 62
     7
 10
96.680700000000002
 20
99.101900833333346
 30
0.0
 40
3.660169999999999
  1
195
 50
90.0
 41
0.5
 72
     1
 11
96.680700000000002
 21
101.23699999999999
 31
0.0
  0
TEXT
  5
32
  8
0
 62
     7
 10
88.906800000000004
 20
114.82443625000001
 30
0.0
 40
3.660169999999999
  1
20
 50
90.0
 41
0.5
 72
     1
 11
88.906800000000004
 21
116.197
 31
0.0
  0
TEXT
  5
33
  8
0
 62
     7
 10
88.764799999999994
 20
98.131900833333347
 30
0.0
 40
3.660169999999999
  1
175
 50
90.0
 41
0.5
 72
     1
 11
88.764799999999994
 21
100.267
 31
0.0
  0
TEXT
  5
34
  8
0
 62
     7
 10
51.347493749999998
 20
80.565399999999997
 30
0.0
 40
3.660169999999999
  1
520
 41
0.5
 72
     1
 11
53.635100000000001
 21
80.565399999999997
 31
0.0
  0
TEXT
  5
35
  8
0
 62
     7
 10
63.790973333333341
 20
171.66499999999999
 30
0.0
 40
3.660169999999999
  1
%%c46
 41
0.5
 72
     2
 11
68.671199999999985
 21
171.66499999999999
 31
0.0
  0
LINE
  5
40
  8
0
  6
AIGENLINE001
 62
     7
 10
140.86000000000001
 20
156.73500000000001
 30
0.0
 11
140.86000000000001
 21
202.255
 31
0.0
  0
LINE
  5
41
  8
0
  6
AIGENLINE001
 62
     7
 10
112.039
 20
179.398
 30
0.0
 11
169.68000000000001
 21
179.398
 31
0.0
  0
ARC
  5
42
  8
0
 62
     7
 10
55.582284999999999
 20
193.176165
 30
0.0
 40
0.4082810000000001
 50
320.3043340000001
 51
359.78258099999999
  0
ARC
  5
43
  8
0
 62
     7
 10
55.446694000000001
 20
193.27496099999999
 30
0.0
 40
0.575811
 50
295.08739300000002
 51
321.35760199999999
  0
ARC
  5
44
  8
0
 62
     7
 10
55.349682999999999
 20
193.452594
 30
0.0
 40
0.7779199999999999
 50
269.32138700000002
 51
296.01124300000009
  0
ARC
  5
45
  8
0
 62
     7
 10
55.342269000000002
 20
193.475223
 30
0.0
 40
0.800496
 50
234.79713899999999
 51
269.87117799999999
  0
ARC
  5
46
  8
0
 62
     7
 10
55.187395999999993
 20
193.22350900000001
 30
0.0
 40
0.505877
 50
195.75878399999999
 51
232.69487000000001
  0
ARC
  5
47
  8
0
 62
     7
 10
55.081315000000011
 20
193.174657
 30
0.0
 40
0.39094
 50
180.00606999999999
 51
193.089595
  0
ARC
  5
48
  8
0
 62
     7
 10
55.098773999999999
 20
193.17306500000001
 30
0.0
 40
0.408402
 50
140.310464
 51
179.78251800000001
  0
ARC
  5
49
  8
0
 62
     7
 10
55.234244999999987
 20
193.074589
 30
0.0
 40
0.575639
 50
115.09546899999999
 51
141.379109
  0
ARC
  5
4A
  8
0
 62
     7
 10
55.331445999999993
 20
192.896342
 30
0.0
 40
0.7783850000000001
 50
89.335826999999995
 51
116.010171
  0
ARC
  5
4B
  8
0
 62
     7
 10
55.338668999999989
 20
192.87456299999999
 30
0.0
 40
0.8001129999999999
 50
54.777707999999997
 51
89.871075999999988
  0
ARC
  5
4C
  8
0
 62
     7
 10
55.49362399999999
 20
193.12590800000001
 30
0.0
 40
0.505748
 50
15.740963000000001
 51
52.695334000000003
  0
ARC
  5
4D
  8
0
 62
     7
 10
55.599621999999997
 20
193.17457400000001
 30
0.0
 40
0.390941
 50
0.00607
 51
13.089555000000001
  0
ARC
  5
4E
  8
0
 62
     7
 10
51.582331000000003
 20
193.176165
 30
0.0
 40
0.4082810000000001
 50
320.3043340000001
 51
359.78258099999999
  0
ARC
  5
4F
  8
0
 62
     7
 10
51.446740000000013
 20
193.27496099999999
 30
0.0
 40
0.575811
 50
295.08739300000002
 51
321.35760199999999
  0
ARC
  5
50
  8
0
 62
     7
 10
51.349729000000004
 20
193.452594
 30
0.0
 40
0.7779199999999999
 50
269.32138700000002
 51
296.01124300000009
  0
ARC
  5
51
  8
0
 62
     7
 10
51.342314999999999
 20
193.475223
 30
0.0
 40
0.800496
 50
234.79713899999999
 51
269.87117799999999
  0
ARC
  5
52
  8
0
 62
     7
 10
51.187441999999997
 20
193.22350900000001
 30
0.0
 40
0.505877
 50
195.75878399999999
 51
232.69487000000001
  0
ARC
  5
53
  8
0
 62
     7
 10
51.081361999999999
 20
193.174657
 30
0.0
 40
0.39094
 50
180.00606999999999
 51
193.089595
  0
ARC
  5
54
  8
0
 62
     7
 10
51.098821000000001
 20
193.17306500000001
 30
0.0
 40
0.408402
 50
140.310464
 51
179.78251800000001
  0
ARC
  5
55
  8
0
 62
     7
 10
51.234292000000003
 20
193.074589
 30
0.0
 40
0.575639
 50
115.09546899999999
 51
141.379109
  0
ARC
  5
56
  8
0
 62
     7
 10
51.331493000000002
 20
192.896342
 30
0.0
 40
0.7783850000000001
 50
89.335826999999995
 51
116.010171
  0
ARC
  5
57
  8
0
 62
     7
 10
51.338715000000001
 20
192.87456299999999
 30
0.0
 40
0.8001129999999999
 50
54.777707999999997
 51
89.871075999999988
  0
ARC
  5
58
  8
0
 62
     7
 10
51.493670000000002
 20
193.12590800000001
 30
0.0
 40
0.505748
 50
15.740963000000001
 51
52.695334000000003
  0
ARC
  5
59
  8
0
 62
     7
 10
51.599668000000001
 20
193.17457400000001
 30
0.0
 40
0.390941
 50
0.00607
 51
13.089555000000001
  0
ARC
  5
5A
  8
0
 62
     7
 10
53.582393999999987
 20
193.176165
 30
0.0
 40
0.4082810000000001
 50
320.3043340000001
 51
359.78258099999999
  0
ARC
  5
5B
  8
0
 62
     7
 10
53.446803000000003
 20
193.27496099999999
 30
0.0
 40
0.575811
 50
295.08739300000002
 51
321.35760199999999
  0
ARC
  5
5C
  8
0
 62
     7
 10
53.349792000000001
 20
193.452594
 30
0.0
 40
0.7779199999999999
 50
269.32138700000002
 51
296.01124300000009
  0
ARC
  5
5D
  8
0
 62
     7
 10
53.342377999999997
 20
193.475223
 30
0.0
 40
0.800496
 50
234.79713899999999
 51
269.87117799999999
  0
ARC
  5
5E
  8
0
 62
     7
 10
53.187505000000002
 20
193.22350900000001
 30
0.0
 40
0.505877
 50
195.75878399999999
 51
232.69487000000001
  0
ARC
  5
5F
  8
0
 62
     7
 10
53.081423999999998
 20
193.174657
 30
0.0
 40
0.39094
 50
180.00606999999999
 51
193.089595
  0
ARC
  5
60
  8
0
 62
     7
 10
53.098883999999998
 20
193.17306500000001
 30
0.0
 40
0.408402
 50
140.310464
 51
179.78251800000001
  0
ARC
  5
61
  8
0
 62
     7
 10
53.234355000000008
 20
193.074589
 30
0.0
 40
0.575639
 50
115.09546899999999
 51
141.379109
  0
ARC
  5
62
  8
0
 62
     7
 10
53.331556000000013
 20
192.896342
 30
0.0
 40
0.7783850000000001
 50
89.335826999999995
 51
116.010171
  0
ARC
  5
63
  8
0
 62
     7
 10
53.338777999999998
 20
192.87456299999999
 30
0.0
 40
0.8001129999999999
 50
54.777707999999997
 51
89.871075999999988
  0
ARC
  5
64
  8
0
 62
     7
 10
53.493732999999992
 20
193.12590800000001
 30
0.0
 40
0.505748
 50
15.740963000000001
 51
52.695334000000003
  0
ARC
  5
65
  8
0
 62
     7
 10
53.599731000000013
 20
193.17457400000001
 30
0.0
 40
0.390941
 50
0.00607
 51
13.089555000000001
  0
LINE
  5
66
  8
0
 62
     7
 10
153.923
 20
138.22900000000001
 30
0.0
 11
128.03899999999999
 21
138.22900000000001
 31
0.0
  0
LINE
  5
67
  8
0
 62
     7
 10
117.392
 20
183.84599999999989
 30
0.0
 11
115.104
 21
183.90199999999999
 31
0.0
  0
LINE
  5
68
  8
0
 62
     7
 10
115.104
 20
183.90199999999999
 30
0.0
 11
117.05800000000001
 21
182.71000000000001
 31
0.0
  0
LINE
  5
69
  8
0
 62
     7
 10
117.05800000000001
 20
182.71000000000001
 30
0.0
 11
117.392
 21
183.84599999999989
 31
0.0
  0
LINE
  5
6A
  8
0
 62
     7
 10
115.104
 20
183.90199999999999
 30
0.0
 11
125.66
 21
180.798
 31
0.0
  0
LINE
  5
6B
  8
0
 62
     7
 10
129.63999999999999
 20
183.00899999999999
 30
0.0
 11
130.232
 21
180.798
 31
0.0
  0
LINE
  5
6C
  8
0
 62
     7
 10
130.232
 20
180.798
 30
0.0
 11
130.82499999999999
 21
183.00899999999999
 31
0.0
  0
LINE
  5
6D
  8
0
 62
     7
 10
130.82499999999999
 20
183.00899999999999
 30
0.0
 11
129.63999999999999
 21
183.00899999999999
 31
0.0
  0
LINE
  5
6E
  8
0
 62
     7
 10
130.81
 20
177.18700000000001
 30
0.0
 11
130.21799999999999
 21
179.398
 31
0.0
  0
LINE
  5
6F
  8
0
 62
     7
 10
130.21799999999999
 20
179.398
 30
0.0
 11
129.626
 21
177.18700000000001
 31
0.0
  0
LINE
  5
70
  8
0
 62
     7
 10
129.626
 20
177.18700000000001
 30
0.0
 11
130.81
 21
177.18700000000001
 31
0.0
  0
LINE
  5
71
  8
0
 62
     7
 10
130.22499999999999
 20
173.101
 30
0.0
 11
130.22499999999999
 21
184.56099999999989
 31
0.0
  0
LINE
  5
72
  8
0
 62
     7
 10
148.298
 20
176.00899999999999
 30
0.0
 11
148.88999999999999
 21
173.798
 31
0.0
  0
LINE
  5
73
  8
0
 62
     7
 10
148.88999999999999
 20
173.798
 30
0.0
 11
149.482
 21
176.00899999999999
 31
0.0
  0
LINE
  5
74
  8
0
 62
     7
 10
149.482
 20
176.00899999999999
 30
0.0
 11
148.298
 21
176.00899999999999
 31
0.0
  0
LINE
  5
75
  8
0
 62
     7
 10
149.46799999999999
 20
177.18700000000001
 30
0.0
 11
148.876
 21
179.398
 31
0.0
  0
LINE
  5
76
  8
0
 62
     7
 10
148.876
 20
179.398
 30
0.0
 11
148.28299999999999
 21
177.18700000000001
 31
0.0
  0
LINE
  5
77
  8
0
 62
     7
 10
148.28299999999999
 20
177.18700000000001
 30
0.0
 11
149.46799999999999
 21
177.18700000000001
 31
0.0
  0
LINE
  5
78
  8
0
 62
     7
 10
148.88300000000001
 20
173.798
 30
0.0
 11
148.88300000000001
 21
179.398
 31
0.0
  0
LINE
  5
79
  8
0
 62
     7
 10
138.31
 20
168.215
 30
0.0
 11
138.31
 21
172.97499999999999
 31
0.0
  0
LINE
  5
7A
  8
0
 62
     7
 10
125.66
 20
164.19999999999999
 30
0.0
 11
125.66
 21
180.09200000000001
 31
0.0
  0
LINE
  5
7B
  8
0
 62
     7
 10
175.166
 20
161.60900000000001
 30
0.0
 11
175.75800000000001
 21
159.398
 31
0.0
  0
LINE
  5
7C
  8
0
 62
     7
 10
175.75800000000001
 20
159.398
 30
0.0
 11
176.34999999999999
 21
161.60900000000001
 31
0.0
  0
LINE
  5
7D
  8
0
 62
     7
 10
176.34999999999999
 20
161.60900000000001
 30
0.0
 11
175.166
 21
161.60900000000001
 31
0.0
  0
LINE
  5
7E
  8
0
 62
     7
 10
176.33600000000001
 20
197.18799999999999
 30
0.0
 11
175.744
 21
199.398
 31
0.0
  0
LINE
  5
7F
  8
0
 62
     7
 10
175.744
 20
199.398
 30
0.0
 11
175.15100000000001
 21
197.18799999999999
 31
0.0
  0
LINE
  5
80
  8
0
 62
     7
 10
175.15100000000001
 20
197.18799999999999
 30
0.0
 11
176.33600000000001
 21
197.18799999999999
 31
0.0
  0
LINE
  5
81
  8
0
 62
     7
 10
175.751
 20
159.398
 30
0.0
 11
175.751
 21
199.398
 31
0.0
  0
LINE
  5
82
  8
0
 62
     7
 10
127.842
 20
194.05000000000001
 30
0.0
 11
126.258
 21
195.70099999999999
 31
0.0
  0
LINE
  5
83
  8
0
 62
     7
 10
126.258
 20
195.70099999999999
 30
0.0
 11
126.804
 21
193.47900000000001
 31
0.0
  0
LINE
  5
84
  8
0
 62
     7
 10
126.804
 20
193.47900000000001
 30
0.0
 11
127.842
 21
194.05000000000001
 31
0.0
  0
LINE
  5
85
  8
0
 62
     7
 10
138.31
 20
173.798
 30
0.0
 11
126.258
 21
195.70099999999999
 31
0.0
  0
LINE
  5
86
  8
0
 62
     7
 10
143.72999999999999
 20
196.946
 30
0.0
 11
143.45400000000001
 21
199.21799999999999
 31
0.0
  0
LINE
  5
87
  8
0
 62
     7
 10
143.45400000000001
 20
199.21799999999999
 30
0.0
 11
142.55699999999999
 21
197.11199999999999
 31
0.0
  0
LINE
  5
88
  8
0
 62
     7
 10
142.55699999999999
 20
197.11199999999999
 30
0.0
 11
143.72999999999999
 21
196.946
 31
0.0
  0
LINE
  5
89
  8
0
 62
     7
 10
140.86000000000001
 20
180.898
 30
0.0
 11
143.45400000000001
 21
199.21799999999999
 31
0.0
  0
LINE
  5
8A
  8
0
 62
     7
 10
126.248
 20
180.798
 30
0.0
 11
130.65600000000001
 21
180.798
 31
0.0
  0
LINE
  5
8B
  8
0
 62
     7
 10
139.1329999999999
 20
173.798
 30
0.0
 11
149.53800000000001
 21
173.798
 31
0.0
  0
LINE
  5
8C
  8
0
 62
     7
 10
143.071
 20
169.50599999999989
 30
0.0
 11
140.86000000000001
 21
168.91399999999999
 31
0.0
  0
LINE
  5
8D
  8
0
 62
     7
 10
140.86000000000001
 20
168.91399999999999
 30
0.0
 11
143.071
 21
168.321
 31
0.0
  0
LINE
  5
8E
  8
0
 62
     7
 10
143.071
 20
168.321
 30
0.0
 11
143.071
 21
169.50599999999989
 31
0.0
  0
LINE
  5
8F
  8
0
 62
     7
 10
136.09899999999999
 20
168.33600000000001
 30
0.0
 11
138.31
 21
168.928
 31
0.0
  0
LINE
  5
90
  8
0
 62
     7
 10
138.31
 20
168.928
 30
0.0
 11
136.09899999999999
 21
169.52000000000001
 31
0.0
  0
LINE
  5
91
  8
0
 62
     7
 10
136.09899999999999
 20
169.52000000000001
 30
0.0
 11
136.09899999999999
 21
168.33600000000001
 31
0.0
  0
LINE
  5
92
  8
0
 62
     7
 10
135.53800000000001
 20
168.92099999999999
 30
0.0
 11
151.0
 21
168.92099999999999
 31
0.0
  0
LINE
  5
93
  8
0
 62
     7
 10
127.87
 20
165.72399999999999
 30
0.0
 11
125.66
 21
165.13200000000001
 31
0.0
  0
LINE
  5
94
  8
0
 62
     7
 10
125.66
 20
165.13200000000001
 30
0.0
 11
127.87
 21
164.53899999999999
 31
0.0
  0
LINE
  5
95
  8
0
 62
     7
 10
127.87
 20
164.53899999999999
 30
0.0
 11
127.87
 21
165.72399999999999
 31
0.0
  0
LINE
  5
96
  8
0
 62
     7
 10
138.649
 20
164.554
 30
0.0
 11
140.86000000000001
 21
165.14599999999999
 31
0.0
  0
LINE
  5
97
  8
0
 62
     7
 10
140.86000000000001
 20
165.14599999999999
 30
0.0
 11
138.649
 21
165.738
 31
0.0
  0
LINE
  5
98
  8
0
 62
     7
 10
138.649
 20
165.738
 30
0.0
 11
138.649
 21
164.554
 31
0.0
  0
LINE
  5
99
  8
0
 62
     7
 10
125.66
 20
165.13900000000001
 30
0.0
 11
140.86000000000001
 21
165.13900000000001
 31
0.0
  0
LINE
  5
9A
  8
0
 62
     7
 10
147.512
 20
199.398
 30
0.0
 11
176.387
 21
199.398
 31
0.0
  0
LINE
  5
9B
  8
0
 62
     7
 10
150.316
 20
159.398
 30
0.0
 11
176.387
 21
159.398
 31
0.0
  0
LINE
  5
9C
  8
0
 62
     7
 10
116.87
 20
150.92599999999999
 30
0.0
 11
114.66
 21
150.334
 31
0.0
  0
LINE
  5
9D
  8
0
 62
     7
 10
114.66
 20
150.334
 30
0.0
 11
116.87
 21
149.74199999999999
 31
0.0
  0
LINE
  5
9E
  8
0
 62
     7
 10
116.87
 20
149.74199999999999
 30
0.0
 11
116.87
 21
150.92599999999999
 31
0.0
  0
LINE
  5
9F
  8
0
 62
     7
 10
164.84899999999999
 20
149.756
 30
0.0
 11
167.06
 21
150.34899999999999
 31
0.0
  0
LINE
  5
A0
  8
0
 62
     7
 10
167.06
 20
150.34899999999999
 30
0.0
 11
164.84899999999999
 21
150.941
 31
0.0
  0
LINE
  5
A1
  8
0
 62
     7
 10
164.84899999999999
 20
150.941
 30
0.0
 11
164.84899999999999
 21
149.756
 31
0.0
  0
LINE
  5
A2
  8
0
 62
     7
 10
114.66
 20
150.34100000000001
 30
0.0
 11
167.06
 21
150.34100000000001
 31
0.0
  0
LINE
  5
A3
  8
0
 62
     7
 10
167.06
 20
149.518
 30
0.0
 11
167.06
 21
173.22800000000001
 31
0.0
  0
LINE
  5
A4
  8
0
 62
     7
 10
114.66
 20
149.518
 30
0.0
 11
114.66
 21
173.22800000000001
 31
0.0
  0
TEXT
  5
A5
  8
0
 62
     7
 10
138.58839374999999
 20
80.656400000000005
 30
0.0
 40
3.660169999999999
  1
390
 41
0.5
 72
     1
 11
140.876
 21
80.656400000000005
 31
0.0
  0
LINE
  5
A6
  8
0
 62
     7
 10
123.56999999999999
 20
80.313299999999998
 30
0.0
 11
121.36
 21
79.721400000000003
 31
0.0
  0
LINE
  5
A7
  8
0
 62
     7
 10
121.36
 20
79.721400000000003
 30
0.0
 11
123.56999999999999
 21
79.128799999999998
 31
0.0
  0
LINE
  5
A8
  8
0
 62
     7
 10
123.56999999999999
 20
79.128799999999998
 30
0.0
 11
123.56999999999999
 21
80.313299999999998
 31
0.0
  0
LINE
  5
A9
  8
0
 62
     7
 10
158.15000000000001
 20
79.143299999999996
 30
0.0
 11
160.36000000000001
 21
79.735500000000002
 31
0.0
  0
LINE
  5
AA
  8
0
 62
     7
 10
160.36000000000001
 20
79.735500000000002
 30
0.0
 11
158.15000000000001
 21
80.327699999999993
 31
0.0
  0
LINE
  5
AB
  8
0
 62
     7
 10
158.15000000000001
 20
80.327699999999993
 30
0.0
 11
158.15000000000001
 21
79.143299999999996
 31
0.0
  0
LINE
  5
AC
  8
0
 62
     7
 10
121.386
 20
79.728300000000004
 30
0.0
 11
160.309
 21
79.728300000000004
 31
0.0
  0
LINE
  5
AD
  8
0
 62
     7
 10
121.36
 20
107.88800000000001
 30
0.0
 11
121.36
 21
78.639300000000006
 31
0.0
  0
LINE
  5
AE
  8
0
 62
     7
 10
160.36000000000001
 20
106.8
 30
0.0
 11
160.36000000000001
 21
78.677499999999995
 31
0.0
  0
ARC
  5
AF
  8
0
 62
     7
 10
53.340578000000001
 20
179.39810900000001
 30
0.0
 40
3.3117919999999992
 50
270.00002000000001
 51
359.99999000000003
  0
ARC
  5
B0
  8
0
 62
     7
 10
53.340578000000001
 20
179.39810800000001
 30
0.0
 40
3.3117909999999999
 50
179.99996999999999
 51
270.00002000000001
  0
ARC
  5
B1
  8
0
 62
     7
 10
53.340579000000012
 20
179.39810800000001
 30
0.0
 40
3.3117919999999992
 50
90.0
 51
179.99996999999999
  0
ARC
  5
B2
  8
0
 62
     7
 10
53.340578000000001
 20
179.39810800000001
 30
0.0
 40
3.3117919999999992
 50
0.00001
 51
89.999980000000008
  0
ARC
  5
B3
  8
0
 62
     7
 10
53.340578000000001
 20
179.39810800000001
 30
0.0
 40
2.2999610000000001
 50
270.00002000000001
 51
359.99999000000003
  0
ARC
  5
B4
  8
0
 62
     7
 10
53.340578000000001
 20
179.39810800000001
 30
0.0
 40
2.29996
 50
179.99996999999999
 51
270.00002000000001
  0
ARC
  5
B5
  8
0
 62
     7
 10
53.340579000000012
 20
179.39810800000001
 30
0.0
 40
2.2999610000000001
 50
90.0
 51
179.99996999999999
  0
ARC
  5
B6
  8
0
 62
     7
 10
53.340578000000001
 20
179.39810800000001
 30
0.0
 40
2.2999610000000001
 50
0.00001
 51
89.999980000000008
  0
ARC
  5
B7
  8
0
  6
AIGENLINE002
 62
     7
 10
146.94470200000001
 20
119.43619
 30
0.0
 40
25.192831000000002
 50
245.63736299999999
 51
249.63295400000001
  0
ARC
  5
B8
  8
0
  6
AIGENLINE002
 62
     7
 10
159.02862300000001
 20
146.276287
 30
0.0
 40
54.627676000000001
 50
241.67251899999999
 51
245.704432
  0
ARC
  5
B9
  8
0
  6
AIGENLINE002
 62
     7
 10
150.82180299999999
 20
130.67631800000001
 30
0.0
 40
37.002012999999998
 50
236.54668100000001
 51
241.39642900000001
  0
ARC
  5
BA
  8
0
  6
AIGENLINE002
 62
     7
 10
145.90753599999999
 20
123.06263800000001
 30
0.0
 40
27.940794
 50
230.058615
 51
236.34786700000001
  0
ARC
  5
BB
  8
0
  6
AIGENLINE002
 62
     7
 10
142.05666400000001
 20
118.338374
 30
0.0
 40
21.846568000000001
 50
219.14374300000009
 51
229.84742299999999
  0
ARC
  5
BC
  8
0
  6
AIGENLINE002
 62
     7
 10
139.383038
 20
116.00035099999999
 30
0.0
 40
18.297509000000002
 50
200.786407
 51
218.75071299999999
  0
LINE
  5
BD
  8
0
  6
AIGENLINE002
 62
     7
 10
143.54300000000001
 20
95.818399999999997
 30
0.0
 11
138.17699999999999
 21
95.818399999999997
 31
0.0
  0
LINE
  5
BE
  8
0
  6
AIGENLINE002
 62
     7
 10
138.17699999999999
 20
95.818399999999997
 30
0.0
 11
138.17699999999999
 21
92.007000000000005
 31
0.0
  0
LINE
  5
BF
  8
0
  6
AIGENLINE002
 62
     7
 10
143.54300000000001
 20
92.007000000000005
 30
0.0
 11
143.54300000000001
 21
95.818399999999997
 31
0.0
  0
ARC
  5
C0
  8
0
  6
AIGENLINE002
 62
     7
 10
116.87260999999999
 20
167.41505900000001
 30
0.0
 40
76.402819999999991
 50
290.43071900000001
 51
292.47839199999999
  0
ARC
  5
C1
  8
0
  6
AIGENLINE002
 62
     7
 10
127.84393900000001
 20
140.613192
 30
0.0
 40
47.442659999999989
 50
292.610657
 51
296.22530499999999
  0
ARC
  5
C2
  8
0
  6
AIGENLINE002
 62
     7
 10
134.28375
 20
127.297943
 30
0.0
 40
32.652448999999997
 50
296.41326400000003
 51
301.81030399999997
  0
ARC
  5
C3
  8
0
  6
AIGENLINE002
 62
     7
 10
138.775081
 20
119.853059
 30
0.0
 40
23.958624
 50
302.067477
 51
309.26881200000003
  0
ARC
  5
C4
  8
0
  6
AIGENLINE002
 62
     7
 10
142.03022999999999
 20
115.737227
 30
0.0
 40
18.712025000000001
 50
309.52928600000001
 51
322.838257
  0
ARC
  5
C5
  8
0
  6
AIGENLINE002
 62
     7
 10
143.47565800000001
 20
114.48526699999999
 30
0.0
 40
16.804309
 50
323.26307200000002
 51
335.50503200000003
  0
ARC
  5
C6
  8
0
  6
AIGENLINE002
 62
     7
 10
155.57462200000001
 20
108.972891
 30
0.0
 40
3.5087760000000001
 50
335.50269300000002
 51
338.08476300000001
  0
ARC
  5
C7
  8
0
  6
AIGENLINE002
 62
     7
 10
153.084945
 20
109.977569
 30
0.0
 40
6.1935219999999989
 50
338.05846600000001
 51
340.69037400000002
  0
ARC
  5
C8
  8
0
  6
AIGENLINE002
 62
     7
 10
146.62128100000001
 20
112.24527
 30
0.0
 40
13.043443
 50
340.67819100000003
 51
342.489757
  0
ARC
  5
C9
  8
0
  6
AIGENLINE002
 62
     7
 10
266.666854
 20
74.871945999999994
 30
0.0
 40
112.685357
 50
162.20226500000001
 51
162.73242999999999
  0
ARC
  5
CA
  8
0
  6
AIGENLINE002
 62
     7
 10
165.276635
 20
107.309406
 30
0.0
 40
6.2336609999999988
 50
159.35899000000001
 51
161.23148399999999
  0
LINE
  5
CB
  8
0
  6
AIGENLINE002
 62
     7
 10
50.656799999999997
 20
95.818399999999997
 30
0.0
 11
56.023600000000002
 21
95.818399999999997
 31
0.0
  0
ARC
  5
CC
  8
0
  6
AIGENLINE002
 62
     7
 10
43.562778999999999
 20
116.161468
 30
0.0
 40
16.372568999999999
 50
203.98202599999999
 51
222.00353999999999
  0
ARC
  5
CD
  8
0
  6
AIGENLINE002
 62
     7
 10
45.962459000000003
 20
118.16670999999999
 30
0.0
 40
19.497983000000001
 50
221.66352900000001
 51
230.735163
  0
ARC
  5
CE
  8
0
  6
AIGENLINE002
 62
     7
 10
49.261935000000001
 20
122.03097
 30
0.0
 40
24.578302999999998
 50
230.481449
 51
237.774046
  0
ARC
  5
CF
  8
0
  6
AIGENLINE002
 62
     7
 10
53.584347000000001
 20
128.625147
 30
0.0
 40
32.461928
 50
237.52669399999999
 51
243.14047400000001
  0
ARC
  5
D0
  8
0
  6
AIGENLINE002
 62
     7
 10
59.134643999999987
 20
139.207481
 30
0.0
 40
44.410584
 50
242.92068
 51
246.86196200000001
  0
ARC
  5
D1
  8
0
  6
AIGENLINE002
 62
     7
 10
66.293126999999984
 20
155.50095999999999
 30
0.0
 40
62.206598999999997
 50
246.6960140000001
 51
249.06804700000001
  0
ARC
  5
D2
  8
0
  6
AIGENLINE002
 62
     7
 10
53.34407800000001
 20
121.525436
 30
0.0
 40
25.847151
 50
248.97143
 51
264.03236700000002
  0
LINE
  5
D3
  8
0
  6
AIGENLINE002
 62
     7
 10
50.656799999999997
 20
95.818399999999997
 30
0.0
 11
50.656799999999997
 21
92.007000000000005
 31
0.0
  0
ARC
  5
D4
  8
0
  6
AIGENLINE002
 62
     7
 10
37.391272000000001
 20
127.586816
 30
0.0
 40
44.522882000000003
 50
332.48206800000003
 51
336.04100699999998
  0
ARC
  5
D5
  8
0
  6
AIGENLINE002
 62
     7
 10
51.417495000000002
 20
120.404336
 30
0.0
 40
28.765215999999999
 50
327.418588
 51
332.26180099999999
  0
ARC
  5
D6
  8
0
  6
AIGENLINE002
 62
     7
 10
59.837181000000001
 20
115.127387
 30
0.0
 40
18.829139999999999
 50
321.32934
 51
327.15239400000002
  0
ARC
  5
D7
  8
0
  6
AIGENLINE002
 62
     7
 10
62.766883999999997
 20
112.91402600000001
 30
0.0
 40
15.159117
 50
304.863721
 51
320.94184300000001
  0
ARC
  5
D8
  8
0
  6
AIGENLINE002
 62
     7
 10
60.829316000000013
 20
115.504611
 30
0.0
 40
18.392614999999999
 50
294.92511700000011
 51
305.20313399999998
  0
ARC
  5
D9
  8
0
  6
AIGENLINE002
 62
     7
 10
58.512618999999987
 20
120.14912099999999
 30
0.0
 40
23.581303999999999
 50
289.07162
 51
295.27394800000002
  0
ARC
  5
DA
  8
0
  6
AIGENLINE002
 62
     7
 10
56.162245999999989
 20
126.677858
 30
0.0
 40
30.519794999999998
 50
283.14831099999998
 51
289.23701499999999
  0
ARC
  5
DB
  8
0
  6
AIGENLINE002
 62
     7
 10
53.435046
 20
137.54289199999999
 30
0.0
 40
41.720766999999988
 50
279.57811600000002
 51
283.40129000000002
  0
ARC
  5
DC
  8
0
  6
AIGENLINE002
 62
     7
 10
50.644897
 20
153.26453100000001
 30
0.0
 40
57.687658999999996
 50
276.95372300000002
 51
279.71249599999999
  0
ARC
  5
DD
  8
0
  6
AIGENLINE002
 62
     7
 10
47.653902999999993
 20
176.44058200000001
 30
0.0
 40
81.055509000000001
 50
275.926894
 51
277.06903199999999
  0
LINE
  5
DE
  8
0
  6
AIGENLINE002
 62
     7
 10
56.023600000000002
 20
95.818399999999997
 30
0.0
 11
56.023600000000002
 21
92.007000000000005
 31
0.0
  0
LINE
  5
DF
  8
0
 62
     7
 10
112.72
 20
109.29600000000001
 30
0.0
 11
112.128
 21
111.50700000000001
 31
0.0
  0
LINE
  5
E0
  8
0
 62
     7
 10
112.128
 20
111.50700000000001
 30
0.0
 11
111.536
 21
109.29600000000001
 31
0.0
  0
LINE
  5
E1
  8
0
 62
     7
 10
111.536
 20
109.29600000000001
 30
0.0
 11
112.72
 21
109.29600000000001
 31
0.0
  0
LINE
  5
E2
  8
0
 62
     7
 10
111.55
 20
98.216800000000006
 30
0.0
 11
112.142
 21
96.006500000000017
 31
0.0
  0
LINE
  5
E3
  8
0
 62
     7
 10
112.142
 20
96.006500000000017
 30
0.0
 11
112.735
 21
98.216800000000006
 31
0.0
  0
LINE
  5
E4
  8
0
 62
     7
 10
112.735
 20
98.216800000000006
 30
0.0
 11
111.55
 21
98.216800000000006
 31
0.0
  0
LINE
  5
E5
  8
0
 62
     7
 10
112.13500000000001
 20
111.523
 30
0.0
 11
112.13500000000001
 21
96.000299999999996
 31
0.0
  0
LINE
  5
E6
  8
0
 62
     7
 10
136.434
 20
96.006500000000017
 30
0.0
 11
111.42400000000001
 21
96.006500000000017
 31
0.0
  0
LINE
  5
E7
  8
0
 62
     7
 10
119.15600000000001
 20
111.50700000000001
 30
0.0
 11
111.11499999999999
 21
111.50700000000001
 31
0.0
  0
LINE
  5
E8
  8
0
  6
AIGENLINE001
 62
     7
 10
140.86000000000001
 20
113.89700000000001
 30
0.0
 11
140.86000000000001
 21
89.702600000000004
 31
0.0
  0
LINE
  5
E9
  8
0
 62
     7
 10
89.281599999999997
 20
113.717
 30
0.0
 11
89.873799999999989
 21
111.50700000000001
 31
0.0
  0
LINE
  5
EA
  8
0
 62
     7
 10
89.873799999999989
 20
111.50700000000001
 30
0.0
 11
90.466200000000001
 21
113.717
 31
0.0
  0
LINE
  5
EB
  8
0
 62
     7
 10
90.466200000000001
 20
113.717
 30
0.0
 11
89.281599999999997
 21
113.717
 31
0.0
  0
LINE
  5
EC
  8
0
 62
     7
 10
89.281599999999997
 20
94.217799999999997
 30
0.0
 11
89.873799999999989
 21
92.007000000000005
 31
0.0
  0
LINE
  5
ED
  8
0
 62
     7
 10
89.873799999999989
 20
92.007000000000005
 30
0.0
 11
90.466200000000001
 21
94.217799999999997
 31
0.0
  0
LINE
  5
EE
  8
0
 62
     7
 10
90.466200000000001
 20
94.217799999999997
 30
0.0
 11
89.281599999999997
 21
94.217799999999997
 31
0.0
  0
LINE
  5
EF
  8
0
 62
     7
 10
90.451599999999999
 20
107.297
 30
0.0
 11
89.859300000000005
 21
109.50700000000001
 31
0.0
  0
LINE
  5
F0
  8
0
 62
     7
 10
89.859300000000005
 20
109.50700000000001
 30
0.0
 11
89.267000000000024
 21
107.297
 31
0.0
  0
LINE
  5
F1
  8
0
 62
     7
 10
89.267000000000024
 20
107.297
 30
0.0
 11
90.451599999999999
 21
107.297
 31
0.0
  0
LINE
  5
F2
  8
0
 62
     7
 10
89.866600000000005
 20
92.011200000000017
 30
0.0
 11
89.866600000000005
 21
118.157
 31
0.0
  0
LINE
  5
F3
  8
0
 62
     7
 10
97.136099999999999
 20
94.217799999999997
 30
0.0
 11
97.728700000000003
 21
92.007000000000005
 31
0.0
  0
LINE
  5
F4
  8
0
 62
     7
 10
97.728700000000003
 20
92.007000000000005
 30
0.0
 11
98.320899999999995
 21
94.217799999999997
 31
0.0
  0
LINE
  5
F5
  8
0
 62
     7
 10
98.320899999999995
 20
94.217799999999997
 30
0.0
 11
97.136099999999999
 21
94.217799999999997
 31
0.0
  0
LINE
  5
F6
  8
0
 62
     7
 10
98.306399999999996
 20
109.29600000000001
 30
0.0
 11
97.713899999999995
 21
111.50700000000001
 31
0.0
  0
LINE
  5
F7
  8
0
 62
     7
 10
97.713899999999995
 20
111.50700000000001
 30
0.0
 11
97.121600000000001
 21
109.29600000000001
 31
0.0
  0
LINE
  5
F8
  8
0
 62
     7
 10
97.121600000000001
 20
109.29600000000001
 30
0.0
 11
98.306399999999996
 21
109.29600000000001
 31
0.0
  0
LINE
  5
F9
  8
0
 62
     7
 10
97.721100000000007
 20
92.001900000000006
 30
0.0
 11
97.721100000000007
 21
111.47799999999999
 31
0.0
  0
LINE
  5
FA
  8
0
 62
     7
 10
76.368399999999994
 20
92.007000000000005
 30
0.0
 11
98.762200000000007
 21
92.007000000000005
 31
0.0
  0
LINE
  5
FB
  8
0
 62
     7
 10
80.833799999999997
 20
111.50700000000001
 30
0.0
 11
98.762200000000007
 21
111.50700000000001
 31
0.0
  0
LINE
  5
FC
  8
0
 62
     7
 10
82.083899999999986
 20
109.50700000000001
 30
0.0
 11
91.444999999999979
 21
109.50700000000001
 31
0.0
  0
LINE
  5
FD
  8
0
 62
     7
 10
79.340400000000002
 20
109.30800000000001
 30
0.0
 11
79.340400000000002
 21
78.779499999999999
 31
0.0
  0
LINE
  5
FE
  8
0
 62
     7
 10
27.340499999999999
 20
105.92
 30
0.0
 11
27.340499999999999
 21
78.707099999999997
 31
0.0
  0
LINE
  5
FF
  8
0
 62
     7
 10
29.550799999999999
 20
80.313299999999998
 30
0.0
 11
27.340499999999999
 21
79.721000000000004
 31
0.0
  0
LINE
  5
100
  8
0
 62
     7
 10
27.340499999999999
 20
79.721000000000004
 30
0.0
 11
29.550799999999999
 21
79.128799999999998
 31
0.0
  0
LINE
  5
101
  8
0
 62
     7
 10
29.550799999999999
 20
79.128799999999998
 30
0.0
 11
29.550799999999999
 21
80.313299999999998
 31
0.0
  0
LINE
  5
102
  8
0
 62
     7
 10
77.129800000000003
 20
79.143299999999996
 30
0.0
 11
79.340400000000002
 21
79.735500000000002
 31
0.0
  0
LINE
  5
103
  8
0
 62
     7
 10
79.340400000000002
 20
79.735500000000002
 30
0.0
 11
77.129800000000003
 21
80.327699999999993
 31
0.0
  0
LINE
  5
104
  8
0
 62
     7
 10
77.129800000000003
 20
80.327699999999993
 30
0.0
 11
77.129800000000003
 21
79.143299999999996
 31
0.0
  0
LINE
  5
105
  8
0
 62
     7
 10
27.399699999999999
 20
79.728300000000004
 30
0.0
 11
79.346599999999995
 21
79.728300000000004
 31
0.0
  0
LINE
  5
106
  8
0
  6
AIGENLINE001
 62
     7
 10
53.340600000000002
 20
114.11499999999999
 30
0.0
 11
53.340600000000002
 21
90.672399999999996
 31
0.0
  0
LINE
  5
107
  8
0
 62
     7
 10
91.224999999999994
 20
160.60900000000001
 30
0.0
 11
91.816900000000004
 21
158.398
 31
0.0
  0
LINE
  5
108
  8
0
 62
     7
 10
91.816900000000004
 20
158.398
 30
0.0
 11
92.409400000000005
 21
160.60900000000001
 31
0.0
  0
LINE
  5
109
  8
0
 62
     7
 10
92.409400000000005
 20
160.60900000000001
 30
0.0
 11
91.224999999999994
 21
160.60900000000001
 31
0.0
  0
LINE
  5
10A
  8
0
 62
     7
 10
92.394900000000007
 20
198.18799999999999
 30
0.0
 11
91.802400000000006
 21
200.398
 31
0.0
  0
LINE
  5
10B
  8
0
 62
     7
 10
91.802400000000006
 20
200.398
 30
0.0
 11
91.209800000000016
 21
198.18799999999999
 31
0.0
  0
LINE
  5
10C
  8
0
 62
     7
 10
91.209800000000016
 20
198.18799999999999
 30
0.0
 11
92.394900000000007
 21
198.18799999999999
 31
0.0
  0
LINE
  5
10D
  8
0
 62
     7
 10
91.810000000000002
 20
158.429
 30
0.0
 11
91.810000000000002
 21
200.36600000000001
 31
0.0
  0
LINE
  5
10E
  8
0
 62
     7
 10
28.050799999999999
 20
147.876
 30
0.0
 11
25.840399999999999
 21
147.28399999999999
 31
0.0
  0
LINE
  5
10F
  8
0
 62
     7
 10
25.840399999999999
 20
147.28399999999999
 30
0.0
 11
28.050799999999999
 21
146.691
 31
0.0
  0
LINE
  5
110
  8
0
 62
     7
 10
28.050799999999999
 20
146.691
 30
0.0
 11
28.050799999999999
 21
147.876
 31
0.0
  0
LINE
  5
111
  8
0
 62
     7
 10
78.629800000000003
 20
146.70599999999999
 30
0.0
 11
80.840399999999988
 21
147.298
 31
0.0
  0
LINE
  5
112
  8
0
 62
     7
 10
80.840399999999988
 20
147.298
 30
0.0
 11
78.629800000000003
 21
147.89099999999999
 31
0.0
  0
LINE
  5
113
  8
0
 62
     7
 10
78.629800000000003
 20
147.89099999999999
 30
0.0
 11
78.629800000000003
 21
146.70599999999999
 31
0.0
  0
LINE
  5
114
  8
0
 62
     7
 10
25.812200000000001
 20
147.291
 30
0.0
 11
80.8018
 21
147.291
 31
0.0
  0
LINE
  5
115
  8
0
 62
     7
 10
25.840399999999999
 20
174.46600000000001
 30
0.0
 11
25.840399999999999
 21
146.27099999999999
 31
0.0
  0
LINE
  5
116
  8
0
 62
     7
 10
80.840399999999988
 20
174.46600000000001
 30
0.0
 11
80.840399999999988
 21
146.27099999999999
 31
0.0
  0
LINE
  5
117
  8
0
 62
     7
 10
58.366100000000003
 20
158.398
 30
0.0
 11
93.387799999999984
 21
158.398
 31
0.0
  0
LINE
  5
118
  8
0
 62
     7
 10
58.366100000000003
 20
200.398
 30
0.0
 11
93.387799999999984
 21
200.398
 31
0.0
  0
LINE
  5
119
  8
0
 62
     7
 10
49.912300000000002
 20
182.404
 30
0.0
 11
51.784799999999997
 21
181.08799999999999
 31
0.0
  0
LINE
  5
11A
  8
0
 62
     7
 10
51.784799999999997
 20
181.08799999999999
 30
0.0
 11
50.820999999999998
 21
183.16399999999999
 31
0.0
  0
LINE
  5
11B
  8
0
 62
     7
 10
50.820999999999998
 20
183.16399999999999
 30
0.0
 11
49.912300000000002
 21
182.404
 31
0.0
  0
LINE
  5
11C
  8
0
 62
     7
 10
56.7423
 20
176.36799999999999
 30
0.0
 11
54.869900000000001
 21
177.684
 31
0.0
  0
LINE
  5
11D
  8
0
 62
     7
 10
54.869900000000001
 20
177.684
 30
0.0
 11
55.83359999999999
 21
175.608
 31
0.0
  0
LINE
  5
11E
  8
0
 62
     7
 10
55.83359999999999
 20
175.608
 30
0.0
 11
56.7423
 21
176.36799999999999
 31
0.0
  0
LINE
  5
11F
  8
0
 62
     7
 10
68.671199999999985
 20
170.965
 30
0.0
 11
60.958199999999991
 21
170.965
 31
0.0
  0
LINE
  5
120
  8
0
 62
     7
 10
60.958199999999991
 20
170.965
 30
0.0
 11
48.391000000000012
 21
184.834
 31
0.0
  0
LINE
  5
121
  8
0
  6
AIGENLINE001
 62
     7
 10
53.340600000000002
 20
156.81999999999999
 30
0.0
 11
53.340600000000002
 21
203.61500000000001
 31
0.0
  0
LINE
  5
122
  8
0
  6
AIGENLINE001
 62
     7
 10
24.2622
 20
179.398
 30
0.0
 11
82.418599999999998
 21
179.398
 31
0.0
  0
LINE
  5
123
  8
0
 62
     7
 10
155.94999999999999
 20
93.408799999999999
 30
0.0
 11
160.36000000000001
 21
109.50700000000001
 31
0.0
  0
ARC
  5
124
  8
0
 62
     7
 10
154.031994
 20
93.780490999999998
 30
0.0
 40
1.9626229999999989
 50
270.25823800000001
 51
314.73620800000009
  0
ARC
  5
125
  8
0
 62
     7
 10
154.02687700000001
 20
93.766283000000001
 30
0.0
 40
1.9561799999999989
 50
315.13556699999998
 51
349.47154699999999
  0
LINE
  5
126
  8
0
 62
     7
 10
127.678
 20
91.817899999999995
 30
0.0
 11
154.041
 21
91.817899999999995
 31
0.0
  0
LINE
  5
127
  8
0
 62
     7
 10
121.36
 20
109.50700000000001
 30
0.0
 11
125.77
 21
93.408799999999999
 31
0.0
  0
ARC
  5
128
  8
0
 62
     7
 10
127.699269
 20
93.772131000000002
 30
0.0
 40
1.963649
 50
190.66154800000001
 51
235.09645399999999
  0
ARC
  5
129
  8
0
 62
     7
 10
127.683871
 20
93.775695999999996
 30
0.0
 40
1.9578169999999999
 50
235.525733
 51
269.831501
  0
LINE
  5
12A
  8
0
 62
     7
 10
119.86
 20
109.50700000000001
 30
0.0
 11
161.86000000000001
 21
109.50700000000001
 31
0.0
  0
LINE
  5
12B
  8
0
 62
     7
 10
161.86000000000001
 20
109.50700000000001
 30
0.0
 11
161.86000000000001
 21
109.928
 31
0.0
  0
ARC
  5
12C
  8
0
 62
     7
 10
160.26321899999999
 20
109.92000899999999
 30
0.0
 40
1.596679
 50
0.2932110000000001
 51
44.747914999999999
  0
ARC
  5
12D
  8
0
 62
     7
 10
160.275128
 20
109.916025
 30
0.0
 40
1.5910649999999991
 50
45.151707000000002
 51
89.764433999999994
  0
LINE
  5
12E
  8
0
 62
     7
 10
160.28200000000001
 20
111.50700000000001
 30
0.0
 11
121.438
 21
111.50700000000001
 31
0.0
  0
ARC
  5
12F
  8
0
 62
     7
 10
121.446164
 20
109.909539
 30
0.0
 40
1.597558
 50
90.293779000000001
 51
134.75247899999999
  0
ARC
  5
130
  8
0
 62
     7
 10
121.45497
 20
109.92165799999999
 30
0.0
 40
1.595221
 50
135.28356599999989
 51
179.75336300000001
  0
LINE
  5
131
  8
0
 62
     7
 10
119.86
 20
109.929
 30
0.0
 11
119.86
 21
109.928
 31
0.0
  0
LINE
  5
132
  8
0
 62
     7
 10
119.86
 20
109.928
 30
0.0
 11
119.86
 21
109.50700000000001
 31
0.0
  0
LINE
  5
133
  8
0
 62
     7
 10
79.340400000000002
 20
109.50700000000001
 30
0.0
 11
76.036299999999983
 21
93.132199999999983
 31
0.0
  0
ARC
  5
134
  8
0
 62
     7
 10
74.701701
 20
93.359840000000005
 30
0.0
 40
1.3538950000000001
 50
315.02252199999998
 51
350.32044500000001
  0
ARC
  5
135
  8
0
 62
     7
 10
74.696314999999998
 20
93.376540999999989
 30
0.0
 40
1.369534
 50
270.28226599999999
 51
314.68755499999997
  0
LINE
  5
136
  8
0
 62
     7
 10
74.703100000000006
 20
92.007000000000005
 30
0.0
 11
53.340600000000002
 21
92.007000000000005
 31
0.0
  0
LINE
  5
137
  8
0
 62
     7
 10
53.340600000000002
 20
92.007000000000005
 30
0.0
 11
31.977399999999999
 21
92.007000000000005
 31
0.0
  0
ARC
  5
138
  8
0
 62
     7
 10
31.979623
 20
93.366662000000005
 30
0.0
 40
1.3596399999999991
 50
234.791079
 51
269.906612
  0
ARC
  5
139
  8
0
 62
     7
 10
31.990400999999999
 20
93.367125999999999
 30
0.0
 40
1.36626
 50
189.90115399999999
 51
234.432984
  0
LINE
  5
13A
  8
0
 62
     7
 10
30.644500000000001
 20
93.132199999999983
 30
0.0
 11
27.340499999999999
 21
109.50700000000001
 31
0.0
  0
LINE
  5
13B
  8
0
 62
     7
 10
25.840399999999999
 20
109.50700000000001
 30
0.0
 11
80.840399999999988
 21
109.50700000000001
 31
0.0
  0
LINE
  5
13C
  8
0
 62
     7
 10
80.840399999999988
 20
109.50700000000001
 30
0.0
 11
80.840399999999988
 21
109.928
 31
0.0
  0
ARC
  5
13D
  8
0
 62
     7
 10
79.243707000000001
 20
109.92000899999999
 30
0.0
 40
1.596679
 50
0.2932110000000001
 51
44.747914999999999
  0
ARC
  5
13E
  8
0
 62
     7
 10
79.255014000000003
 20
109.914573
 30
0.0
 40
1.5925199999999999
 50
45.173171000000004
 51
89.742970999999983
  0
LINE
  5
13F
  8
0
 62
     7
 10
79.262200000000007
 20
111.50700000000001
 30
0.0
 11
27.4193
 21
111.50700000000001
 31
0.0
  0
ARC
  5
140
  8
0
 62
     7
 10
27.427530000000001
 20
109.91039000000001
 30
0.0
 40
1.596708
 50
90.293724999999995
 51
134.76504600000001
  0
ARC
  5
141
  8
0
 62
     7
 10
27.434744999999999
 20
109.920987
 30
0.0
 40
1.594314999999999
 50
135.217344
 51
179.74149
  0
LINE
  5
142
  8
0
 62
     7
 10
25.840399999999999
 20
109.928
 30
0.0
 11
25.840399999999999
 21
109.50700000000001
 31
0.0
  0
ARC
  5
143
  8
0
 62
     7
 10
53.033618000000011
 20
173.73380900000001
 30
0.0
 40
24.140864000000001
 50
70.127651999999998
 51
89.271433000000002
  0
ARC
  5
144
  8
0
 62
     7
 10
76.587501000000003
 20
238.72627199999999
 30
0.0
 40
44.988054999999989
 50
250.052909
 51
255.50068300000001
  0
ARC
  5
145
  8
0
 62
     7
 10
62.664062999999992
 20
184.95165499999999
 30
0.0
 40
10.559877
 50
49.129238000000001
 51
75.411107000000001
  0
ARC
  5
146
  8
0
 62
     7
 10
-151.611592
 20
-61.959254000000001
 30
0.0
 40
337.48348600000003
 50
48.449252999999999
 51
49.050257999999999
  0
ARC
  5
147
  8
0
 62
     7
 10
-32.775103000000001
 20
72.366522000000003
 30
0.0
 40
158.136145
 50
46.455722999999999
 51
48.390370000000011
  0
ARC
  5
148
  8
0
 62
     7
 10
73.701515999999984
 20
184.34350800000001
 30
0.0
 40
3.6173479999999998
 50
43.620612000000001
 51
47.028246999999993
  0
ARC
  5
149
  8
0
 62
     7
 10
72.254002999999997
 20
182.93996899999999
 30
0.0
 40
5.6335369999999996
 50
359.38045599999998
 51
43.798039000000003
  0
ARC
  5
14A
  8
0
 62
     7
 10
87.436818000000002
 20
182.72856399999989
 30
0.0
 40
9.5507919999999995
 50
179.09714099999999
 51
194.320708
  0
ARC
  5
14B
  8
0
 62
     7
 10
74.097903000000002
 20
179.31788800000001
 30
0.0
 40
4.2172650000000003
 50
1.0899339999999991
 51
14.393079
  0
ARC
  5
14C
  8
0
 62
     7
 10
74.029703999999995
 20
179.48835199999999
 30
0.0
 40
4.2856519999999989
 50
345.71267499999999
 51
358.79341799999997
  0
ARC
  5
14D
  8
0
 62
     7
 10
87.421035000000003
 20
176.070187
 30
0.0
 40
9.5350429999999982
 50
165.666583
 51
180.91648000000001
  0
ARC
  5
14E
  8
0
 62
     7
 10
73.170929000000001
 20
175.82530600000001
 30
0.0
 40
4.717187
 50
358.51067699999999
 51
1.122044
  0
ARC
  5
14F
  8
0
 62
     7
 10
72.259672999999992
 20
175.85764499999999
 30
0.0
 40
5.6289819999999988
 50
313.96243199999998
 51
358.42269299999998
  0
ARC
  5
150
  8
0
 62
     7
 10
-13.152540999999999
 20
265.27157799999998
 30
0.0
 40
129.28205500000001
 50
312.07052900000002
 51
313.70066700000001
  0
ARC
  5
151
  8
0
 62
     7
 10
-60.948754000000001
 20
317.87199199999998
 30
0.0
 40
200.35417200000001
 50
311.167348
 51
312.13787000000008
  0
ARC
  5
152
  8
0
 62
     7
 10
-171.39273800000001
 20
443.67496899999998
 30
0.0
 40
367.75848300000001
 50
310.937163
 51
311.21876500000002
  0
ARC
  5
153
  8
0
 62
     7
 10
62.657882999999998
 20
173.855086
 30
0.0
 40
10.571619
 50
284.606942
 51
310.85998999999998
  0
ARC
  5
154
  8
0
 62
     7
 10
76.778811000000005
 20
119.42944199999999
 30
0.0
 40
45.656063000000003
 50
104.530509
 51
109.89825999999999
  0
ARC
  5
155
  8
0
 62
     7
 10
53.035913999999998
 20
185.05046300000001
 30
0.0
 40
24.128202999999999
 50
270.72349700000001
 51
289.87741799999998
  0
ARC
  5
156
  8
0
 62
     7
 10
53.643050000000002
 20
185.038397
 30
0.0
 40
24.116109999999999
 50
250.11775499999999
 51
269.28137099999998
  0
ARC
  5
157
  8
0
 62
     7
 10
29.940555
 20
119.55276600000001
 30
0.0
 40
45.527096999999998
 50
70.094110999999998
 51
75.477079000000003
  0
ARC
  5
158
  8
0
 62
     7
 10
44.014919999999996
 20
173.83919700000001
 30
0.0
 40
10.554138
 50
229.11789899999999
 51
255.415209
  0
ARC
  5
159
  8
0
 62
     7
 10
258.13741900000002
 20
420.65502500000002
 30
0.0
 40
337.30556300000001
 50
228.46938700000001
 51
229.05898500000001
  0
ARC
  5
15A
  8
0
 62
     7
 10
140.3288
 20
287.3918339999999
 30
0.0
 40
159.43512799999999
 50
226.46648099999999
 51
228.41027
  0
ARC
  5
15B
  8
0
 62
     7
 10
36.451999000000001
 20
177.93781200000001
 30
0.0
 40
8.5363289999999985
 50
224.47276400000001
 51
225.91659000000001
  0
ARC
  5
15C
  8
0
 62
     7
 10
34.428330000000003
 20
175.85719599999999
 30
0.0
 40
5.6350530000000001
 50
179.38499899999999
 51
223.79179099999999
  0
ARC
  5
15D
  8
0
 62
     7
 10
19.242208000000002
 20
176.06812099999999
 30
0.0
 40
9.5525770000000012
 50
359.09761900000001
 51
14.319319
  0
ARC
  5
15E
  8
0
 62
     7
 10
32.633006000000002
 20
179.48437000000001
 30
0.0
 40
4.2671269999999986
 50
181.15836300000001
 51
194.29551499999999
  0
ARC
  5
15F
  8
0
 62
     7
 10
32.64230100000001
 20
179.31133600000001
 30
0.0
 40
4.2764309999999988
 50
165.71966800000001
 51
178.837321
  0
ARC
  5
160
  8
0
 62
     7
 10
19.259831999999999
 20
182.72670099999999
 30
0.0
 40
9.5349869999999992
 50
345.66662000000002
 51
0.915531
  0
ARC
  5
161
  8
0
 62
     7
 10
36.974527000000002
 20
182.95989399999999
 30
0.0
 40
8.1813260000000003
 50
179.06537599999999
 51
180.5661639999999
  0
ARC
  5
162
  8
0
 62
     7
 10
34.426487000000002
 20
182.936565
 30
0.0
 40
5.634377999999999
 50
133.989913
 51
178.4055239999999
  0
ARC
  5
163
  8
0
 62
     7
 10
119.093295
 20
94.320782999999977
 30
0.0
 40
128.195415
 50
132.06339500000001
 51
133.70747
  0
ARC
  5
164
  8
0
 62
     7
 10
167.33872400000001
 20
41.242688000000001
 30
0.0
 40
199.923115
 50
131.164613
 51
132.13727299999999
  0
ARC
  5
165
  8
0
 62
     7
 10
277.81052999999991
 20
-84.606243999999975
 30
0.0
 40
367.38031799999999
 50
130.93392700000001
 51
131.215869
  0
ARC
  5
166
  8
0
 62
     7
 10
44.015205999999999
 20
184.95524499999999
 30
0.0
 40
10.555927000000001
 50
104.5838669999999
 51
130.87574699999999
  0
ARC
  5
167
  8
0
 62
     7
 10
29.962973999999999
 20
239.14783299999999
 30
0.0
 40
45.428912999999987
 50
284.52578999999997
 51
289.920658
  0
ARC
  5
168
  8
0
 62
     7
 10
53.644494999999992
 20
173.750553
 30
0.0
 40
24.124082999999999
 50
90.721825999999993
 51
109.87904899999999
  0
ARC
  5
169
  8
0
 62
     7
 10
53.03754399999999
 20
173.767233
 30
0.0
 40
26.632828000000011
 50
70.108884000000003
 51
89.348051999999996
  0
ARC
  5
16A
  8
0
 62
     7
 10
76.855616999999995
 20
239.628185
 30
0.0
 40
43.402631999999997
 50
250.12342699999999
 51
255.457729
  0
ARC
  5
16B
  8
0
 62
     7
 10
62.661924999999989
 20
184.949881
 30
0.0
 40
13.087880999999999
 50
49.116086000000003
 51
75.415913000000003
  0
ARC
  5
16C
  8
0
 62
     7
 10
-148.57159300000001
 20
-58.541167999999999
 30
0.0
 40
335.43472200000002
 50
48.458911000000001
 51
49.059958999999992
  0
ARC
  5
16D
  8
0
 62
     7
 10
-33.794421
 20
71.238383999999996
 30
0.0
 40
162.18207100000001
 50
46.466695000000001
 51
48.403888999999992
  0
ARC
  5
16E
  8
0
 62
     7
 10
72.662885000000003
 20
183.29539800000001
 30
0.0
 40
7.6183880000000004
 50
44.095930000000003
 51
46.441203999999999
  0
ARC
  5
16F
  8
0
 62
     7
 10
72.221913000000001
 20
182.92820399999999
 30
0.0
 40
8.1907130000000006
 50
359.374212
 51
43.794111999999991
  0
ARC
  5
170
  8
0
 62
     7
 10
87.450840999999997
 20
182.731582
 30
0.0
 40
7.0395190000000003
 50
179.127713
 51
194.31427299999999
  0
ARC
  5
171
  8
0
 62
     7
 10
74.047138000000004
 20
179.310892
 30
0.0
 40
6.7937869999999991
 50
0.735563
 51
14.31897
  0
ARC
  5
172
  8
0
 62
     7
 10
74.001356999999985
 20
179.49210299999999
 30
0.0
 40
6.8396549999999996
 50
345.72645000000011
 51
359.21257800000001
  0
ARC
  5
173
  8
0
 62
     7
 10
87.445406000000006
 20
176.065954
 30
0.0
 40
7.034097
 50
165.679757
 51
180.87949800000001
  0
ARC
  5
174
  8
0
 62
     7
 10
73.383511999999996
 20
175.81743700000001
 30
0.0
 40
7.0300310000000001
 50
358.60146900000001
 51
1.1455699999999991
  0
ARC
  5
175
  8
0
 62
     7
 10
72.227506999999974
 20
175.871216
 30
0.0
 40
8.1870440000000002
 50
313.980547
 51
358.42266799999999
  0
ARC
  5
176
  8
0
 62
     7
 10
-13.162635
 20
265.30580200000003
 30
0.0
 40
131.83976000000001
 50
312.073218
 51
313.693735
  0
ARC
  5
177
  8
0
 62
     7
 10
-59.997737999999991
 20
316.83502399999998
 30
0.0
 40
201.472734
 50
311.18203
 51
312.14047699999998
  0
ARC
  5
178
  8
0
 62
     7
 10
-164.12940699999999
 20
435.42215099999999
 30
0.0
 40
359.28992199999999
 50
310.92447199999998
 51
311.22789999999998
  0
ARC
  5
179
  8
0
 62
     7
 10
62.663777000000003
 20
173.841927
 30
0.0
 40
13.082815999999999
 50
284.581478
 51
310.89239100000009
  0
ARC
  5
17A
  8
0
 62
     7
 10
76.710169999999991
 20
119.64959
 30
0.0
 40
42.900317999999999
 50
104.515618
 51
109.912561
  0
ARC
  5
17B
  8
0
 62
     7
 10
53.036462
 20
185.040739
 30
0.0
 40
26.644251000000001
 50
270.653997
 51
289.884704
  0
ARC
  5
17C
  8
0
 62
     7
 10
53.648018000000008
 20
185.0630139999999
 30
0.0
 40
26.666563
 50
250.12348900000001
 51
269.33943099999999
  0
ARC
  5
17D
  8
0
 62
     7
 10
29.912409000000011
 20
119.465862
 30
0.0
 40
43.092778000000003
 50
70.098253
 51
75.470635999999999
  0
ARC
  5
17E
  8
0
 62
     7
 10
44.023919999999997
 20
173.856086
 30
0.0
 40
13.098252
 50
229.124267
 51
255.404988
  0
ARC
  5
17F
  8
0
 62
     7
 10
253.66334900000001
 20
415.56549499999988
 30
0.0
 40
333.0546930000001
 50
228.461321
 51
229.06661800000001
  0
ARC
  5
180
  8
0
 62
     7
 10
140.058539
 20
287.104602
 30
0.0
 40
161.56648200000001
 50
226.46313900000001
 51
228.40755899999999
  0
ARC
  5
181
  8
0
 62
     7
 10
36.465755000000001
 20
177.94737799999999
 30
0.0
 40
11.078474
 50
224.37116599999999
 51
225.986403
  0
ARC
  5
182
  8
0
 62
     7
 10
34.458472
 20
175.86901900000001
 30
0.0
 40
8.1906250000000007
 50
179.37761699999999
 51
223.797809
  0
ARC
  5
183
  8
0
 62
     7
 10
19.219301000000002
 20
176.06537
 30
0.0
 40
7.0498469999999989
 50
359.127229
 51
14.29244299999999
  0
ARC
  5
184
  8
0
 62
     7
 10
32.621969999999997
 20
179.48450399999999
 30
0.0
 40
6.7820739999999997
 50
180.72992300000001
 51
194.33108899999999
  0
ARC
  5
185
  8
0
 62
     7
 10
32.636381999999998
 20
179.31053399999999
 30
0.0
 40
6.7964999999999991
 50
165.68373399999999
 51
179.26169400000001
  0
ARC
  5
186
  8
0
 62
     7
 10
19.254586
 20
182.727373
 30
0.0
 40
7.0146289999999993
 50
345.66934600000002
 51
0.9097419999999999
  0
ARC
  5
187
  8
0
 62
     7
 10
37.942324999999997
 20
182.943273
 30
0.0
 40
11.674462999999999
 50
178.98106200000001
 51
180.5130179999999
  0
ARC
  5
188
  8
0
 62
     7
 10
34.455228000000012
 20
182.92462900000001
 30
0.0
 40
8.1886460000000003
 50
133.988405
 51
178.41674499999999
  0
ARC
  5
189
  8
0
 62
     7
 10
119.327995
 20
94.061121999999997
 30
0.0
 40
131.07104000000001
 50
132.07315500000001
 51
133.703136
  0
ARC
  5
18A
  8
0
 62
     7
 10
166.83945299999999
 20
41.805190000000003
 30
0.0
 40
201.696673
 50
131.18721500000001
 51
132.144643
  0
ARC
  5
18B
  8
0
 62
     7
 10
269.194795
 20
-74.72506700000001
 30
0.0
 40
356.79621800000001
 50
130.92837499999999
 51
131.233946
  0
ARC
  5
18C
  8
0
 62
     7
 10
44.019998000000001
 20
184.94670400000001
 30
0.0
 40
13.091234999999999
 50
104.585269
 51
130.87960799999999
  0
ARC
  5
18D
  8
0
 62
     7
 10
29.982129
 20
239.11730299999999
 30
0.0
 40
42.868718000000001
 50
284.51071400000012
 51
289.91106100000002
  0
ARC
  5
18E
  8
0
 62
     7
 10
53.650185
 20
173.72703000000001
 30
0.0
 40
26.673103999999999
 50
90.665062000000006
 51
109.87638099999999
  0
TEXT
  5
18F
  8
_________2
 62
     7
 10
24.587599999999998
 20
0.7079720000000001
 30
0.0
 40
4.6583899999999989
  1
550サイズ、実容量5.5L、重量：12.9kg
 41
0.5
  0
LINE
  5
190
  8
_________2
 62
     7
 10
205.30099999999999
 20
127.411
 30
0.0
 11
183.55099999999999
 21
127.411
 31
0.0
  0
LINE
  5
191
  8
_________2
 62
     7
 10
100.3
 20
-4.0903900000000002
 30
0.0
 11
100.3
 21
-21.070699999999999
 31
0.0
  0
LINE
  5
192
  8
_________2
 62
     7
 10
100.3
 20
275.93099999999998
 30
0.0
 11
100.3
 21
258.911
 31
0.0
  0
LINE
  5
193
  8
_________2
 62
     7
 10
17.049700000000001
 20
127.411
 30
0.0
 11
-4.7000000000000002
 21
127.411
 31
0.0
  0
LINE
  5
194
  8
_________2
 62
     7
 10
76.741900000000001
 20
29.805399999999999
 30
0.0
 11
74.554900000000004
 21
29.805399999999999
 31
0.0
  0
LINE
  5
195
  8
_________2
 62
     7
 10
77.234499999999997
 20
29.805399999999999
 30
0.0
 11
76.982399999999998
 21
29.805399999999999
 31
0.0
  0
LINE
  5
196
  8
_________2
 62
     7
 10
77.727199999999996
 20
29.805399999999999
 30
0.0
 11
80.652100000000004
 21
29.805399999999999
 31
0.0
  0
LINE
  5
197
  8
_________2
 62
     7
 10
77.234499999999997
 20
29.805399999999999
 30
0.0
 11
77.486000000000004
 21
29.805399999999999
 31
0.0
  0
LINE
  5
198
  8
_________2
 62
     7
 10
70.837599999999995
 20
29.805399999999999
 30
0.0
 11
68.650700000000001
 21
29.805399999999999
 31
0.0
  0
LINE
  5
199
  8
_________2
 62
     7
 10
71.330299999999994
 20
29.805399999999999
 30
0.0
 11
71.078100000000006
 21
29.805399999999999
 31
0.0
  0
LINE
  5
19A
  8
_________2
 62
     7
 10
71.330299999999994
 20
30.298100000000002
 30
0.0
 11
71.330299999999994
 21
32.484999999999999
 31
0.0
  0
LINE
  5
19B
  8
_________2
 62
     7
 10
71.330299999999994
 20
29.805399999999999
 30
0.0
 11
71.330299999999994
 21
30.057600000000001
 31
0.0
  0
LINE
  5
19C
  8
_________2
 62
     7
 10
71.822900000000004
 20
29.805399999999999
 30
0.0
 11
74.009200000000007
 21
29.805399999999999
 31
0.0
  0
LINE
  5
19D
  8
_________2
 62
     7
 10
71.330299999999994
 20
29.805399999999999
 30
0.0
 11
71.582499999999996
 21
29.805399999999999
 31
0.0
  0
LINE
  5
19E
  8
_________2
 62
     7
 10
71.330299999999994
 20
29.313500000000001
 30
0.0
 11
71.330299999999994
 21
27.1265
 31
0.0
  0
LINE
  5
19F
  8
_________2
 62
     7
 10
71.330299999999994
 20
29.805399999999999
 30
0.0
 11
71.330299999999994
 21
29.553899999999999
 31
0.0
  0
LINE
  5
1A0
  8
_________2
 62
     7
 10
75.041399999999996
 20
28.585899999999999
 30
0.0
 11
80.219399999999979
 21
27.7211
 31
0.0
  0
LINE
  5
1A1
  8
_________2
 62
     7
 10
75.041399999999996
 20
31.024999999999999
 30
0.0
 11
80.219399999999979
 21
31.8904
 31
0.0
  0
LINE
  5
1A2
  8
_________2
 62
     7
 10
80.219399999999979
 20
27.7211
 30
0.0
 11
80.219399999999979
 21
31.8904
 31
0.0
  0
LINE
  5
1A3
  8
_________2
 62
     7
 10
75.041399999999996
 20
28.585899999999999
 30
0.0
 11
75.041399999999996
 21
31.024999999999999
 31
0.0
  0
ARC
  5
1A4
  8
_________2
 62
     7
 10
71.283383999999998
 20
29.758524999999999
 30
0.0
 40
1.267347
 50
2.1211329999999999
 51
87.878856999999996
  0
ARC
  5
1A5
  8
_________2
 62
     7
 10
71.376806999999999
 20
29.758917
 30
0.0
 40
1.2669410000000001
 50
92.104055000000017
 51
177.895915
  0
ARC
  5
1A6
  8
_________2
 62
     7
 10
71.377218999999997
 20
29.852360000000001
 30
0.0
 40
1.2673680000000001
 50
182.12203600000001
 51
267.877993
  0
ARC
  5
1A7
  8
_________2
 62
     7
 10
71.283383999999998
 20
29.852339000000001
 30
0.0
 40
1.267347
 50
272.12114300000002
 51
357.87886700000001
  0
ARC
  5
1A8
  8
_________2
 62
     7
 10
71.249605000000003
 20
29.725460999999999
 30
0.0
 40
2.1664590000000001
 50
2.1154579999999998
 51
87.865593999999987
  0
ARC
  5
1A9
  8
_________2
 62
     7
 10
71.330292
 20
29.805432
 30
0.0
 40
2.0849849999999992
 50
90.0
 51
179.99996999999999
  0
ARC
  5
1AA
  8
_________2
 62
     7
 10
71.409633999999997
 20
29.885489
 30
0.0
 40
2.165807
 50
182.1183979999999
 51
267.90056900000002
  0
ARC
  5
1AB
  8
_________2
 62
     7
 10
71.250302000000005
 20
29.885421000000001
 30
0.0
 40
2.1657630000000001
 50
272.11662699999999
 51
357.88338299999998
  0
TEXT
  5
1AC
  8
_________2
 62
     7
 10
104.605
 20
1.68018
 30
0.0
 40
3.660169999999999
  1
図番
 41
0.5
  0
LINE
  5
1AD
  8
_________2
 62
     7
 10
103.55
 20
5.9094100000000003
 30
0.0
 11
183.55099999999999
 21
5.9094100000000003
 31
0.0
  0
TEXT
  5
1AE
  8
_________2
 62
     7
 10
104.605
 20
11.68
 30
0.0
 40
3.660169999999999
  1
品番
 41
0.5
  0
TEXT
  5
1AF
  8
_________2
 62
     7
 10
104.605
 20
31.8188
 30
0.0
 40
3.660169999999999
  1
名称
 41
0.5
  0
TEXT
  5
1B0
  8
_________2
 62
     7
 10
91.565645833333335
 20
26.822600000000001
 30
0.0
 40
4.3256500000000004
  1
mm
 41
0.5
 72
     1
 11
93.367999999999995
 21
26.822600000000001
 31
0.0
  0
TEXT
  5
1B1
  8
_________2
 62
     7
 10
85.644099999999995
 20
31.8188
 30
0.0
 40
3.660169999999999
  1
単位
 41
0.5
  0
TEXT
  5
1B2
  8
_________2
 62
     7
 10
85.644099999999995
 20
19.4115
 30
0.0
 40
3.660169999999999
  1
尺度
 41
0.5
  0
TEXT
  5
1B3
  8
_________2
 62
     7
 10
89.382120416666666
 20
13.2186
 30
0.0
 40
4.3256500000000004
  1
1 ： 10
 41
0.5
 72
     1
 11
93.960099999999997
 21
13.2186
 31
0.0
  0
TEXT
  5
1B4
  8
_________2
 62
     7
 10
132.09812458333329
 20
9.1085499999999993
 30
0.0
 40
4.6583899999999989
  1
GG1107S-WHI
 41
0.5
 72
     1
 11
143.55000000000001
 21
9.1085499999999993
 31
0.0
  0
TEXT
  5
1B5
  8
_________2
 62
     7
 10
136.85651458333331
 20
-0.8919409999999999
 30
0.0
 40
4.6583899999999989
  1
GG1107S
 41
0.5
 72
     1
 11
143.65000000000001
 21
-0.8919409999999999
 31
0.0
  0
TEXT
  5
1B6
  8
_________2
 62
     7
 10
109.179
 20
24.226400000000002
 30
0.0
 40
4.6583899999999989
  1
ジョルジオ カルメル カウンター式洗面器
 41
0.5
  0
TEXT
  5
1B7
  8
_________2
 62
     7
 10
39.078780833333333
 20
13.6037
 30
0.0
 40
4.3256500000000004
  1
早川
 41
0.5
 72
     1
 11
41.31369999999999
 21
13.6037
 31
0.0
  0
TEXT
  5
1B8
  8
_________2
 62
     7
 10
20.432686666666669
 20
13.6037
 30
0.0
 40
4.3256500000000004
  1
石原
 41
0.5
 72
     1
 11
22.739699999999999
 21
13.6037
 31
0.0
  0
TEXT
  5
1B9
  8
_________2
 62
     7
 10
67.786000000000001
 20
13.2186
 30
0.0
 40
4.3256500000000004
  1
15.05.18
 41
0.5
  0
TEXT
  5
1BA
  8
_________2
 62
     7
 10
66.593299999999999
 20
19.4115
 30
0.0
 40
3.660169999999999
  1
日付
 41
0.5
  0
TEXT
  5
1BB
  8
_________2
 62
     7
 10
29.639500000000002
 20
19.4115
 30
0.0
 40
3.660169999999999
  1
検図
 41
0.5
  0
TEXT
  5
1BC
  8
_________2
 62
     7
 10
18.021899999999999
 20
5.2121199999999988
 30
0.0
 40
3.660169999999999
  1
備考
 41
0.5
  0
TEXT
  5
1BD
  8
_________2
 62
     7
 10
18.021899999999999
 20
19.4115
 30
0.0
 40
3.660169999999999
  1
製図
 41
0.5
  0
TEXT
  5
1BE
  8
_________2
 62
     7
 10
20.595730666666679
 20
27.9375
 30
0.0
 40
5.3238799999999991
  1
セラトレーディング株式会社
 41
0.5
 72
     1
 11
41.181399999999989
 21
27.9375
 31
0.0
  0
LINE
  5
1BF
  8
_________2
 62
     7
 10
183.55099999999999
 20
-4.0903900000000002
 30
0.0
 11
17.049700000000001
 21
-4.0903900000000002
 31
0.0
  0
LINE
  5
1C0
  8
_________2
 62
     7
 10
17.049700000000001
 20
-4.0903900000000002
 30
0.0
 11
17.049700000000001
 21
258.911
 31
0.0
  0
LINE
  5
1C1
  8
_________2
 62
     7
 10
17.049700000000001
 20
258.911
 30
0.0
 11
183.55099999999999
 21
258.911
 31
0.0
  0
LINE
  5
1C2
  8
_________2
 62
     7
 10
183.55099999999999
 20
258.911
 30
0.0
 11
183.55099999999999
 21
-4.0903900000000002
 31
0.0
  0
LINE
  5
1C3
  8
_________2
 62
     7
 10
65.5501
 20
9.4096499999999992
 30
0.0
 11
65.5501
 21
35.909500000000001
 31
0.0
  0
LINE
  5
1C4
  8
_________2
 62
     7
 10
84.550600000000017
 20
9.4096499999999992
 30
0.0
 11
84.550600000000017
 21
35.909500000000001
 31
0.0
  0
LINE
  5
1C5
  8
_________2
 62
     7
 10
103.55
 20
-4.0903900000000002
 30
0.0
 11
103.55
 21
35.909500000000001
 31
0.0
  0
LINE
  5
1C6
  8
_________2
 62
     7
 10
28.5502
 20
9.4096499999999992
 30
0.0
 11
28.5502
 21
23.4099
 31
0.0
  0
LINE
  5
1C7
  8
_________2
 62
     7
 10
17.049700000000001
 20
9.4096499999999992
 30
0.0
 11
103.55
 21
9.4096499999999992
 31
0.0
  0
LINE
  5
1C8
  8
_________2
 62
     7
 10
17.049700000000001
 20
23.4099
 30
0.0
 11
103.55
 21
23.4099
 31
0.0
  0
LINE
  5
1C9
  8
_________2
 62
     7
 10
103.55
 20
15.9092
 30
0.0
 11
183.55099999999999
 21
15.9092
 31
0.0
  0
LINE
  5
1CA
  8
_________2
 62
     7
 10
17.049700000000001
 20
35.909500000000001
 30
0.0
 11
183.55099999999999
 21
35.909500000000001
 31
0.0
  0
ARC
  5
1ED
  8
0
 62
     7
 10
140.86000000000001
 20
180.898
 30
0.0
 40
18.5
 50
73.761967998544108
 51
106.23803200145581
  0
ARC
  5
1F0
  8
0
 62
     7
 10
138.31
 20
173.798
 30
0.0
 40
25.0
 50
96.022849489797906
 51
141.56848433008611
  0
ARC
  5
1F1
  8
0
 62
     7
 10
125.66
 20
180.798
 30
0.0
 40
11.0
 50
129.0755596452766
 51
187.31202192626691
  0
ARC
  5
1F2
  8
0
 62
     7
 10
143.40999999999991
 20
173.798
 30
0.0
 40
25.0
 50
38.431515669913971
 51
83.977150510203117
  0
ARC
  5
1F3
  8
0
 62
     7
 10
156.06
 20
180.798
 30
0.0
 40
11.0
 50
352.68797807373312
 51
50.924440354723288
  0
ARC
  5
1F4
  8
0
 62
     7
 10
140.86000000000001
 20
177.898
 30
0.0
 40
18.5
 50
253.76196799854429
 51
286.23803200145579
  0
ARC
  5
1F5
  8
0
 62
     7
 10
138.31
 20
184.99799999999999
 30
0.0
 40
25.0
 50
218.4315156699144
 51
263.97715051020202
  0
ARC
  5
1F6
  8
0
 62
     7
 10
125.66
 20
177.99799999999999
 30
0.0
 40
11.0
 50
172.68797807373309
 51
230.92444035472329
  0
ARC
  5
1F7
  8
0
 62
     7
 10
143.40999999999991
 20
184.99799999999999
 30
0.0
 40
25.0
 50
276.02284948979701
 51
321.5684843300856
  0
ARC
  5
1F8
  8
0
 62
     7
 10
156.06
 20
177.99799999999999
 30
0.0
 40
11.0
 50
309.0755596452766
 51
7.3120219262668691
  0
ENDSEC
  0
EOF
