  0
SECTION
  2
HEADER
  9
$ACADVER
  1
AC1009
  9
$INSBASE
 10
0.0
 20
0.0
 30
0.0
  9
$EXTMIN
 10
0.238058
 20
0.4482100000000001
 30
0.0
  9
$EXTMAX
 10
210.24000000000001
 20
297.44999999999999
 30
0.0
  9
$LIMMIN
 10
0.0
 20
0.0
  9
$LIMMAX
 10
12.0
 20
9.0
  9
$ORTHOMODE
 70
     0
  9
$REGENMODE
 70
     1
  9
$FILLMODE
 70
     1
  9
$QTEXTMODE
 70
     0
  9
$MIRRTEXT
 70
     1
  9
$DRAGMODE
 70
     2
  9
$LTSCALE
 40
1.0
  9
$OSMODE
 70
    37
  9
$ATTMODE
 70
     1
  9
$TEXTSIZE
 40
0.0
  9
$TRACEWID
 40
0.05
  9
$TEXTSTYLE
  7
STANDARD
  9
$CLAYER
  8
0
  9
$CELTYPE
  6
CONTINUOUS
  9
$CECOLOR
 62
   256
  9
$DIMSCALE
 40
1.0
  9
$DIMASZ
 40
0.18
  9
$DIMEXO
 40
0.0625
  9
$DIMDLI
 40
0.38
  9
$DIMRND
 40
0.0
  9
$DIMDLE
 40
0.0
  9
$DIMEXE
 40
0.18
  9
$DIMTP
 40
0.0
  9
$DIMTM
 40
0.0
  9
$DIMTXT
 40
0.18
  9
$DIMCEN
 40
0.09
  9
$DIMTSZ
 40
0.0
  9
$DIMTOL
 70
     0
  9
$DIMLIM
 70
     0
  9
$DIMTIH
 70
     1
  9
$DIMTOH
 70
     1
  9
$DIMSE1
 70
     0
  9
$DIMSE2
 70
     0
  9
$DIMTAD
 70
     0
  9
$DIMZIN
 70
     0
  9
$DIMBLK
  1

  9
$DIMASO
 70
     1
  9
$DIMSHO
 70
     1
  9
$DIMPOST
  1

  9
$DIMAPOST
  1

  9
$DIMALT
 70
     0
  9
$DIMALTD
 70
     2
  9
$DIMALTF
 40
25.399999999999999
  9
$DIMLFAC
 40
1.0
  9
$DIMTOFL
 70
     0
  9
$DIMTVP
 40
0.0
  9
$DIMTIX
 70
     0
  9
$DIMSOXD
 70
     0
  9
$DIMSAH
 70
     0
  9
$DIMBLK1
  1

  9
$DIMBLK2
  1

  9
$DIMSTYLE
  2
STANDARD
  9
$DIMCLRD
 70
     0
  9
$DIMCLRE
 70
     0
  9
$DIMCLRT
 70
     0
  9
$DIMTFAC
 40
1.0
  9
$DIMGAP
 40
0.09
  9
$LUNITS
 70
     2
  9
$LUPREC
 70
     4
  9
$SKETCHINC
 40
0.1
  9
$FILLETRAD
 40
0.0
  9
$AUNITS
 70
     0
  9
$AUPREC
 70
     0
  9
$MENU
  1
.
  9
$ELEVATION
 40
0.0
  9
$PELEVATION
 40
0.0
  9
$THICKNESS
 40
0.0
  9
$LIMCHECK
 70
     0
  9
$BLIPMODE
 70
     0
  9
$CHAMFERA
 40
0.0
  9
$CHAMFERB
 40
0.0
  9
$SKPOLY
 70
     0
  9
$TDCREATE
 40
2444972.375
  9
$TDUPDATE
 40
2457599.2487048502
  9
$TDINDWG
 40
0.0000331713
  9
$TDUSRTIMER
 40
0.0000331713
  9
$USRTIMER
 70
     1
  9
$ANGBASE
 50
0.0
  9
$ANGDIR
 70
     0
  9
$PDMODE
 70
     0
  9
$PDSIZE
 40
0.0
  9
$PLINEWID
 40
0.0
  9
$COORDS
 70
     1
  9
$SPLFRAME
 70
     0
  9
$SPLINETYPE
 70
     6
  9
$SPLINESEGS
 70
     8
  9
$ATTDIA
 70
     1
  9
$ATTREQ
 70
     1
  9
$HANDLING
 70
     1
  9
$HANDSEED
  5
1F4
  9
$SURFTAB1
 70
     6
  9
$SURFTAB2
 70
     6
  9
$SURFTYPE
 70
     6
  9
$SURFU
 70
     6
  9
$SURFV
 70
     6
  9
$UCSNAME
  2

  9
$UCSORG
 10
0.0
 20
0.0
 30
0.0
  9
$UCSXDIR
 10
1.0
 20
0.0
 30
0.0
  9
$UCSYDIR
 10
0.0
 20
1.0
 30
0.0
  9
$PUCSNAME
  2

  9
$PUCSORG
 10
0.0
 20
0.0
 30
0.0
  9
$PUCSXDIR
 10
1.0
 20
0.0
 30
0.0
  9
$PUCSYDIR
 10
0.0
 20
1.0
 30
0.0
  9
$USERI1
 70
     0
  9
$USERI2
 70
     0
  9
$USERI3
 70
     0
  9
$USERI4
 70
     0
  9
$USERI5
 70
     0
  9
$USERR1
 40
0.0
  9
$USERR2
 40
0.0
  9
$USERR3
 40
0.0
  9
$USERR4
 40
0.0
  9
$USERR5
 40
0.0
  9
$WORLDVIEW
 70
     1
  9
$SHADEDGE
 70
     3
  9
$SHADEDIF
 70
    70
  9
$TILEMODE
 70
     1
  9
$MAXACTVP
 70
    48
  9
$PLIMCHECK
 70
     0
  9
$PEXTMIN
 10
1.0000000000000000E+020
 20
1.0000000000000000E+020
 30
1.0000000000000000E+020
  9
$PEXTMAX
 10
-1.0000000000000000E+020
 20
-1.0000000000000000E+020
 30
-1.0000000000000000E+020
  9
$PLIMMIN
 10
0.0
 20
0.0
  9
$PLIMMAX
 10
12.0
 20
9.0
  9
$UNITMODE
 70
     0
  9
$VISRETAIN
 70
     1
  9
$PLINEGEN
 70
     0
  9
$PSLTSCALE
 70
     1
  0
ENDSEC
  0
SECTION
  2
TABLES
  0
TABLE
  2
VPORT
 70
     1
  0
VPORT
  2
*ACTIVE
 70
     0
 10
0.0
 20
0.0
 11
1.0
 21
1.0
 12
161.19474071264131
 22
148.72499999999991
 13
0.0
 23
0.0
 14
1.0
 24
1.0
 15
0.0
 25
0.0
 16
0.0
 26
0.0
 36
1.0
 17
0.0
 27
0.0
 37
0.0
 40
283.32627057981392
 41
2.0381526104417671
 42
50.0
 43
0.0
 44
0.0
 50
0.0
 51
0.0
 71
     0
 72
   100
 73
     1
 74
     1
 75
     0
 76
     0
 77
     0
 78
     0
  0
ENDTAB
  0
TABLE
  2
LTYPE
 70
     3
  0
LTYPE
  2
CONTINUOUS
 70
     0
  3
Solid line
 72
    65
 73
     0
 40
0.0
  0
LTYPE
  2
AIGENLINE001
 70
     0
  3
generate AI->DXF Converter
 72
    65
 73
     2
 40
1.5522299999999991
 49
0.776115
 49
-0.776115
  0
LTYPE
  2
AIGENLINE002
 70
     0
  3
generate AI->DXF Converter
 72
    65
 73
     4
 40
5.8561449999999988
 49
3.5278
 49
-0.776115
 49
0.776115
 49
-0.776115
  0
ENDTAB
  0
TABLE
  2
LAYER
 70
     2
  0
LAYER
  2
0
 70
     0
 62
     7
  6
CONTINUOUS
  0
LAYER
  2
_________2
 70
     0
 62
     7
  6
CONTINUOUS
  0
ENDTAB
  0
TABLE
  2
STYLE
 70
     1
  0
STYLE
  2
STANDARD
 70
     0
 40
0.0
 41
0.0
 50
0.0
 71
     0
 42
0.0
  3
TXT
  4
EXTFONT.SHX
  0
ENDTAB
  0
TABLE
  2
VIEW
 70
     0
  0
ENDTAB
  0
TABLE
  2
UCS
 70
     0
  0
ENDTAB
  0
TABLE
  2
APPID
 70
     3
  0
APPID
  2
ACAD
 70
     0
  0
APPID
  2
ACAD_NAV_VCDISPLAY
 70
     0
  0
APPID
  2
ACAD_MLEADERVER
 70
     0
  0
ENDTAB
  0
TABLE
  2
DIMSTYLE
 70
     1
  0
DIMSTYLE
  2
STANDARD
 70
     0
  3

  4

  5

  6

  7

 40
1.0
 41
0.18
 42
0.0625
 43
0.38
 44
0.18
 45
0.0
 46
0.0
 47
0.0
 48
0.0
140
0.18
141
0.09
142
0.0
143
25.399999999999999
144
1.0
145
0.0
146
1.0
147
0.09
 71
     0
 72
     0
 73
     1
 74
     1
 75
     0
 76
     0
 77
     0
 78
     0
170
     0
171
     2
172
     0
173
     0
174
     0
175
     0
176
     0
177
     0
178
     0
  0
ENDTAB
  0
ENDSEC
  0
SECTION
  2
BLOCKS
  0
BLOCK
  8
0
  2
$MODEL_SPACE
 70
     0
 10
0.0
 20
0.0
 30
0.0
  3
$MODEL_SPACE
  1

  0
ENDBLK
  5
1A
  8
0
  0
BLOCK
 67
     1
  8
0
  2
$PAPER_SPACE
 70
     0
 10
0.0
 20
0.0
 30
0.0
  3
$PAPER_SPACE
  1

  0
ENDBLK
  5
17
 67
     1
  8
0
  0
ENDSEC
  0
SECTION
  2
ENTITIES
  0
TEXT
  5
23
  8
0
 62
     7
 10
86.950779999999995
 20
239.239
 30
0.0
 40
3.0923400000000001
  1
%%c46
 41
0.5
 72
     2
 11
91.073899999999995
 21
239.239
 31
0.0
  0
TEXT
  5
24
  8
0
 62
     7
 10
67.339102499999996
 20
89.755300000000005
 30
0.0
 40
3.0923400000000001
  1
%%c220
 41
0.5
 72
     1
 11
70.044899999999998
 21
89.755300000000005
 31
0.0
  0
TEXT
  5
25
  8
0
 62
     7
 10
67.210255000000004
 20
158.316
 30
0.0
 40
3.0923400000000001
  1
%%c284
 41
0.5
 72
     1
 11
70.044899999999998
 21
158.316
 31
0.0
  0
TEXT
  5
26
  8
0
 62
     7
 10
148.04118921632119
 20
204.3870424603162
 30
0.0
 40
3.0923400000000001
  1
%%c265
 50
2.06128
 41
0.5
 72
     1
 11
150.874
 21
204.489
 31
0.0
  0
TEXT
  5
27
  8
0
 62
     7
 10
67.210255000000004
 20
168.285
 30
0.0
 40
3.0923400000000001
  1
%%c246
 41
0.5
 72
     1
 11
70.044899999999998
 21
168.285
 31
0.0
  0
TEXT
  5
28
  8
0
 62
     7
 10
112.916
 20
127.01913499999991
 30
0.0
 40
3.0923400000000001
  1
10
 50
90.0
 41
0.5
 72
     2
 11
112.916
 21
128.82299999999989
 31
0.0
  0
TEXT
  5
29
  8
0
 62
     7
 10
105.89400000000001
 20
109.55498249999999
 30
0.0
 40
3.0923400000000001
  1
105
 50
90.0
 41
0.5
 72
     1
 11
105.89400000000001
 21
111.23
 31
0.0
  0
TEXT
  5
2A
  8
0
 62
     7
 10
112.916
 20
109.31267750000001
 30
0.0
 40
3.0923400000000001
  1
110
 50
90.0
 41
0.5
 72
     1
 11
112.916
 21
110.73
 31
0.0
  0
TEXT
  5
2B
  8
0
 62
     7
 10
120.553
 20
110.0119825
 30
0.0
 40
3.0923400000000001
  1
120
 50
90.0
 41
0.5
 72
     1
 11
120.553
 21
111.687
 31
0.0
  0
TEXT
  5
2C
  8
0
 62
     7
 10
135.18575999999999
 20
172.86500000000001
 30
0.0
 40
3.0923400000000001
  1
カウンター切込寸法
 41
0.5
 72
     1
 11
143.43199999999999
 21
172.86500000000001
 31
0.0
  0
LINE
  5
2D
  8
0
  6
AIGENLINE001
 62
     7
 10
49.142499999999998
 20
99.729900000000015
 30
0.0
 11
49.142499999999998
 21
100.974
 31
0.0
  0
LINE
  5
2E
  8
0
  6
AIGENLINE001
 62
     7
 10
49.142499999999998
 20
100.974
 30
0.0
 11
50.052199999999999
 21
101.883
 31
0.0
  0
LINE
  5
2F
  8
0
  6
AIGENLINE001
 62
     7
 10
50.052199999999999
 20
101.883
 30
0.0
 11
63.976999999999997
 21
101.883
 31
0.0
  0
ARC
  5
30
  8
0
  6
AIGENLINE001
 62
     7
 10
63.611001999999999
 20
100.704904
 30
0.0
 40
1.234113
 50
1.1680369999999991
 51
72.746791000000002
  0
LINE
  5
31
  8
0
  6
AIGENLINE001
 62
     7
 10
64.844899999999996
 20
100.73
 30
0.0
 11
75.245000000000005
 21
100.73
 31
0.0
  0
ARC
  5
32
  8
0
  6
AIGENLINE001
 62
     7
 10
76.479512999999983
 20
100.70439399999999
 30
0.0
 40
1.2348019999999991
 50
107.276212
 51
178.808921
  0
LINE
  5
33
  8
0
  6
AIGENLINE001
 62
     7
 10
76.112799999999993
 20
101.883
 30
0.0
 11
90.037599999999983
 21
101.883
 31
0.0
  0
LINE
  5
34
  8
0
  6
AIGENLINE001
 62
     7
 10
90.037599999999983
 20
101.883
 30
0.0
 11
90.947299999999998
 21
100.974
 31
0.0
  0
LINE
  5
35
  8
0
  6
AIGENLINE001
 62
     7
 10
90.947299999999998
 20
100.974
 30
0.0
 11
90.947299999999998
 21
99.729900000000015
 31
0.0
  0
LINE
  5
36
  8
0
 62
     7
 10
48.044699999999999
 20
99.729900000000015
 30
0.0
 11
44.044600000000003
 21
121.73
 31
0.0
  0
LINE
  5
37
  8
0
 62
     7
 10
122.078
 20
121.51900000000001
 30
0.0
 11
121.486
 21
123.73
 31
0.0
  0
LINE
  5
38
  8
0
 62
     7
 10
121.486
 20
123.73
 30
0.0
 11
120.89400000000001
 21
121.51900000000001
 31
0.0
  0
LINE
  5
39
  8
0
 62
     7
 10
120.89400000000001
 20
121.51900000000001
 30
0.0
 11
122.078
 21
121.51900000000001
 31
0.0
  0
LINE
  5
3A
  8
0
 62
     7
 10
106.001
 20
102.941
 30
0.0
 11
106.59399999999999
 21
100.73
 31
0.0
  0
LINE
  5
3B
  8
0
 62
     7
 10
106.59399999999999
 20
100.73
 30
0.0
 11
107.18600000000001
 21
102.941
 31
0.0
  0
LINE
  5
3C
  8
0
 62
     7
 10
107.18600000000001
 20
102.941
 30
0.0
 11
106.001
 21
102.941
 31
0.0
  0
LINE
  5
3D
  8
0
 62
     7
 10
107.18600000000001
 20
119.51900000000001
 30
0.0
 11
106.59399999999999
 21
121.73
 31
0.0
  0
LINE
  5
3E
  8
0
 62
     7
 10
106.59399999999999
 20
121.73
 30
0.0
 11
106.001
 21
119.51900000000001
 31
0.0
  0
LINE
  5
3F
  8
0
 62
     7
 10
106.001
 20
119.51900000000001
 30
0.0
 11
107.18600000000001
 21
119.51900000000001
 31
0.0
  0
LINE
  5
40
  8
0
 62
     7
 10
113.024
 20
101.941
 30
0.0
 11
113.616
 21
99.729900000000015
 31
0.0
  0
LINE
  5
41
  8
0
 62
     7
 10
113.616
 20
99.729900000000015
 30
0.0
 11
114.208
 21
101.941
 31
0.0
  0
LINE
  5
42
  8
0
 62
     7
 10
114.208
 20
101.941
 30
0.0
 11
113.024
 21
101.941
 31
0.0
  0
LINE
  5
43
  8
0
 62
     7
 10
120.908
 20
101.941
 30
0.0
 11
121.501
 21
99.729900000000015
 31
0.0
  0
LINE
  5
44
  8
0
 62
     7
 10
121.501
 20
99.729900000000015
 30
0.0
 11
122.093
 21
101.941
 31
0.0
  0
LINE
  5
45
  8
0
 62
     7
 10
122.093
 20
101.941
 30
0.0
 11
120.908
 21
101.941
 31
0.0
  0
LINE
  5
46
  8
0
 62
     7
 10
121.49299999999999
 20
123.73
 30
0.0
 11
121.49299999999999
 21
99.729900000000015
 31
0.0
  0
LINE
  5
47
  8
0
 62
     7
 10
92.745099999999994
 20
99.729900000000015
 30
0.0
 11
122.203
 21
99.729900000000015
 31
0.0
  0
LINE
  5
48
  8
0
 62
     7
 10
122.203
 20
123.73
 30
0.0
 11
99.303600000000003
 21
123.73
 31
0.0
  0
LINE
  5
49
  8
0
 62
     7
 10
114.20099999999999
 20
119.51900000000001
 30
0.0
 11
113.60899999999999
 21
121.73
 31
0.0
  0
LINE
  5
4A
  8
0
 62
     7
 10
113.60899999999999
 20
121.73
 30
0.0
 11
113.017
 21
119.51900000000001
 31
0.0
  0
LINE
  5
4B
  8
0
 62
     7
 10
113.017
 20
119.51900000000001
 30
0.0
 11
114.20099999999999
 21
119.51900000000001
 31
0.0
  0
LINE
  5
4C
  8
0
 62
     7
 10
113.03100000000001
 20
125.941
 30
0.0
 11
113.623
 21
123.73
 31
0.0
  0
LINE
  5
4D
  8
0
 62
     7
 10
113.623
 20
123.73
 30
0.0
 11
114.21599999999999
 21
125.941
 31
0.0
  0
LINE
  5
4E
  8
0
 62
     7
 10
114.21599999999999
 20
125.941
 30
0.0
 11
113.03100000000001
 21
125.941
 31
0.0
  0
LINE
  5
4F
  8
0
 62
     7
 10
113.616
 20
128.82299999999989
 30
0.0
 11
113.616
 21
99.729900000000015
 31
0.0
  0
LINE
  5
50
  8
0
 62
     7
 10
107.294
 20
100.73
 30
0.0
 11
75.944999999999993
 21
100.73
 31
0.0
  0
LINE
  5
51
  8
0
 62
     7
 10
114.327
 20
121.73
 30
0.0
 11
99.625699999999995
 21
121.73
 31
0.0
  0
LINE
  5
52
  8
0
 62
     7
 10
92.045100000000005
 20
99.729900000000015
 30
0.0
 11
96.045199999999994
 21
121.73
 31
0.0
  0
LINE
  5
53
  8
0
 62
     7
 10
92.045100000000005
 20
99.729900000000015
 30
0.0
 11
48.044699999999999
 21
99.729900000000015
 31
0.0
  0
LINE
  5
54
  8
0
  6
AIGENLINE002
 62
     7
 10
70.044899999999998
 20
95.850099999999998
 30
0.0
 11
70.044899999999998
 21
127.596
 31
0.0
  0
LINE
  5
55
  8
0
 62
     7
 10
96.845200000000006
 20
123.73
 30
0.0
 11
43.244700000000002
 21
123.73
 31
0.0
  0
LINE
  5
56
  8
0
 62
     7
 10
41.6447
 20
121.73
 30
0.0
 11
41.6447
 21
122.13
 31
0.0
  0
ARC
  5
57
  8
0
 62
     7
 10
43.305844
 20
122.06891400000001
 30
0.0
 40
1.6622209999999991
 50
92.109369000000001
 51
177.890601
  0
LINE
  5
58
  8
0
 62
     7
 10
98.445099999999996
 20
121.73
 30
0.0
 11
98.445099999999996
 21
122.13
 31
0.0
  0
ARC
  5
59
  8
0
 62
     7
 10
96.783981999999995
 20
122.068904
 30
0.0
 40
1.662231999999999
 50
2.109726999999999
 51
87.890263000000004
  0
LINE
  5
5A
  8
0
 62
     7
 10
98.445099999999996
 20
121.73
 30
0.0
 11
41.6447
 21
121.73
 31
0.0
  0
LINE
  5
5B
  8
0
 62
     7
 10
68.770700000000005
 20
211.91999999999999
 30
0.0
 11
66.788899999999984
 21
213.06399999999999
 31
0.0
  0
LINE
  5
5C
  8
0
 62
     7
 10
66.788899999999984
 20
213.06399999999999
 30
0.0
 11
67.933099999999996
 21
211.083
 31
0.0
  0
LINE
  5
5D
  8
0
 62
     7
 10
67.933099999999996
 20
211.083
 30
0.0
 11
68.770700000000005
 21
211.91999999999999
 31
0.0
  0
LINE
  5
5E
  8
0
 62
     7
 10
71.318799999999996
 20
207.71100000000001
 30
0.0
 11
73.300600000000003
 21
206.56700000000001
 31
0.0
  0
LINE
  5
5F
  8
0
 62
     7
 10
73.300600000000003
 20
206.56700000000001
 30
0.0
 11
72.156400000000005
 21
208.54900000000001
 31
0.0
  0
LINE
  5
60
  8
0
 62
     7
 10
72.156400000000005
 20
208.54900000000001
 30
0.0
 11
71.318799999999996
 21
207.71100000000001
 31
0.0
  0
LINE
  5
61
  8
0
 62
     7
 10
66.788899999999984
 20
213.06399999999999
 30
0.0
 11
73.300600000000003
 21
206.56700000000001
 31
0.0
  0
LINE
  5
62
  8
0
 62
     7
 10
127.386
 20
227.41
 30
0.0
 11
125.405
 21
228.55500000000001
 31
0.0
  0
LINE
  5
63
  8
0
 62
     7
 10
125.405
 20
228.55500000000001
 30
0.0
 11
126.54900000000001
 21
226.57300000000001
 31
0.0
  0
LINE
  5
64
  8
0
 62
     7
 10
126.54900000000001
 20
226.57300000000001
 30
0.0
 11
127.386
 21
227.41
 31
0.0
  0
LINE
  5
65
  8
0
 62
     7
 10
160.90000000000001
 20
192.22200000000001
 30
0.0
 11
162.881
 21
191.078
 31
0.0
  0
LINE
  5
66
  8
0
 62
     7
 10
162.881
 20
191.078
 30
0.0
 11
161.73699999999999
 21
193.06
 31
0.0
  0
LINE
  5
67
  8
0
 62
     7
 10
161.73699999999999
 20
193.06
 30
0.0
 11
160.90000000000001
 21
192.22200000000001
 31
0.0
  0
LINE
  5
68
  8
0
 62
     7
 10
125.405
 20
228.55500000000001
 30
0.0
 11
162.881
 21
191.078
 31
0.0
  0
ARC
  5
69
  8
0
 62
     7
 10
144.143013
 20
209.81625
 30
0.0
 40
26.500191000000001
 50
0.00001
 51
89.999980000000008
  0
ARC
  5
6A
  8
0
 62
     7
 10
144.143022
 20
209.81625
 30
0.0
 40
26.500191000000001
 50
90.0
 51
179.99996999999999
  0
ARC
  5
6B
  8
0
 62
     7
 10
144.143013
 20
209.81625
 30
0.0
 40
26.500181999999999
 50
179.99996999999999
 51
270.00002000000001
  0
ARC
  5
6C
  8
0
 62
     7
 10
144.143013
 20
209.816259
 30
0.0
 40
26.500191000000001
 50
270.00002000000001
 51
359.99999000000003
  0
LINE
  5
6D
  8
0
  6
AIGENLINE002
 62
     7
 10
176.25700000000001
 20
209.816
 30
0.0
 11
111.47499999999999
 21
209.816
 31
0.0
  0
LINE
  5
6E
  8
0
  6
AIGENLINE002
 62
     7
 10
144.143
 20
178.28200000000001
 30
0.0
 11
144.143
 21
241.33600000000001
 31
0.0
  0
LINE
  5
6F
  8
0
 62
     7
 10
89.834699999999998
 20
88.210800000000006
 30
0.0
 11
92.045100000000005
 21
88.802700000000016
 31
0.0
  0
LINE
  5
70
  8
0
 62
     7
 10
92.045100000000005
 20
88.802700000000016
 30
0.0
 11
89.834699999999998
 21
89.395300000000006
 31
0.0
  0
LINE
  5
71
  8
0
 62
     7
 10
89.834699999999998
 20
89.395300000000006
 30
0.0
 11
89.834699999999998
 21
88.210800000000006
 31
0.0
  0
LINE
  5
72
  8
0
 62
     7
 10
50.255099999999999
 20
89.380799999999994
 30
0.0
 11
48.044699999999999
 21
88.788600000000017
 31
0.0
  0
LINE
  5
73
  8
0
 62
     7
 10
48.044699999999999
 20
88.788600000000017
 30
0.0
 11
50.255099999999999
 21
88.195999999999984
 31
0.0
  0
LINE
  5
74
  8
0
 62
     7
 10
50.255099999999999
 20
88.195999999999984
 30
0.0
 11
50.255099999999999
 21
89.380799999999994
 31
0.0
  0
LINE
  5
75
  8
0
 62
     7
 10
92.045100000000005
 20
88.7958
 30
0.0
 11
48.044699999999999
 21
88.7958
 31
0.0
  0
LINE
  5
76
  8
0
 62
     7
 10
106.59399999999999
 20
121.73
 30
0.0
 11
106.59399999999999
 21
100.73
 31
0.0
  0
LINE
  5
77
  8
0
 62
     7
 10
48.044699999999999
 20
99.029899999999998
 30
0.0
 11
48.044699999999999
 21
87.943499999999986
 31
0.0
  0
LINE
  5
78
  8
0
 62
     7
 10
92.045100000000005
 20
99.029899999999998
 30
0.0
 11
92.045100000000005
 21
87.943499999999986
 31
0.0
  0
LINE
  5
79
  8
0
 62
     7
 10
96.234700000000004
 20
156.77099999999999
 30
0.0
 11
98.445099999999996
 21
157.363
 31
0.0
  0
LINE
  5
7A
  8
0
 62
     7
 10
98.445099999999996
 20
157.363
 30
0.0
 11
96.234700000000004
 21
157.95599999999999
 31
0.0
  0
LINE
  5
7B
  8
0
 62
     7
 10
96.234700000000004
 20
157.95599999999999
 30
0.0
 11
96.234700000000004
 21
156.77099999999999
 31
0.0
  0
LINE
  5
7C
  8
0
 62
     7
 10
43.8551
 20
157.941
 30
0.0
 11
41.6447
 21
157.34899999999999
 31
0.0
  0
LINE
  5
7D
  8
0
 62
     7
 10
41.6447
 20
157.34899999999999
 30
0.0
 11
43.8551
 21
156.756
 31
0.0
  0
LINE
  5
7E
  8
0
 62
     7
 10
43.8551
 20
156.756
 30
0.0
 11
43.8551
 21
157.941
 31
0.0
  0
LINE
  5
7F
  8
0
 62
     7
 10
98.445099999999996
 20
157.35599999999999
 30
0.0
 11
41.6447
 21
157.35599999999999
 31
0.0
  0
LINE
  5
80
  8
0
 62
     7
 10
41.6447
 20
200.96299999999999
 30
0.0
 11
41.6447
 21
156.50399999999999
 31
0.0
  0
LINE
  5
81
  8
0
 62
     7
 10
98.445099999999996
 20
200.96299999999999
 30
0.0
 11
98.445099999999996
 21
156.50399999999999
 31
0.0
  0
LINE
  5
82
  8
0
 62
     7
 10
84.422100000000015
 20
238.53899999999999
 30
0.0
 11
70.758600000000001
 21
209.09899999999999
 31
0.0
  0
LINE
  5
83
  8
0
 62
     7
 10
47.65509999999999
 20
167.69
 30
0.0
 11
45.44469999999999
 21
167.09800000000001
 31
0.0
  0
LINE
  5
84
  8
0
 62
     7
 10
45.44469999999999
 20
167.09800000000001
 30
0.0
 11
47.65509999999999
 21
166.50599999999989
 31
0.0
  0
LINE
  5
85
  8
0
 62
     7
 10
47.65509999999999
 20
166.50599999999989
 30
0.0
 11
47.65509999999999
 21
167.69
 31
0.0
  0
LINE
  5
86
  8
0
 62
     7
 10
92.434700000000007
 20
166.52000000000001
 30
0.0
 11
94.645099999999999
 21
167.113
 31
0.0
  0
LINE
  5
87
  8
0
 62
     7
 10
94.645099999999999
 20
167.113
 30
0.0
 11
92.434700000000007
 21
167.70500000000001
 31
0.0
  0
LINE
  5
88
  8
0
 62
     7
 10
92.434700000000007
 20
167.70500000000001
 30
0.0
 11
92.434700000000007
 21
166.52000000000001
 31
0.0
  0
LINE
  5
89
  8
0
 62
     7
 10
84.422100000000015
 20
238.53899999999999
 30
0.0
 11
91.073899999999995
 21
238.53899999999999
 31
0.0
  0
LINE
  5
8A
  8
0
 62
     7
 10
45.44469999999999
 20
167.10499999999999
 30
0.0
 11
94.645099999999999
 21
167.10499999999999
 31
0.0
  0
LINE
  5
8B
  8
0
 62
     7
 10
45.44469999999999
 20
205.33799999999999
 30
0.0
 11
45.44469999999999
 21
166.25299999999999
 31
0.0
  0
LINE
  5
8C
  8
0
 62
     7
 10
94.645099999999999
 20
205.33799999999999
 30
0.0
 11
94.645099999999999
 21
166.25299999999999
 31
0.0
  0
LINE
  5
8D
  8
0
 62
     7
 10
67.811800000000005
 20
201.482
 30
0.0
 11
63.884999999999998
 21
186.827
 31
0.0
  0
LINE
  5
8E
  8
0
 62
     7
 10
63.943600000000004
 20
203.715
 30
0.0
 11
53.215499999999999
 21
192.98699999999999
 31
0.0
  0
LINE
  5
8F
  8
0
 62
     7
 10
61.71050000000001
 20
207.583
 30
0.0
 11
47.055700000000002
 21
203.65600000000001
 31
0.0
  0
LINE
  5
90
  8
0
 62
     7
 10
61.71050000000001
 20
212.04900000000001
 30
0.0
 11
47.055700000000002
 21
215.976
 31
0.0
  0
LINE
  5
91
  8
0
 62
     7
 10
63.943600000000004
 20
215.91800000000001
 30
0.0
 11
53.215499999999999
 21
226.64599999999999
 31
0.0
  0
LINE
  5
92
  8
0
 62
     7
 10
67.811800000000005
 20
218.15100000000001
 30
0.0
 11
63.884999999999998
 21
232.80600000000001
 31
0.0
  0
LINE
  5
93
  8
0
 62
     7
 10
72.278000000000006
 20
218.15100000000001
 30
0.0
 11
76.204800000000006
 21
232.80600000000001
 31
0.0
  0
LINE
  5
94
  8
0
 62
     7
 10
76.146199999999993
 20
215.91800000000001
 30
0.0
 11
86.874300000000005
 21
226.64599999999999
 31
0.0
  0
LINE
  5
95
  8
0
 62
     7
 10
78.379300000000001
 20
212.04900000000001
 30
0.0
 11
93.034199999999998
 21
215.976
 31
0.0
  0
LINE
  5
96
  8
0
 62
     7
 10
78.379300000000001
 20
207.583
 30
0.0
 11
93.034199999999998
 21
203.65600000000001
 31
0.0
  0
LINE
  5
97
  8
0
 62
     7
 10
76.146199999999993
 20
203.715
 30
0.0
 11
86.874300000000005
 21
192.98699999999999
 31
0.0
  0
LINE
  5
98
  8
0
 62
     7
 10
72.278000000000006
 20
201.482
 30
0.0
 11
76.204800000000006
 21
186.827
 31
0.0
  0
ARC
  5
99
  8
0
 62
     7
 10
70.044916999999984
 20
209.81625299999999
 30
0.0
 40
6.2001790000000003
 50
0.00001
 51
89.999980000000008
  0
ARC
  5
9A
  8
0
 62
     7
 10
70.044919999999991
 20
209.81625299999999
 30
0.0
 40
6.2001790000000003
 50
90.0
 51
179.99996999999999
  0
ARC
  5
9B
  8
0
 62
     7
 10
70.044916999999984
 20
209.81625299999999
 30
0.0
 40
6.200175999999999
 50
179.99996999999999
 51
270.00002000000001
  0
ARC
  5
9C
  8
0
 62
     7
 10
70.044916999999984
 20
209.81625500000001
 30
0.0
 40
6.2001790000000003
 50
270.00002000000001
 51
359.99999000000003
  0
ARC
  5
9D
  8
0
 62
     7
 10
63.262048
 20
195.211219
 30
0.0
 40
8.4073469999999997
 50
256.92516000000001
 51
274.24963400000001
  0
ARC
  5
9E
  8
0
 62
     7
 10
63.63809599999999
 20
197.106537
 30
0.0
 40
10.338789
 50
248.42021500000001
 51
257.271344
  0
ARC
  5
9F
  8
0
 62
     7
 10
64.83869399999999
 20
200.31361100000001
 30
0.0
 40
13.762788
 50
241.62232599999999
 51
248.682939
  0
ARC
  5
A0
  8
0
 62
     7
 10
67.002341000000001
 20
204.53678099999999
 30
0.0
 40
18.507106
 50
239.98458400000001
 51
241.942891
  0
ARC
  5
A1
  8
0
 62
     7
 10
60.792856000000008
 20
196.642043
 30
0.0
 40
8.4125610000000002
 50
205.75296299999999
 51
223.066406
  0
ARC
  5
A2
  8
0
 62
     7
 10
62.242361999999993
 20
197.91365400000001
 30
0.0
 40
10.340007999999999
 50
222.72951699999999
 51
231.57882000000001
  0
ARC
  5
A3
  8
0
 62
     7
 10
64.419134999999997
 20
200.557445
 30
0.0
 40
13.764193000000001
 50
231.31877600000001
 51
238.377264
  0
ARC
  5
A4
  8
0
 62
     7
 10
67.002642000000009
 20
204.557142
 30
0.0
 40
18.524891
 50
238.05941000000001
 51
240.01527899999999
  0
ARC
  5
A5
  8
0
 62
     7
 10
56.872542000000003
 20
200.566147
 30
0.0
 40
8.4151190000000007
 50
226.93410700000001
 51
244.24159800000001
  0
ARC
  5
A6
  8
0
 62
     7
 10
58.150123999999998
 20
202.020398
 30
0.0
 40
10.350104
 50
218.42285200000001
 51
227.264364
  0
ARC
  5
A7
  8
0
 62
     7
 10
60.774647999999999
 20
204.181521
 30
0.0
 40
13.749468999999999
 50
211.61425
 51
218.68157299999999
  0
ARC
  5
A8
  8
0
 62
     7
 10
64.772675000000007
 20
206.76373799999999
 30
0.0
 40
18.508054999999999
 50
209.97576100000001
 51
211.93388899999999
  0
ARC
  5
A9
  8
0
 62
     7
 10
55.445332999999998
 20
203.033815
 30
0.0
 40
8.4127500000000008
 50
175.75603799999999
 51
193.06907699999999
  0
ARC
  5
AA
  8
0
 62
     7
 10
57.339067000000007
 20
203.411081
 30
0.0
 40
10.342919999999999
 50
192.73267100000001
 51
201.57953299999991
  0
ARC
  5
AB
  8
0
 62
     7
 10
60.537367000000003
 20
204.60921999999999
 30
0.0
 40
13.757852
 50
201.32070100000001
 51
208.382609
  0
ARC
  5
AC
  8
0
 62
     7
 10
64.767381999999984
 20
206.77856700000001
 30
0.0
 40
18.510885999999999
 50
208.06630100000001
 51
210.02370699999989
  0
ARC
  5
AD
  8
0
 62
     7
 10
54.009357999999999
 20
208.389837
 30
0.0
 40
8.4118739999999992
 50
196.92918900000001
 51
214.24349599999999
  0
ARC
  5
AE
  8
0
 62
     7
 10
55.84021400000001
 20
209.010863
 30
0.0
 40
10.344405999999999
 50
188.42043100000001
 51
197.26699500000001
  0
ARC
  5
AF
  8
0
 62
     7
 10
59.200001
 20
209.57149100000001
 30
0.0
 40
13.750214
 50
181.61410699999999
 51
188.6812469999999
  0
ARC
  5
B0
  8
0
 62
     7
 10
63.917760000000001
 20
209.807862
 30
0.0
 40
18.473047999999999
 50
179.972883
 51
181.93478400000001
  0
ARC
  5
B1
  8
0
 62
     7
 10
54.02084
 20
211.237289
 30
0.0
 40
8.4243939999999995
 50
145.77018699999999
 51
163.05923200000001
  0
ARC
  5
B2
  8
0
 62
     7
 10
55.838591999999998
 20
210.62169800000001
 30
0.0
 40
10.34281
 50
162.73118500000001
 51
171.57795100000001
  0
ARC
  5
B3
  8
0
 62
     7
 10
59.194389000000001
 20
210.06153699999999
 30
0.0
 40
13.744604000000001
 50
171.31691799999999
 51
178.385245
  0
ARC
  5
B4
  8
0
 62
     7
 10
63.908647999999999
 20
209.82531700000001
 30
0.0
 40
18.463936
 50
178.06474
 51
180.027074
  0
ARC
  5
B5
  8
0
 62
     7
 10
55.444209999999991
 20
216.598613
 30
0.0
 40
8.4116239999999998
 50
166.929483
 51
184.24398099999999
  0
ARC
  5
B6
  8
0
 62
     7
 10
57.341307999999991
 20
216.220494
 30
0.0
 40
10.345262
 50
158.42003799999989
 51
167.265693
  0
ARC
  5
B7
  8
0
 62
     7
 10
60.531247999999991
 20
215.025859
 30
0.0
 40
13.751132
 50
151.613315
 51
158.679868
  0
ARC
  5
B8
  8
0
 62
     7
 10
64.696687999999995
 20
212.89289099999999
 30
0.0
 40
18.430063000000001
 50
149.96970300000001
 51
151.936117
  0
ARC
  5
B9
  8
0
 62
     7
 10
56.870401000000001
 20
219.070775
 30
0.0
 40
8.4102139999999999
 50
115.758332
 51
133.07696300000001
  0
ARC
  5
BA
  8
0
 62
     7
 10
58.148371999999988
 20
217.61281399999999
 30
0.0
 40
10.348179
 50
132.73211800000001
 51
141.574118
  0
ARC
  5
BB
  8
0
 62
     7
 10
60.772872999999997
 20
215.45199199999999
 30
0.0
 40
13.747339
 50
141.31702999999999
 51
148.3840439999999
  0
ARC
  5
BC
  8
0
 62
     7
 10
64.702815999999984
 20
212.91192599999991
 30
0.0
 40
18.425851999999999
 50
148.064053
 51
150.030484
  0
ARC
  5
BD
  8
0
 62
     7
 10
60.790100000000002
 20
222.991635
 30
0.0
 40
8.4098800000000011
 50
136.928641
 51
154.24707799999999
  0
ARC
  5
BE
  8
0
 62
     7
 10
62.250020999999997
 20
221.70960299999999
 30
0.0
 40
10.352046
 50
128.423543
 51
137.26328899999999
  0
ARC
  5
BF
  8
0
 62
     7
 10
64.409479000000005
 20
219.087076
 30
0.0
 40
13.748811
 50
121.614108
 51
128.68183099999999
  0
ARC
  5
C0
  8
0
 62
     7
 10
66.992198000000002
 20
215.088165
 30
0.0
 40
18.508413000000001
 50
119.975594
 51
121.933661
  0
ARC
  5
C1
  8
0
 62
     7
 10
63.263795999999999
 20
224.400947
 30
0.0
 40
8.4274789999999982
 50
85.774800999999997
 51
103.057355
  0
ARC
  5
C2
  8
0
 62
     7
 10
63.63852399999999
 20
222.52331000000001
 30
0.0
 40
10.341398999999999
 50
102.72953699999999
 51
111.57755
  0
ARC
  5
C3
  8
0
 62
     7
 10
64.830157
 20
219.33840900000001
 30
0.0
 40
13.741485000000001
 50
111.314215
 51
118.384412
  0
ARC
  5
C4
  8
0
 62
     7
 10
66.994219999999999
 20
215.11600899999999
 30
0.0
 40
18.485309999999998
 50
118.064007
 51
120.024142
  0
ARC
  5
C5
  8
0
 62
     7
 10
68.62005400000001
 20
225.84863899999999
 30
0.0
 40
8.4153719999999996
 50
106.93292
 51
124.24003999999999
  0
ARC
  5
C6
  8
0
 62
     7
 10
69.239766000000003
 20
224.01952800000001
 30
0.0
 40
10.345852000000001
 50
98.420579999999987
 51
107.265827
  0
ARC
  5
C7
  8
0
 62
     7
 10
69.79975300000001
 20
220.66607200000001
 30
0.0
 40
13.745304000000001
 50
91.613021000000003
 51
98.682668999999976
  0
ARC
  5
C8
  8
0
 62
     7
 10
70.036521999999991
 20
215.94302400000001
 30
0.0
 40
18.473437000000001
 50
89.972881000000001
 51
91.934734000000006
  0
ARC
  5
C9
  8
0
 62
     7
 10
71.468733
 20
225.846205
 30
0.0
 40
8.4179759999999995
 50
55.763354999999997
 51
73.065748999999997
  0
ARC
  5
CA
  8
0
 62
     7
 10
70.850123999999994
 20
224.02115000000001
 30
0.0
 40
10.344255
 50
72.732332999999997
 51
81.577781999999999
  0
ARC
  5
CB
  8
0
 62
     7
 10
70.290531000000001
 20
220.67083600000001
 30
0.0
 40
13.740544
 50
81.315710999999993
 51
88.386174999999994
  0
ARC
  5
CC
  8
0
 62
     7
 10
70.053993999999989
 20
215.95363800000001
 30
0.0
 40
18.462823
 50
88.064690999999996
 51
90.027087000000009
  0
ARC
  5
CD
  8
0
 62
     7
 10
76.827758000000003
 20
224.423417
 30
0.0
 40
8.4052229999999994
 50
76.922725999999983
 51
94.250474999999994
  0
ARC
  5
CE
  8
0
 62
     7
 10
76.452687999999995
 20
222.53096300000001
 30
0.0
 40
10.333653999999999
 50
68.415637000000004
 51
77.271221999999995
  0
ARC
  5
CF
  8
0
 62
     7
 10
75.250066000000004
 20
219.32058799999999
 30
0.0
 40
13.76146
 50
61.615469999999988
 51
68.676741000000007
  0
ARC
  5
D0
  8
0
 62
     7
 10
73.129455000000007
 20
215.17842400000001
 30
0.0
 40
18.414041000000001
 50
59.969287999999992
 51
61.937404000000001
  0
ARC
  5
D1
  8
0
 62
     7
 10
79.297154000000006
 20
222.98966300000001
 30
0.0
 40
8.4127530000000004
 50
25.758378
 51
43.071235999999992
  0
ARC
  5
D2
  8
0
 62
     7
 10
77.840885
 20
221.711592
 30
0.0
 40
10.349548
 50
42.734312000000003
 51
51.575381999999998
  0
ARC
  5
D3
  8
0
 62
     7
 10
75.679378
 20
219.08575300000001
 30
0.0
 40
13.750181
 50
51.319263999999997
 51
58.385061
  0
ARC
  5
D4
  8
0
 62
     7
 10
73.141238000000001
 20
215.15927600000001
 30
0.0
 40
18.424731999999999
 50
58.06424599999999
 51
60.030811999999997
  0
ARC
  5
D5
  8
0
 62
     7
 10
83.217294999999993
 20
219.06670600000001
 30
0.0
 40
8.4151190000000007
 50
46.934086999999991
 51
64.241578000000004
  0
ARC
  5
D6
  8
0
 62
     7
 10
81.939712999999983
 20
217.61245500000001
 30
0.0
 40
10.350104
 50
38.422832
 51
47.264344000000001
  0
ARC
  5
D7
  8
0
 62
     7
 10
79.314650999999998
 20
215.450908
 30
0.0
 40
13.750152999999999
 50
31.614549000000011
 51
38.681531999999997
  0
ARC
  5
D8
  8
0
 62
     7
 10
75.328792000000007
 20
212.87624700000001
 30
0.0
 40
18.494416999999999
 50
29.974605000000011
 51
31.934169000000001
  0
ARC
  5
D9
  8
0
 62
     7
 10
84.650552000000005
 20
216.59948700000001
 30
0.0
 40
8.4067519999999991
 50
355.749953
 51
13.075404000000001
  0
ARC
  5
DA
  8
0
 62
     7
 10
82.757535000000004
 20
216.22392999999991
 30
0.0
 40
10.335839999999999
 50
12.729255
 51
21.582170999999999
  0
ARC
  5
DB
  8
0
 62
     7
 10
79.548125999999996
 20
215.02153300000001
 30
0.0
 40
13.762667
 50
21.322239
 51
28.381692000000001
  0
ARC
  5
DC
  8
0
 62
     7
 10
75.368490000000008
 20
212.88001
 30
0.0
 40
18.458155999999999
 50
28.063063
 51
30.026053000000012
  0
ARC
  5
DD
  8
0
 62
     7
 10
86.080363000000006
 20
211.242593
 30
0.0
 40
8.4120139999999992
 50
16.929590999999999
 51
34.243474999999997
  0
ARC
  5
DE
  8
0
 62
     7
 10
84.252843999999996
 20
210.622353
 30
0.0
 40
10.341125999999999
 50
8.4197410000000001
 51
17.268643000000001
  0
ARC
  5
DF
  8
0
 62
     7
 10
80.895046999999991
 20
210.06151700000001
 30
0.0
 40
13.744998000000001
 50
1.6136959999999989
 51
8.6828960000000013
  0
ARC
  5
E0
  8
0
 62
     7
 10
76.177739000000003
 20
209.82499999999999
 30
0.0
 40
18.467386000000001
 50
359.97286600000001
 51
1.9350609999999999
  0
ARC
  5
E1
  8
0
 62
     7
 10
86.069113000000002
 20
208.395141
 30
0.0
 40
8.4242539999999995
 50
325.77020499999998
 51
343.05967399999997
  0
ARC
  5
E2
  8
0
 62
     7
 10
84.256486999999993
 20
209.00953899999999
 30
0.0
 40
10.33742
 50
342.72942699999999
 51
351.58115800000002
  0
ARC
  5
E3
  8
0
 62
     7
 10
80.898343000000011
 20
209.57079999999999
 30
0.0
 40
13.741697
 50
351.31617199999999
 51
358.3867140000001
  0
ARC
  5
E4
  8
0
 62
     7
 10
76.177739000000003
 20
209.80750800000001
 30
0.0
 40
18.467386000000001
 50
358.06493899999998
 51
0.027134
  0
ARC
  5
E5
  8
0
 62
     7
 10
84.642922999999996
 20
203.034592
 30
0.0
 40
8.4142679999999999
 50
346.92896300000001
 51
4.2378679999999989
  0
ARC
  5
E6
  8
0
 62
     7
 10
82.749320999999995
 20
203.41153399999999
 30
0.0
 40
10.344237
 50
338.42118599999998
 51
347.26727899999997
  0
ARC
  5
E7
  8
0
 62
     7
 10
79.562106
 20
204.605164
 30
0.0
 40
13.747203000000001
 50
331.61275000000001
 51
338.68053099999997
  0
ARC
  5
E8
  8
0
 62
     7
 10
75.363996
 20
206.75734700000001
 30
0.0
 40
18.464003000000002
 50
329.96828900000003
 51
331.93084599999997
  0
ARC
  5
E9
  8
0
 62
     7
 10
83.218513999999985
 20
200.56363300000001
 30
0.0
 40
8.4123249999999992
 50
295.75838099999999
 51
313.07213100000001
  0
ARC
  5
EA
  8
0
 62
     7
 10
81.947614999999999
 20
202.01303300000001
 30
0.0
 40
10.339207
 50
312.73166800000001
 51
321.58197000000001
  0
ARC
  5
EB
  8
0
 62
     7
 10
79.331496000000001
 20
204.16907599999999
 30
0.0
 40
13.728832000000001
 50
321.316485
 51
328.39384799999999
  0
ARC
  5
EC
  8
0
 62
     7
 10
75.387605000000008
 20
206.71902900000001
 30
0.0
 40
18.424398
 50
328.06789300000003
 51
330.03471000000002
  0
ARC
  5
ED
  8
0
 62
     7
 10
79.299891000000002
 20
196.64202900000001
 30
0.0
 40
8.4100950000000001
 50
316.92406399999999
 51
334.24166400000001
  0
ARC
  5
EE
  8
0
 62
     7
 10
77.838903000000002
 20
197.92386099999999
 30
0.0
 40
10.352904000000001
 50
308.42563799999999
 51
317.264388
  0
ARC
  5
EF
  8
0
 62
     7
 10
75.687885999999992
 20
200.535572
 30
0.0
 40
13.735951999999999
 50
301.61024700000002
 51
308.68411300000002
  0
ARC
  5
F0
  8
0
 62
     7
 10
73.14065500000001
 20
204.477293
 30
0.0
 40
18.428242999999998
 50
299.96499
 51
301.93142399999999
  0
ARC
  5
F1
  8
0
 62
     7
 10
76.826018000000005
 20
195.229884
 30
0.0
 40
8.4254610000000003
 50
265.77396700000003
 51
283.059708
  0
ARC
  5
F2
  8
0
 62
     7
 10
76.451965000000001
 20
197.10618299999999
 30
0.0
 40
10.337923999999999
 50
282.72937400000001
 51
291.58081700000002
  0
ARC
  5
F3
  8
0
 62
     7
 10
75.257655
 20
200.29649499999999
 30
0.0
 40
13.744021999999999
 50
291.31880799999999
 51
298.38828599999999
  0
ARC
  5
F4
  8
0
 62
     7
 10
73.131111000000004
 20
204.44886600000001
 30
0.0
 40
18.408396
 50
298.06644399999999
 51
300.03491500000001
  0
ARC
  5
F5
  8
0
 62
     7
 10
71.470740000000006
 20
193.782456
 30
0.0
 40
8.4136659999999992
 50
286.92981900000001
 51
304.24008600000002
  0
ARC
  5
F6
  8
0
 62
     7
 10
70.849128000000007
 20
195.61573200000001
 30
0.0
 40
10.348682999999999
 50
278.42409900000001
 51
287.26656600000001
  0
ARC
  5
F7
  8
0
 62
     7
 10
70.289327999999983
 20
198.97165899999999
 30
0.0
 40
13.750553
 50
271.61663199999998
 51
278.68294400000002
  0
ARC
  5
F8
  8
0
 62
     7
 10
70.053657000000001
 20
203.684181
 30
0.0
 40
18.468133000000002
 50
269.97289899999998
 51
271.93503099999998
  0
ARC
  5
F9
  8
0
 62
     7
 10
68.619096999999996
 20
193.782456
 30
0.0
 40
8.4136659999999992
 50
235.75993399999999
 51
253.070201
  0
ARC
  5
FA
  8
0
 62
     7
 10
69.240708999999995
 20
195.61573200000001
 30
0.0
 40
10.348682999999999
 50
252.733453
 51
261.57592099999999
  0
ARC
  5
FB
  8
0
 62
     7
 10
69.800508999999991
 20
198.97165899999999
 30
0.0
 40
13.750553
 50
261.31707499999999
 51
268.38338800000002
  0
ARC
  5
FC
  8
0
 62
     7
 10
70.036180000000002
 20
203.684181
 30
0.0
 40
18.468133000000002
 50
268.06498800000003
 51
270.02712100000002
  0
ARC
  5
FD
  8
0
 62
     7
 10
70.04491800000001
 20
209.81625299999999
 30
0.0
 40
4.6000940000000003
 50
0.00001
 51
89.999980000000008
  0
ARC
  5
FE
  8
0
 62
     7
 10
70.044918999999993
 20
209.81625299999999
 30
0.0
 40
4.6000940000000003
 50
90.0
 51
179.99996999999999
  0
ARC
  5
FF
  8
0
 62
     7
 10
70.04491800000001
 20
209.81625299999999
 30
0.0
 40
4.6000920000000001
 50
179.99996999999999
 51
270.00002000000001
  0
ARC
  5
100
  8
0
 62
     7
 10
70.04491800000001
 20
209.81625500000001
 30
0.0
 40
4.6000940000000003
 50
270.00002000000001
 51
359.99999000000003
  0
LINE
  5
101
  8
0
  6
AIGENLINE002
 62
     7
 10
105.68600000000001
 20
209.816
 30
0.0
 11
34.403799999999997
 21
209.816
 31
0.0
  0
LINE
  5
102
  8
0
  6
AIGENLINE002
 62
     7
 10
70.044899999999998
 20
175.72499999999999
 30
0.0
 11
70.044899999999998
 21
243.90799999999999
 31
0.0
  0
ARC
  5
103
  8
0
 62
     7
 10
70.044914000000006
 20
209.816249
 30
0.0
 40
28.400174
 50
0.00001
 51
89.999980000000008
  0
ARC
  5
104
  8
0
 62
     7
 10
70.044922999999983
 20
209.816249
 30
0.0
 40
28.400174
 50
90.0
 51
179.99996999999999
  0
ARC
  5
105
  8
0
 62
     7
 10
70.044914000000006
 20
209.816249
 30
0.0
 40
28.400164
 50
179.99996999999999
 51
270.00002000000001
  0
ARC
  5
106
  8
0
 62
     7
 10
70.044914000000006
 20
209.816259
 30
0.0
 40
28.400174
 50
270.00002000000001
 51
359.99999000000003
  0
LINE
  5
107
  8
_________2
 62
     7
 10
210.24000000000001
 20
148.93100000000001
 30
0.0
 11
188.49000000000001
 21
148.93100000000001
 31
0.0
  0
LINE
  5
108
  8
_________2
 62
     7
 10
105.239
 20
17.4285
 30
0.0
 11
105.239
 21
0.4482100000000001
 31
0.0
  0
LINE
  5
109
  8
_________2
 62
     7
 10
105.239
 20
297.44999999999999
 30
0.0
 11
105.239
 21
280.43000000000001
 31
0.0
  0
LINE
  5
10A
  8
_________2
 62
     7
 10
21.988499999999998
 20
148.93100000000001
 30
0.0
 11
0.238058
 21
148.93100000000001
 31
0.0
  0
LINE
  5
10B
  8
_________2
 62
     7
 10
81.679900000000004
 20
51.324300000000001
 30
0.0
 11
79.493700000000004
 21
51.324300000000001
 31
0.0
  0
LINE
  5
10C
  8
_________2
 62
     7
 10
82.172600000000017
 20
51.324300000000001
 30
0.0
 11
81.920400000000001
 21
51.324300000000001
 31
0.0
  0
LINE
  5
10D
  8
_________2
 62
     7
 10
82.665199999999984
 20
51.324300000000001
 30
0.0
 11
85.590100000000007
 21
51.324300000000001
 31
0.0
  0
LINE
  5
10E
  8
_________2
 62
     7
 10
82.172600000000017
 20
51.324300000000001
 30
0.0
 11
82.424800000000005
 21
51.324300000000001
 31
0.0
  0
LINE
  5
10F
  8
_________2
 62
     7
 10
75.776399999999995
 20
51.324300000000001
 30
0.0
 11
73.589399999999998
 21
51.324300000000001
 31
0.0
  0
LINE
  5
110
  8
_________2
 62
     7
 10
76.2684
 20
51.324300000000001
 30
0.0
 11
76.016900000000007
 21
51.324300000000001
 31
0.0
  0
LINE
  5
111
  8
_________2
 62
     7
 10
76.2684
 20
51.817
 30
0.0
 11
76.2684
 21
54.003900000000002
 31
0.0
  0
LINE
  5
112
  8
_________2
 62
     7
 10
76.2684
 20
51.324300000000001
 30
0.0
 11
76.2684
 21
51.576500000000003
 31
0.0
  0
LINE
  5
113
  8
_________2
 62
     7
 10
76.76100000000001
 20
51.324300000000001
 30
0.0
 11
78.947999999999993
 21
51.324300000000001
 31
0.0
  0
LINE
  5
114
  8
_________2
 62
     7
 10
76.2684
 20
51.324300000000001
 30
0.0
 11
76.520499999999998
 21
51.324300000000001
 31
0.0
  0
LINE
  5
115
  8
_________2
 62
     7
 10
76.2684
 20
50.832399999999993
 30
0.0
 11
76.2684
 21
48.645400000000002
 31
0.0
  0
LINE
  5
116
  8
_________2
 62
     7
 10
76.2684
 20
51.324300000000001
 30
0.0
 11
76.2684
 21
51.072800000000001
 31
0.0
  0
LINE
  5
117
  8
_________2
 62
     7
 10
79.979399999999984
 20
50.104799999999997
 30
0.0
 11
85.157399999999996
 21
49.240000000000002
 31
0.0
  0
LINE
  5
118
  8
_________2
 62
     7
 10
79.979399999999984
 20
52.543900000000001
 30
0.0
 11
85.157399999999996
 21
53.409300000000002
 31
0.0
  0
LINE
  5
119
  8
_________2
 62
     7
 10
85.157399999999996
 20
49.240000000000002
 30
0.0
 11
85.157399999999996
 21
53.409300000000002
 31
0.0
  0
LINE
  5
11A
  8
_________2
 62
     7
 10
79.979399999999984
 20
50.104799999999997
 30
0.0
 11
79.979399999999984
 21
52.543900000000001
 31
0.0
  0
ARC
  5
11B
  8
_________2
 62
     7
 10
76.222110000000001
 20
51.277366999999991
 30
0.0
 40
1.2673709999999989
 50
2.1232950000000002
 51
87.909056000000007
  0
ARC
  5
11C
  8
_________2
 62
     7
 10
76.315273000000005
 20
51.277400999999998
 30
0.0
 40
1.267363
 50
92.121785999999986
 51
177.878185
  0
ARC
  5
11D
  8
_________2
 62
     7
 10
76.315273000000005
 20
51.371245999999992
 30
0.0
 40
1.267363
 50
182.121815
 51
267.87821400000001
  0
ARC
  5
11E
  8
_________2
 62
     7
 10
76.221461000000005
 20
51.371928999999987
 30
0.0
 40
1.2680439999999991
 50
272.11916400000001
 51
357.84848499999998
  0
ARC
  5
11F
  8
_________2
 62
     7
 10
76.268349999999984
 20
51.324323
 30
0.0
 40
2.0849849999999992
 50
0.00001
 51
89.999980000000008
  0
ARC
  5
120
  8
_________2
 62
     7
 10
76.348388
 20
51.245001999999992
 30
0.0
 40
2.1657860000000002
 50
92.117855000000034
 51
177.90105299999999
  0
ARC
  5
121
  8
_________2
 62
     7
 10
76.348354
 20
51.404327000000002
 30
0.0
 40
2.1657779999999991
 50
182.11700400000001
 51
267.88302499999998
  0
ARC
  5
122
  8
_________2
 62
     7
 10
76.188378999999983
 20
51.405009999999997
 30
0.0
 40
2.1664590000000001
 50
272.11546800000002
 51
357.86560400000002
  0
TEXT
  5
123
  8
_________2
 62
     7
 10
109.544
 20
23.199100000000001
 30
0.0
 40
3.0923400000000001
  1
図番
 41
0.5
  0
LINE
  5
124
  8
_________2
 62
     7
 10
108.489
 20
27.4283
 30
0.0
 11
188.49000000000001
 21
27.4283
 31
0.0
  0
TEXT
  5
125
  8
_________2
 62
     7
 10
109.544
 20
33.198900000000002
 30
0.0
 40
3.0923400000000001
  1
品番
 41
0.5
  0
TEXT
  5
126
  8
_________2
 62
     7
 10
109.544
 20
53.337699999999998
 30
0.0
 40
3.0923400000000001
  1
名称
 41
0.5
  0
TEXT
  5
127
  8
_________2
 62
     7
 10
96.784058333333334
 20
48.341500000000011
 30
0.0
 40
3.6545800000000002
  1
mm
 41
0.5
 72
     1
 11
98.306799999999996
 21
48.341500000000011
 31
0.0
  0
TEXT
  5
128
  8
_________2
 62
     7
 10
90.582099999999997
 20
53.337699999999998
 30
0.0
 40
3.0923400000000001
  1
単位
 41
0.5
  0
TEXT
  5
129
  8
_________2
 62
     7
 10
90.582099999999997
 20
40.930399999999999
 30
0.0
 40
3.0923400000000001
  1
尺度
 41
0.5
  0
TEXT
  5
12A
  8
_________2
 62
     7
 10
95.487658666666675
 20
34.737499999999997
 30
0.0
 40
3.6545800000000002
  1
1 ： 5
 41
0.5
 72
     1
 11
98.898600000000002
 21
34.737499999999997
 31
0.0
  0
TEXT
  5
12B
  8
_________2
 62
     7
 10
139.14171250000001
 20
30.627400000000002
 30
0.0
 40
3.9357000000000002
  1
GG1110S-WHI
 41
0.5
 72
     1
 11
148.489
 21
30.627400000000002
 31
0.0
  0
TEXT
  5
12C
  8
_________2
 62
     7
 10
143.07741250000001
 20
20.626999999999999
 30
0.0
 40
3.9357000000000002
  1
GG1110S
 41
0.5
 72
     1
 11
148.489
 21
20.626999999999999
 31
0.0
  0
TEXT
  5
12D
  8
_________2
 62
     7
 10
29.525700000000001
 20
22.226900000000001
 30
0.0
 40
3.9357000000000002
  1
重量：4.0kg、オーバーフローなし
 41
0.5
  0
TEXT
  5
12E
  8
_________2
 62
     7
 10
114.11799999999999
 20
45.7453
 30
0.0
 40
3.9357000000000002
  1
トッティ　手洗器
 41
0.5
  0
TEXT
  5
12F
  8
_________2
 62
     7
 10
44.303290666666669
 20
35.122599999999998
 30
0.0
 40
3.6545800000000002
  1
平井
 41
0.5
 72
     1
 11
46.252400000000002
 21
35.122599999999998
 31
0.0
  0
TEXT
  5
130
  8
_________2
 62
     7
 10
25.790200333333338
 20
35.122599999999998
 30
0.0
 40
3.6545800000000002
  1
福田
 41
0.5
 72
     1
 11
27.6784
 21
35.122599999999998
 31
0.0
  0
TEXT
  5
131
  8
_________2
 62
     7
 10
72.724699999999999
 20
34.737499999999997
 30
0.0
 40
3.6545800000000002
  1
16.07.21
 41
0.5
  0
TEXT
  5
132
  8
_________2
 62
     7
 10
71.531999999999996
 20
40.930399999999999
 30
0.0
 40
3.0923400000000001
  1
日付
 41
0.5
  0
TEXT
  5
133
  8
_________2
 62
     7
 10
34.578299999999999
 20
40.930399999999999
 30
0.0
 40
3.0923400000000001
  1
検図
 41
0.5
  0
TEXT
  5
134
  8
_________2
 62
     7
 10
22.960000000000001
 20
26.731000000000002
 30
0.0
 40
3.0923400000000001
  1
備考
 41
0.5
  0
TEXT
  5
135
  8
_________2
 62
     7
 10
22.960000000000001
 20
40.930399999999999
 30
0.0
 40
3.0923400000000001
  1
製図
 41
0.5
  0
TEXT
  5
136
  8
_________2
 62
     7
 10
28.727365333333339
 20
49.456400000000002
 30
0.0
 40
4.4979399999999989
  1
セラトレーディング株式会社
 41
0.5
 72
     1
 11
46.119399999999992
 21
49.456400000000002
 31
0.0
  0
LINE
  5
137
  8
_________2
 62
     7
 10
188.49000000000001
 20
17.4285
 30
0.0
 11
21.988499999999998
 21
17.4285
 31
0.0
  0
LINE
  5
138
  8
_________2
 62
     7
 10
21.988499999999998
 20
17.4285
 30
0.0
 11
21.988499999999998
 21
280.43000000000001
 31
0.0
  0
LINE
  5
139
  8
_________2
 62
     7
 10
21.988499999999998
 20
280.43000000000001
 30
0.0
 11
188.49000000000001
 21
280.43000000000001
 31
0.0
  0
LINE
  5
13A
  8
_________2
 62
     7
 10
188.49000000000001
 20
280.43000000000001
 30
0.0
 11
188.49000000000001
 21
17.4285
 31
0.0
  0
LINE
  5
13B
  8
_________2
 62
     7
 10
70.488799999999998
 20
30.9285
 30
0.0
 11
70.488799999999998
 21
57.428400000000011
 31
0.0
  0
LINE
  5
13C
  8
_________2
 62
     7
 10
89.488600000000005
 20
30.9285
 30
0.0
 11
89.488600000000005
 21
57.428400000000011
 31
0.0
  0
LINE
  5
13D
  8
_________2
 62
     7
 10
108.489
 20
17.4285
 30
0.0
 11
108.489
 21
57.428400000000011
 31
0.0
  0
LINE
  5
13E
  8
_________2
 62
     7
 10
33.488300000000002
 20
30.9285
 30
0.0
 11
33.488300000000002
 21
44.928800000000003
 31
0.0
  0
LINE
  5
13F
  8
_________2
 62
     7
 10
21.988499999999998
 20
30.9285
 30
0.0
 11
108.489
 21
30.9285
 31
0.0
  0
LINE
  5
140
  8
_________2
 62
     7
 10
21.988499999999998
 20
44.928800000000003
 30
0.0
 11
108.489
 21
44.928800000000003
 31
0.0
  0
LINE
  5
141
  8
_________2
 62
     7
 10
108.489
 20
37.428100000000001
 30
0.0
 11
188.49000000000001
 21
37.428100000000001
 31
0.0
  0
LINE
  5
142
  8
_________2
 62
     7
 10
21.988499999999998
 20
57.428400000000011
 30
0.0
 11
188.49000000000001
 21
57.428400000000011
 31
0.0
  0
ENDSEC
  0
EOF
