  0
SECTION
  2
HEADER
  9
$ACADVER
  1
AC1009
  9
$INSBASE
 10
0.0
 20
0.0
 30
0.0
  9
$EXTMIN
 10
-4.70052
 20
-21.071400000000001
 30
0.0
  9
$EXTMAX
 10
205.30099999999999
 20
275.93099999999993
 30
0.0
  9
$LIMMIN
 10
0.0
 20
0.0
  9
$LIMMAX
 10
12.0
 20
9.0
  9
$ORTHOMODE
 70
     0
  9
$REGENMODE
 70
     1
  9
$FILLMODE
 70
     1
  9
$QTEXTMODE
 70
     0
  9
$MIRRTEXT
 70
     1
  9
$DRAGMODE
 70
     2
  9
$LTSCALE
 40
1.0
  9
$OSMODE
 70
    37
  9
$ATTMODE
 70
     1
  9
$TEXTSIZE
 40
0.0
  9
$TRACEWID
 40
0.05
  9
$TEXTSTYLE
  7
STANDARD
  9
$CLAYER
  8
0
  9
$CELTYPE
  6
CONTINUOUS
  9
$CECOLOR
 62
   256
  9
$DIMSCALE
 40
1.0
  9
$DIMASZ
 40
0.18
  9
$DIMEXO
 40
0.0625
  9
$DIMDLI
 40
0.38
  9
$DIMRND
 40
0.0
  9
$DIMDLE
 40
0.0
  9
$DIMEXE
 40
0.18
  9
$DIMTP
 40
0.0
  9
$DIMTM
 40
0.0
  9
$DIMTXT
 40
0.18
  9
$DIMCEN
 40
0.09
  9
$DIMTSZ
 40
0.0
  9
$DIMTOL
 70
     0
  9
$DIMLIM
 70
     0
  9
$DIMTIH
 70
     1
  9
$DIMTOH
 70
     1
  9
$DIMSE1
 70
     0
  9
$DIMSE2
 70
     0
  9
$DIMTAD
 70
     0
  9
$DIMZIN
 70
     0
  9
$DIMBLK
  1

  9
$DIMASO
 70
     1
  9
$DIMSHO
 70
     1
  9
$DIMPOST
  1

  9
$DIMAPOST
  1

  9
$DIMALT
 70
     0
  9
$DIMALTD
 70
     2
  9
$DIMALTF
 40
25.399999999999999
  9
$DIMLFAC
 40
1.0
  9
$DIMTOFL
 70
     0
  9
$DIMTVP
 40
0.0
  9
$DIMTIX
 70
     0
  9
$DIMSOXD
 70
     0
  9
$DIMSAH
 70
     0
  9
$DIMBLK1
  1

  9
$DIMBLK2
  1

  9
$DIMSTYLE
  2
STANDARD
  9
$DIMCLRD
 70
     0
  9
$DIMCLRE
 70
     0
  9
$DIMCLRT
 70
     0
  9
$DIMTFAC
 40
1.0
  9
$DIMGAP
 40
0.09
  9
$LUNITS
 70
     2
  9
$LUPREC
 70
     4
  9
$SKETCHINC
 40
0.1
  9
$FILLETRAD
 40
0.0
  9
$AUNITS
 70
     0
  9
$AUPREC
 70
     0
  9
$MENU
  1
.
  9
$ELEVATION
 40
0.0
  9
$PELEVATION
 40
0.0
  9
$THICKNESS
 40
0.0
  9
$LIMCHECK
 70
     0
  9
$BLIPMODE
 70
     0
  9
$CHAMFERA
 40
0.0
  9
$CHAMFERB
 40
0.0
  9
$SKPOLY
 70
     0
  9
$TDCREATE
 40
2444972.375
  9
$TDUPDATE
 40
2454230.285609988
  9
$TDINDWG
 40
0.0000173611
  9
$TDUSRTIMER
 40
0.0000173611
  9
$USRTIMER
 70
     1
  9
$ANGBASE
 50
0.0
  9
$ANGDIR
 70
     0
  9
$PDMODE
 70
     0
  9
$PDSIZE
 40
0.0
  9
$PLINEWID
 40
0.0
  9
$COORDS
 70
     1
  9
$SPLFRAME
 70
     0
  9
$SPLINETYPE
 70
     6
  9
$SPLINESEGS
 70
     8
  9
$ATTDIA
 70
     0
  9
$ATTREQ
 70
     1
  9
$HANDLING
 70
     1
  9
$HANDSEED
  5
2AF
  9
$SURFTAB1
 70
     6
  9
$SURFTAB2
 70
     6
  9
$SURFTYPE
 70
     6
  9
$SURFU
 70
     6
  9
$SURFV
 70
     6
  9
$UCSNAME
  2

  9
$UCSORG
 10
0.0
 20
0.0
 30
0.0
  9
$UCSXDIR
 10
1.0
 20
0.0
 30
0.0
  9
$UCSYDIR
 10
0.0
 20
1.0
 30
0.0
  9
$PUCSNAME
  2

  9
$PUCSORG
 10
0.0
 20
0.0
 30
0.0
  9
$PUCSXDIR
 10
1.0
 20
0.0
 30
0.0
  9
$PUCSYDIR
 10
0.0
 20
1.0
 30
0.0
  9
$USERI1
 70
     0
  9
$USERI2
 70
     0
  9
$USERI3
 70
     0
  9
$USERI4
 70
     0
  9
$USERI5
 70
     0
  9
$USERR1
 40
0.0
  9
$USERR2
 40
0.0
  9
$USERR3
 40
0.0
  9
$USERR4
 40
0.0
  9
$USERR5
 40
0.0
  9
$WORLDVIEW
 70
     1
  9
$SHADEDGE
 70
     3
  9
$SHADEDIF
 70
    70
  9
$TILEMODE
 70
     1
  9
$MAXACTVP
 70
    48
  9
$PLIMCHECK
 70
     0
  9
$PEXTMIN
 10
1.0000000000000000E+020
 20
1.0000000000000000E+020
 30
1.0000000000000000E+020
  9
$PEXTMAX
 10
-1.0000000000000000E+020
 20
-1.0000000000000000E+020
 30
-1.0000000000000000E+020
  9
$PLIMMIN
 10
0.0
 20
0.0
  9
$PLIMMAX
 10
12.0
 20
9.0
  9
$UNITMODE
 70
     0
  9
$VISRETAIN
 70
     1
  9
$PLINEGEN
 70
     0
  9
$PSLTSCALE
 70
     1
  0
ENDSEC
  0
SECTION
  2
TABLES
  0
TABLE
  2
VPORT
 70
     2
  0
VPORT
  2
*ACTIVE
 70
     0
 10
0.0
 20
0.0
 11
1.0
 21
1.0
 12
145.6466244202077
 22
127.4297999999999
 13
0.0
 23
0.0
 14
1.0
 24
1.0
 15
0.0
 25
0.0
 16
0.0
 26
0.0
 36
1.0
 17
0.0
 27
0.0
 37
0.0
 40
299.96255681063121
 41
2.1842105263157889
 42
50.0
 43
0.0
 44
0.0
 50
0.0
 51
0.0
 71
     0
 72
   100
 73
     1
 74
     1
 75
     0
 76
     0
 77
     0
 78
     0
  0
ENDTAB
  0
TABLE
  2
LTYPE
 70
     2
  0
LTYPE
  2
CONTINUOUS
 70
     0
  3
Solid line
 72
    65
 73
     0
 40
0.0
  0
LTYPE
  2
AIGENLINE001
 70
     0
  3
generate AI->DXF Converter
 72
    65
 73
     4
 40
5.8561449999999988
 49
3.5278
 49
-0.776115
 49
0.776115
 49
-0.776115
  0
ENDTAB
  0
TABLE
  2
LAYER
 70
     2
  0
LAYER
  2
0
 70
     0
 62
     7
  6
CONTINUOUS
  0
LAYER
  2
_________2
 70
     0
 62
     7
  6
CONTINUOUS
  0
ENDTAB
  0
TABLE
  2
STYLE
 70
     1
  0
STYLE
  2
STANDARD
 70
     0
 40
0.0
 41
0.0
 50
0.0
 71
     0
 42
0.0
  3
TXT
  4
EXTFONT.SHX
  0
ENDTAB
  0
TABLE
  2
VIEW
 70
     0
  0
ENDTAB
  0
TABLE
  2
UCS
 70
     0
  0
ENDTAB
  0
TABLE
  2
APPID
 70
     1
  0
APPID
  2
ACAD
 70
     0
  0
ENDTAB
  0
TABLE
  2
DIMSTYLE
 70
     1
  0
DIMSTYLE
  2
STANDARD
 70
     0
  3

  4

  5

  6

  7

 40
1.0
 41
0.18
 42
0.0625
 43
0.38
 44
0.18
 45
0.0
 46
0.0
 47
0.0
 48
0.0
140
0.18
141
0.09
142
0.0
143
25.399999999999999
144
1.0
145
0.0
146
1.0
147
0.09
 71
     0
 72
     0
 73
     1
 74
     1
 75
     0
 76
     0
 77
     0
 78
     0
170
     0
171
     2
172
     0
173
     0
174
     0
175
     0
176
     0
177
     0
178
     0
  0
ENDTAB
  0
ENDSEC
  0
SECTION
  2
BLOCKS
  0
BLOCK
  8
0
  2
$MODEL_SPACE
 70
     0
 10
0.0
 20
0.0
 30
0.0
  3
$MODEL_SPACE
  1

  0
ENDBLK
  5
1A
  8
0
  0
BLOCK
 67
     1
  8
0
  2
$PAPER_SPACE
 70
     0
 10
0.0
 20
0.0
 30
0.0
  3
$PAPER_SPACE
  1

  0
ENDBLK
  5
17
 67
     1
  8
0
  0
ENDSEC
  0
SECTION
  2
ENTITIES
  0
TEXT
  5
22
  8
0
 62
     7
 10
158.13622000000001
 20
138.619
 30
0.0
 40
3.0923400000000001
  1
15
 41
0.5
 72
     1
 11
159.167
 21
138.619
 31
0.0
  0
TEXT
  5
23
  8
0
 62
     7
 10
62.461672499999999
 20
137.63900000000001
 30
0.0
 40
3.0923400000000001
  1
50
 41
0.5
 72
     1
 11
63.621299999999998
 21
137.63900000000001
 31
0.0
  0
TEXT
  5
24
  8
0
 62
     7
 10
52.898909000000003
 20
151.0449999999999
 30
0.0
 40
3.0923400000000001
  1
G1 1/4
 41
0.5
 72
     1
 11
56.455100000000002
 21
151.0449999999999
 31
0.0
  0
TEXT
  5
25
  8
0
 62
     7
 10
107.6442875
 20
93.846699999999984
 30
0.0
 40
3.0923400000000001
  1
440
 41
0.5
 72
     1
 11
109.577
 21
93.846699999999984
 31
0.0
  0
TEXT
  5
26
  8
0
 62
     7
 10
177.43899999999999
 20
120.83644
 30
0.0
 40
3.0923400000000001
  1
%%c65
 50
90.0
 41
0.5
 72
     1
 11
177.43899999999999
 21
122.8979999999999
 31
0.0
  0
TEXT
  5
27
  8
0
 62
     7
 10
171.72799999999989
 20
120.83644
 30
0.0
 40
3.0923400000000001
  1
%%c32
 50
90.0
 41
0.5
 72
     1
 11
171.72799999999989
 21
122.8979999999999
 31
0.0
  0
TEXT
  5
28
  8
0
 62
     7
 10
44.550899999999999
 20
130.98465300000001
 30
0.0
 40
3.0923400000000001
  1
35～95
 50
90.0
 41
0.5
 72
     1
 11
44.550899999999999
 21
134.74700000000001
 31
0.0
  0
TEXT
  5
29
  8
0
 62
     7
 10
44.7271
 20
110.7303724999999
 30
0.0
 40
3.0923400000000001
  1
90
 50
90.0
 41
0.5
 72
     1
 11
44.7271
 21
111.89
 31
0.0
  0
ARC
  5
2A
  8
0
 62
     7
 10
61.220213000000001
 20
203.42905500000001
 30
0.0
 40
2.7616640000000001
 50
236.307185
 51
269.8506910000001
  0
LINE
  5
2B
  8
0
 62
     7
 10
61.213000000000001
 20
200.667
 30
0.0
 11
66.125399999999999
 21
200.667
 31
0.0
  0
ARC
  5
2C
  8
0
 62
     7
 10
56.384446999999987
 20
196.03519199999991
 30
0.0
 40
6.0733019999999991
 50
57.044955000000009
 51
89.970131999999992
  0
ARC
  5
2D
  8
0
 62
     7
 10
56.387526999999999
 20
196.04947799999991
 30
0.0
 40
6.0590149999999996
 50
89.999185999999995
 51
179.999156
  0
ARC
  5
2E
  8
0
 62
     7
 10
61.220213000000001
 20
188.67007599999999
 30
0.0
 40
2.7616640000000001
 50
90.149309000000017
 51
123.692815
  0
LINE
  5
2F
  8
0
 62
     7
 10
61.213000000000001
 20
191.43199999999999
 30
0.0
 11
66.125399999999999
 21
191.43199999999999
 31
0.0
  0
ARC
  5
30
  8
0
 62
     7
 10
56.387698
 20
196.04965200000001
 30
0.0
 40
3.7500969999999998
 50
269.99870399999998
 51
359.99867399999988
  0
ARC
  5
31
  8
0
 62
     7
 10
56.387526000000001
 20
196.04965100000001
 30
0.0
 40
3.7500960000000001
 50
180.00132600000001
 51
270.00133599999992
  0
ARC
  5
32
  8
0
 62
     7
 10
56.387441000000003
 20
196.0493929999999
 30
0.0
 40
3.7500110000000002
 50
89.997367999999994
 51
179.9973379999999
  0
ARC
  5
33
  8
0
 62
     7
 10
56.387783999999989
 20
196.0493929999999
 30
0.0
 40
3.7500110000000002
 50
0.002642
 51
90.002611999999985
  0
ARC
  5
34
  8
0
 62
     7
 10
56.384446999999987
 20
196.06393899999989
 30
0.0
 40
6.0733019999999991
 50
270.02986800000002
 51
302.95504499999998
  0
ARC
  5
35
  8
0
 62
     7
 10
56.387524999999989
 20
196.04965100000001
 30
0.0
 40
6.0590129999999993
 50
180.00082399999999
 51
270.000834
  0
ARC
  5
36
  8
0
 62
     7
 10
56.387698
 20
196.04965300000001
 30
0.0
 40
5.0296139999999987
 50
269.99903899999998
 51
359.99900899999989
  0
ARC
  5
37
  8
0
 62
     7
 10
56.387524999999989
 20
196.04965100000001
 30
0.0
 40
5.0296120000000002
 50
180.00099099999991
 51
270.00100099999992
  0
ARC
  5
38
  8
0
 62
     7
 10
56.387441000000003
 20
196.0493919999999
 30
0.0
 40
5.0295279999999991
 50
89.998037999999994
 51
179.998008
  0
ARC
  5
39
  8
0
 62
     7
 10
56.387783999999989
 20
196.0493919999999
 30
0.0
 40
5.0295279999999991
 50
0.001972
 51
90.001942000000014
  0
ARC
  5
3A
  8
0
 62
     7
 10
56.387524999999989
 20
196.04947999999999
 30
0.0
 40
5.7794439999999989
 50
270.00087400000001
 51
0.000844
  0
ARC
  5
3B
  8
0
 62
     7
 10
56.387610999999993
 20
196.049565
 30
0.0
 40
5.7795279999999991
 50
179.99996999999991
 51
270.00002000000001
  0
ARC
  5
3C
  8
0
 62
     7
 10
56.387613000000002
 20
196.049565
 30
0.0
 40
5.7795300000000003
 50
90.0
 51
179.99996999999991
  0
ARC
  5
3D
  8
0
 62
     7
 10
56.387524999999989
 20
196.04965100000001
 30
0.0
 40
5.7794439999999989
 50
359.99915600000003
 51
89.999126000000004
  0
ARC
  5
3E
  8
0
 62
     7
 10
29.536377000000002
 20
123.1751159999999
 30
0.0
 40
8.1309850000000008
 50
330.27546299999989
 51
0.011324
  0
ARC
  5
3F
  8
0
 62
     7
 10
29.438600999999998
 20
123.13466699999989
 30
0.0
 40
8.2288679999999985
 50
0.292828
 51
45.435558999999998
  0
ARC
  5
40
  8
0
 62
     7
 10
29.548062999999988
 20
123.1751129999999
 30
0.0
 40
8.1309749999999994
 50
179.98863700000001
 51
209.72457700000001
  0
ARC
  5
41
  8
0
 62
     7
 10
29.648458000000002
 20
123.132462
 30
0.0
 40
8.2314889999999998
 50
133.73304400000001
 51
179.69189900000001
  0
ARC
  5
42
  8
0
 62
     7
 10
24.844895000000001
 20
130.20479199999991
 30
0.0
 40
1.032108
 50
91.439377000000022
 51
168.36071100000001
  0
LINE
  5
43
  8
0
 62
     7
 10
24.818999999999999
 20
131.23699999999999
 30
0.0
 11
34.406700000000001
 21
131.23699999999999
 31
0.0
  0
ARC
  5
44
  8
0
 62
     7
 10
34.379740999999989
 20
130.20351999999991
 30
0.0
 40
1.0334069999999991
 50
11.696469
 51
88.503403000000006
  0
ARC
  5
45
  8
0
 62
     7
 10
34.380805000000002
 20
129.621129
 30
0.0
 40
1.032108
 50
271.43939699999999
 51
348.36073099999999
  0
LINE
  5
46
  8
0
 62
     7
 10
34.406700000000001
 20
128.58899999999991
 30
0.0
 11
24.818999999999999
 21
128.58899999999991
 31
0.0
  0
ARC
  5
47
  8
0
 62
     7
 10
24.845974999999999
 20
129.62237599999989
 30
0.0
 40
1.0333829999999991
 50
191.685596
 51
268.50252299999988
  0
LINE
  5
48
  8
0
 62
     7
 10
35.6721
 20
129.4129999999999
 30
0.0
 11
23.553899999999992
 21
129.4129999999999
 31
0.0
  0
LINE
  5
49
  8
0
 62
     7
 10
23.553899999999992
 20
129.4129999999999
 30
0.0
 11
23.553899999999992
 21
130.4129999999999
 31
0.0
  0
LINE
  5
4A
  8
0
 62
     7
 10
23.553899999999992
 20
130.4129999999999
 30
0.0
 11
35.6721
 21
130.4129999999999
 31
0.0
  0
LINE
  5
4B
  8
0
 62
     7
 10
35.6721
 20
130.4129999999999
 30
0.0
 11
35.6721
 21
129.4129999999999
 31
0.0
  0
LINE
  5
4C
  8
0
 62
     7
 10
23.678599999999989
 20
147.03700000000001
 30
0.0
 11
23.678599999999989
 21
147.0079999999999
 31
0.0
  0
ARC
  5
4D
  8
0
 62
     7
 10
24.717366999999999
 20
147.04660399999989
 30
0.0
 40
1.039436
 50
182.11068599999999
 51
267.90906999999999
  0
LINE
  5
4E
  8
0
 62
     7
 10
24.679400000000001
 20
146.0079999999999
 30
0.0
 11
34.37019999999999
 21
146.0079999999999
 31
0.0
  0
ARC
  5
4F
  8
0
 62
     7
 10
34.331558000000001
 20
147.046618
 30
0.0
 40
1.0394769999999991
 50
272.13110699999999
 51
357.88863599999991
  0
LINE
  5
50
  8
0
 62
     7
 10
35.3703
 20
147.0079999999999
 30
0.0
 11
35.3703
 21
147.03700000000001
 31
0.0
  0
ARC
  5
51
  8
0
 62
     7
 10
42.202562999999991
 20
115.014816
 30
0.0
 40
6.7501479999999994
 50
161.80449499999989
 51
165.996477
  0
ARC
  5
52
  8
0
 62
     7
 10
37.795828999999991
 20
116.09353899999989
 30
0.0
 40
2.213435
 50
165.48697799999999
 51
177.867546
  0
ARC
  5
53
  8
0
 62
     7
 10
17.021386
 20
115.0292749999999
 30
0.0
 40
6.6914949999999989
 50
14.001153
 51
18.230240999999989
  0
ARC
  5
54
  8
0
 62
     7
 10
21.372741000000001
 20
116.093628
 30
0.0
 40
2.211994999999999
 50
2.1315349999999991
 51
14.520293999999989
  0
LINE
  5
55
  8
0
 62
     7
 10
27.506799999999998
 20
147.0739999999999
 30
0.0
 11
25.8537
 21
147.0739999999999
 31
0.0
  0
ARC
  5
56
  8
0
 62
     7
 10
25.907692999999991
 20
747.00558799999999
 30
0.0
 40
629.9458229999999
 50
270.33063199999992
 51
270.95020499999998
  0
ARC
  5
57
  8
0
 62
     7
 10
34.93603499999999
 20
118.1800659999999
 30
0.0
 40
1.754945999999999
 50
323.91340099999991
 51
332.43490100000002
  0
ARC
  5
58
  8
0
 62
     7
 10
34.612262999999992
 20
118.399237
 30
0.0
 40
2.1438489999999999
 50
331.24646000000001
 51
351.191689
  0
ARC
  5
59
  8
0
 62
     7
 10
35.408431
 20
118.25058199999999
 30
0.0
 40
1.3345419999999999
 50
352.26446699999991
 51
13.326729
  0
ARC
  5
5A
  8
0
 62
     7
 10
41.307758999999997
 20
119.67905500000001
 30
0.0
 40
4.7352910000000001
 50
188.4163439999999
 51
193.69203300000001
  0
ARC
  5
5B
  8
0
 62
     7
 10
324.52293300000002
 20
168.63262299999991
 30
0.0
 40
292.14875299999989
 50
189.05330699999999
 51
189.78412800000001
  0
ARC
  5
5C
  8
0
 62
     7
 10
-89.609739000000005
 20
102.644139
 30
0.0
 40
127.2083149999999
 50
9.053922
 51
10.793003999999989
  0
ARC
  5
5D
  8
0
 62
     7
 10
23.587789000000001
 20
124.384309
 30
0.0
 40
11.943189
 50
10.034703
 51
15.511679999999989
  0
ARC
  5
5E
  8
0
 62
     7
 10
34.649970000000003
 20
127.487009
 30
0.0
 40
0.4552430000000001
 50
11.572364
 51
33.259593000000002
  0
ARC
  5
5F
  8
0
 62
     7
 10
34.947592
 20
127.6529629999999
 30
0.0
 40
0.117922
 50
45.229495
 51
83.283653999999999
  0
ARC
  5
60
  8
0
 62
     7
 10
34.528824999999991
 20
126.001482
 30
0.0
 40
1.820722999999999
 50
76.256512999999998
 51
85.791541000000024
  0
ARC
  5
61
  8
0
 62
     7
 10
33.39309999999999
 20
113.886872
 30
0.0
 40
13.988135
 50
84.793582000000001
 51
88.431956999999997
  0
ARC
  5
62
  8
0
 62
     7
 10
31.588158
 20
59.186236000000001
 30
0.0
 40
68.718365000000006
 50
88.175618
 51
89.878100000000003
  0
ARC
  5
63
  8
0
 62
     7
 10
30.852588000000001
 20
-82.894395999999986
 30
0.0
 40
210.8006859999999
 50
89.760326000000006
 51
90.356149999999985
  0
LINE
  5
64
  8
0
  6
AIGENLINE001
 62
     7
 10
29.542200000000001
 20
99.308599999999998
 30
0.0
 11
29.542200000000001
 21
150.0029999999999
 31
0.0
  0
LINE
  5
65
  8
0
  6
AIGENLINE001
 62
     7
 10
19.170000000000002
 20
123.17700000000001
 30
0.0
 11
39.543100000000003
 21
123.17700000000001
 31
0.0
  0
LINE
  5
66
  8
0
 62
     7
 10
35.253900000000002
 20
148.0449999999999
 30
0.0
 11
35.253900000000002
 21
147.0739999999999
 31
0.0
  0
LINE
  5
67
  8
0
 62
     7
 10
34.974499999999999
 20
148.0449999999999
 30
0.0
 11
34.974499999999999
 21
147.0739999999999
 31
0.0
  0
LINE
  5
68
  8
0
 62
     7
 10
34.694400000000002
 20
148.0449999999999
 30
0.0
 11
34.694400000000002
 21
147.0739999999999
 31
0.0
  0
LINE
  5
69
  8
0
 62
     7
 10
34.414999999999999
 20
148.0449999999999
 30
0.0
 11
34.414999999999999
 21
147.0739999999999
 31
0.0
  0
LINE
  5
6A
  8
0
 62
     7
 10
34.13559999999999
 20
148.0449999999999
 30
0.0
 11
34.13559999999999
 21
147.0739999999999
 31
0.0
  0
LINE
  5
6B
  8
0
 62
     7
 10
33.855899999999998
 20
148.0449999999999
 30
0.0
 11
33.855899999999998
 21
147.0739999999999
 31
0.0
  0
LINE
  5
6C
  8
0
 62
     7
 10
33.57609999999999
 20
148.0449999999999
 30
0.0
 11
33.57609999999999
 21
147.0739999999999
 31
0.0
  0
LINE
  5
6D
  8
0
 62
     7
 10
33.296399999999991
 20
148.0449999999999
 30
0.0
 11
33.296399999999991
 21
147.0739999999999
 31
0.0
  0
LINE
  5
6E
  8
0
 62
     7
 10
33.016999999999989
 20
148.0449999999999
 30
0.0
 11
33.016999999999989
 21
147.0739999999999
 31
0.0
  0
LINE
  5
6F
  8
0
 62
     7
 10
32.737200000000001
 20
148.0449999999999
 30
0.0
 11
32.737200000000001
 21
147.0739999999999
 31
0.0
  0
LINE
  5
70
  8
0
 62
     7
 10
32.457500000000003
 20
148.0449999999999
 30
0.0
 11
32.457500000000003
 21
147.0739999999999
 31
0.0
  0
LINE
  5
71
  8
0
 62
     7
 10
32.178100000000001
 20
148.0449999999999
 30
0.0
 11
32.178100000000001
 21
147.0739999999999
 31
0.0
  0
LINE
  5
72
  8
0
 62
     7
 10
31.898299999999999
 20
148.0449999999999
 30
0.0
 11
31.898299999999999
 21
147.0739999999999
 31
0.0
  0
LINE
  5
73
  8
0
 62
     7
 10
31.6189
 20
148.0449999999999
 30
0.0
 11
31.6189
 21
147.0739999999999
 31
0.0
  0
LINE
  5
74
  8
0
 62
     7
 10
31.339200000000002
 20
148.0449999999999
 30
0.0
 11
31.339200000000002
 21
147.0739999999999
 31
0.0
  0
LINE
  5
75
  8
0
 62
     7
 10
31.059499999999989
 20
148.0449999999999
 30
0.0
 11
31.059499999999989
 21
147.0739999999999
 31
0.0
  0
LINE
  5
76
  8
0
 62
     7
 10
30.780100000000001
 20
148.0449999999999
 30
0.0
 11
30.780100000000001
 21
147.0739999999999
 31
0.0
  0
LINE
  5
77
  8
0
 62
     7
 10
30.500299999999999
 20
148.0449999999999
 30
0.0
 11
30.500299999999999
 21
147.0739999999999
 31
0.0
  0
LINE
  5
78
  8
0
 62
     7
 10
30.220600000000001
 20
148.0449999999999
 30
0.0
 11
30.220600000000001
 21
147.0739999999999
 31
0.0
  0
LINE
  5
79
  8
0
 62
     7
 10
29.941199999999998
 20
148.0449999999999
 30
0.0
 11
29.941199999999998
 21
147.0739999999999
 31
0.0
  0
LINE
  5
7A
  8
0
 62
     7
 10
29.6614
 20
148.0449999999999
 30
0.0
 11
29.6614
 21
147.0739999999999
 31
0.0
  0
LINE
  5
7B
  8
0
 62
     7
 10
29.381699999999991
 20
148.0449999999999
 30
0.0
 11
29.381699999999991
 21
147.0739999999999
 31
0.0
  0
LINE
  5
7C
  8
0
 62
     7
 10
29.101900000000001
 20
148.0449999999999
 30
0.0
 11
29.101900000000001
 21
147.0739999999999
 31
0.0
  0
LINE
  5
7D
  8
0
 62
     7
 10
28.822500000000002
 20
148.0449999999999
 30
0.0
 11
28.822500000000002
 21
147.0739999999999
 31
0.0
  0
LINE
  5
7E
  8
0
 62
     7
 10
28.543099999999988
 20
148.0449999999999
 30
0.0
 11
28.543099999999988
 21
147.0739999999999
 31
0.0
  0
LINE
  5
7F
  8
0
 62
     7
 10
28.263400000000001
 20
148.0449999999999
 30
0.0
 11
28.263400000000001
 21
147.0739999999999
 31
0.0
  0
LINE
  5
80
  8
0
 62
     7
 10
27.983699999999999
 20
148.0449999999999
 30
0.0
 11
27.983699999999999
 21
147.0739999999999
 31
0.0
  0
LINE
  5
81
  8
0
 62
     7
 10
27.703900000000001
 20
148.0449999999999
 30
0.0
 11
27.703900000000001
 21
147.0739999999999
 31
0.0
  0
LINE
  5
82
  8
0
 62
     7
 10
27.424499999999991
 20
148.0449999999999
 30
0.0
 11
27.424499999999991
 21
147.0739999999999
 31
0.0
  0
LINE
  5
83
  8
0
 62
     7
 10
27.1448
 20
148.0449999999999
 30
0.0
 11
27.1448
 21
147.0739999999999
 31
0.0
  0
LINE
  5
84
  8
0
 62
     7
 10
26.864999999999998
 20
148.0449999999999
 30
0.0
 11
26.864999999999998
 21
147.0739999999999
 31
0.0
  0
LINE
  5
85
  8
0
 62
     7
 10
26.585599999999999
 20
148.0449999999999
 30
0.0
 11
26.585599999999999
 21
147.0739999999999
 31
0.0
  0
LINE
  5
86
  8
0
 62
     7
 10
26.305900000000001
 20
148.0449999999999
 30
0.0
 11
26.305900000000001
 21
147.0739999999999
 31
0.0
  0
LINE
  5
87
  8
0
 62
     7
 10
26.0261
 20
148.0449999999999
 30
0.0
 11
26.058
 21
147.0739999999999
 31
0.0
  0
LINE
  5
88
  8
0
 62
     7
 10
25.746400000000001
 20
148.0449999999999
 30
0.0
 11
25.746400000000001
 21
147.0739999999999
 31
0.0
  0
LINE
  5
89
  8
0
 62
     7
 10
25.466999999999992
 20
148.0449999999999
 30
0.0
 11
25.466999999999992
 21
147.0739999999999
 31
0.0
  0
LINE
  5
8A
  8
0
 62
     7
 10
25.1876
 20
148.0449999999999
 30
0.0
 11
25.1876
 21
147.0739999999999
 31
0.0
  0
LINE
  5
8B
  8
0
 62
     7
 10
24.907499999999999
 20
148.0449999999999
 30
0.0
 11
24.907499999999999
 21
147.0739999999999
 31
0.0
  0
LINE
  5
8C
  8
0
 62
     7
 10
24.6281
 20
148.0449999999999
 30
0.0
 11
24.6281
 21
147.0739999999999
 31
0.0
  0
LINE
  5
8D
  8
0
 62
     7
 10
24.348400000000002
 20
148.0449999999999
 30
0.0
 11
24.348400000000002
 21
147.0739999999999
 31
0.0
  0
LINE
  5
8E
  8
0
 62
     7
 10
24.068999999999999
 20
148.0449999999999
 30
0.0
 11
24.068999999999999
 21
147.0739999999999
 31
0.0
  0
LINE
  5
8F
  8
0
 62
     7
 10
23.789200000000001
 20
148.0449999999999
 30
0.0
 11
23.789200000000001
 21
147.0739999999999
 31
0.0
  0
LINE
  5
90
  8
0
 62
     7
 10
25.8537
 20
147.0739999999999
 30
0.0
 11
23.553899999999992
 21
147.0739999999999
 31
0.0
  0
LINE
  5
91
  8
0
 62
     7
 10
23.553899999999992
 20
147.0739999999999
 30
0.0
 11
23.553899999999992
 21
148.0739999999999
 31
0.0
  0
LINE
  5
92
  8
0
 62
     7
 10
23.553899999999992
 20
148.0739999999999
 30
0.0
 11
35.6721
 21
148.0739999999999
 31
0.0
  0
LINE
  5
93
  8
0
 62
     7
 10
35.6721
 20
148.0739999999999
 30
0.0
 11
35.6721
 21
147.0739999999999
 31
0.0
  0
LINE
  5
94
  8
0
 62
     7
 10
35.6721
 20
147.0739999999999
 30
0.0
 11
27.506799999999998
 21
147.0739999999999
 31
0.0
  0
LINE
  5
95
  8
0
 62
     7
 10
23.789200000000001
 20
148.0449999999999
 30
0.0
 11
23.789200000000001
 21
148.77000000000001
 31
0.0
  0
LINE
  5
96
  8
0
 62
     7
 10
23.789200000000001
 20
148.77000000000001
 30
0.0
 11
35.348300000000002
 21
148.77000000000001
 31
0.0
  0
LINE
  5
97
  8
0
 62
     7
 10
35.348300000000002
 20
148.77000000000001
 30
0.0
 11
35.348300000000002
 21
148.0449999999999
 31
0.0
  0
LINE
  5
98
  8
0
 62
     7
 10
35.5336
 20
130.3839999999999
 30
0.0
 11
35.5336
 21
129.4129999999999
 31
0.0
  0
LINE
  5
99
  8
0
 62
     7
 10
35.253900000000002
 20
130.3839999999999
 30
0.0
 11
35.253900000000002
 21
129.4129999999999
 31
0.0
  0
LINE
  5
9A
  8
0
 62
     7
 10
34.974499999999999
 20
130.3839999999999
 30
0.0
 11
34.974499999999999
 21
129.4129999999999
 31
0.0
  0
LINE
  5
9B
  8
0
 62
     7
 10
34.694400000000002
 20
130.3839999999999
 30
0.0
 11
34.694400000000002
 21
129.4129999999999
 31
0.0
  0
LINE
  5
9C
  8
0
 62
     7
 10
34.414999999999999
 20
130.3839999999999
 30
0.0
 11
34.414999999999999
 21
129.4129999999999
 31
0.0
  0
LINE
  5
9D
  8
0
 62
     7
 10
34.13559999999999
 20
130.3839999999999
 30
0.0
 11
34.13559999999999
 21
129.4129999999999
 31
0.0
  0
LINE
  5
9E
  8
0
 62
     7
 10
33.855899999999998
 20
130.3839999999999
 30
0.0
 11
33.855899999999998
 21
129.4129999999999
 31
0.0
  0
LINE
  5
9F
  8
0
 62
     7
 10
33.57609999999999
 20
130.3839999999999
 30
0.0
 11
33.57609999999999
 21
129.4129999999999
 31
0.0
  0
LINE
  5
A0
  8
0
 62
     7
 10
33.296399999999991
 20
130.3839999999999
 30
0.0
 11
33.296399999999991
 21
129.4129999999999
 31
0.0
  0
LINE
  5
A1
  8
0
 62
     7
 10
33.016999999999989
 20
130.3839999999999
 30
0.0
 11
33.016999999999989
 21
129.4129999999999
 31
0.0
  0
LINE
  5
A2
  8
0
 62
     7
 10
32.737200000000001
 20
130.3839999999999
 30
0.0
 11
32.737200000000001
 21
129.4129999999999
 31
0.0
  0
LINE
  5
A3
  8
0
 62
     7
 10
32.457500000000003
 20
130.3839999999999
 30
0.0
 11
32.457500000000003
 21
129.4129999999999
 31
0.0
  0
LINE
  5
A4
  8
0
 62
     7
 10
32.178100000000001
 20
130.3839999999999
 30
0.0
 11
32.178100000000001
 21
129.4129999999999
 31
0.0
  0
LINE
  5
A5
  8
0
 62
     7
 10
31.898299999999999
 20
130.3839999999999
 30
0.0
 11
31.898299999999999
 21
129.4129999999999
 31
0.0
  0
LINE
  5
A6
  8
0
 62
     7
 10
31.6189
 20
130.3839999999999
 30
0.0
 11
31.6189
 21
129.4129999999999
 31
0.0
  0
LINE
  5
A7
  8
0
 62
     7
 10
31.339200000000002
 20
130.3839999999999
 30
0.0
 11
31.339200000000002
 21
129.4129999999999
 31
0.0
  0
LINE
  5
A8
  8
0
 62
     7
 10
31.059499999999989
 20
130.3839999999999
 30
0.0
 11
31.059499999999989
 21
129.4129999999999
 31
0.0
  0
LINE
  5
A9
  8
0
 62
     7
 10
30.780100000000001
 20
130.3839999999999
 30
0.0
 11
30.780100000000001
 21
129.4129999999999
 31
0.0
  0
LINE
  5
AA
  8
0
 62
     7
 10
30.500299999999999
 20
130.3839999999999
 30
0.0
 11
30.500299999999999
 21
129.4129999999999
 31
0.0
  0
LINE
  5
AB
  8
0
 62
     7
 10
30.220600000000001
 20
130.3839999999999
 30
0.0
 11
30.220600000000001
 21
129.4129999999999
 31
0.0
  0
LINE
  5
AC
  8
0
 62
     7
 10
29.941199999999998
 20
130.3839999999999
 30
0.0
 11
29.941199999999998
 21
129.4129999999999
 31
0.0
  0
LINE
  5
AD
  8
0
 62
     7
 10
29.6614
 20
130.3839999999999
 30
0.0
 11
29.6614
 21
129.4129999999999
 31
0.0
  0
LINE
  5
AE
  8
0
 62
     7
 10
29.381699999999991
 20
130.3839999999999
 30
0.0
 11
29.381699999999991
 21
129.4129999999999
 31
0.0
  0
LINE
  5
AF
  8
0
 62
     7
 10
29.101900000000001
 20
130.3839999999999
 30
0.0
 11
29.101900000000001
 21
129.4129999999999
 31
0.0
  0
LINE
  5
B0
  8
0
 62
     7
 10
28.822500000000002
 20
130.3839999999999
 30
0.0
 11
28.822500000000002
 21
129.4129999999999
 31
0.0
  0
LINE
  5
B1
  8
0
 62
     7
 10
28.543099999999988
 20
130.3839999999999
 30
0.0
 11
28.543099999999988
 21
129.4129999999999
 31
0.0
  0
LINE
  5
B2
  8
0
 62
     7
 10
28.263400000000001
 20
130.3839999999999
 30
0.0
 11
28.263400000000001
 21
129.4129999999999
 31
0.0
  0
LINE
  5
B3
  8
0
 62
     7
 10
27.983699999999999
 20
130.3839999999999
 30
0.0
 11
27.983699999999999
 21
129.4129999999999
 31
0.0
  0
LINE
  5
B4
  8
0
 62
     7
 10
27.703900000000001
 20
130.3839999999999
 30
0.0
 11
27.703900000000001
 21
129.4129999999999
 31
0.0
  0
LINE
  5
B5
  8
0
 62
     7
 10
27.424499999999991
 20
130.3839999999999
 30
0.0
 11
27.424499999999991
 21
129.4129999999999
 31
0.0
  0
LINE
  5
B6
  8
0
 62
     7
 10
27.1448
 20
130.3839999999999
 30
0.0
 11
27.1448
 21
129.4129999999999
 31
0.0
  0
LINE
  5
B7
  8
0
 62
     7
 10
26.864999999999998
 20
130.3839999999999
 30
0.0
 11
26.864999999999998
 21
129.4129999999999
 31
0.0
  0
LINE
  5
B8
  8
0
 62
     7
 10
26.585599999999999
 20
130.3839999999999
 30
0.0
 11
26.585599999999999
 21
129.4129999999999
 31
0.0
  0
LINE
  5
B9
  8
0
 62
     7
 10
26.305900000000001
 20
130.3839999999999
 30
0.0
 11
26.305900000000001
 21
129.4129999999999
 31
0.0
  0
LINE
  5
BA
  8
0
 62
     7
 10
26.0261
 20
130.3839999999999
 30
0.0
 11
26.0261
 21
129.4129999999999
 31
0.0
  0
LINE
  5
BB
  8
0
 62
     7
 10
25.746400000000001
 20
130.3839999999999
 30
0.0
 11
25.746400000000001
 21
129.4129999999999
 31
0.0
  0
LINE
  5
BC
  8
0
 62
     7
 10
25.466999999999992
 20
130.3839999999999
 30
0.0
 11
25.466999999999992
 21
129.4129999999999
 31
0.0
  0
LINE
  5
BD
  8
0
 62
     7
 10
25.1876
 20
130.3839999999999
 30
0.0
 11
25.1876
 21
129.4129999999999
 31
0.0
  0
LINE
  5
BE
  8
0
 62
     7
 10
24.907499999999999
 20
130.3839999999999
 30
0.0
 11
24.907499999999999
 21
129.4129999999999
 31
0.0
  0
LINE
  5
BF
  8
0
 62
     7
 10
24.6281
 20
130.3839999999999
 30
0.0
 11
24.6281
 21
129.4129999999999
 31
0.0
  0
LINE
  5
C0
  8
0
 62
     7
 10
24.348400000000002
 20
130.3839999999999
 30
0.0
 11
24.348400000000002
 21
129.4129999999999
 31
0.0
  0
LINE
  5
C1
  8
0
 62
     7
 10
24.068999999999999
 20
130.3839999999999
 30
0.0
 11
24.068999999999999
 21
129.4129999999999
 31
0.0
  0
LINE
  5
C2
  8
0
 62
     7
 10
23.789200000000001
 20
130.3839999999999
 30
0.0
 11
23.789200000000001
 21
129.4129999999999
 31
0.0
  0
ARC
  5
C3
  8
0
 62
     7
 10
33.177624000000002
 20
747.10781500000007
 30
0.0
 40
630.04805099999987
 50
269.04989
 51
269.66940899999992
  0
ARC
  5
C4
  8
0
 62
     7
 10
24.118794000000001
 20
118.1602389999999
 30
0.0
 40
1.7193309999999999
 50
207.79046099999999
 51
216.134083
  0
ARC
  5
C5
  8
0
 62
     7
 10
24.341785999999999
 20
118.330832
 30
0.0
 40
1.996691999999999
 50
179.15596799999989
 51
209.137823
  0
ARC
  5
C6
  8
0
 62
     7
 10
23.537817999999991
 20
118.2684239999999
 30
0.0
 40
1.196037
 50
165.97890699999991
 51
175.59703300000001
  0
ARC
  5
C7
  8
0
 62
     7
 10
17.775414999999992
 20
119.6793629999999
 30
0.0
 40
4.7366029999999988
 50
346.30801799999989
 51
351.58225599999997
  0
ARC
  5
C8
  8
0
 62
     7
 10
-265.82024999999987
 20
168.695953
 30
0.0
 40
292.53573499999999
 50
350.21637500000003
 51
350.9462299999999
  0
ARC
  5
C9
  8
0
 62
     7
 10
148.67844199999999
 20
102.64707199999999
 30
0.0
 40
127.192297
 50
169.2069459999999
 51
170.946246
  0
ARC
  5
CA
  8
0
 62
     7
 10
35.501696000000003
 20
124.3831669999999
 30
0.0
 40
11.948346000000001
 50
164.48948300000001
 51
169.9640939999999
  0
ARC
  5
CB
  8
0
 62
     7
 10
24.434926999999998
 20
127.4868249999999
 30
0.0
 40
0.4557170000000001
 50
146.751813
 51
168.41619
  0
ARC
  5
CC
  8
0
 62
     7
 10
24.142431999999999
 20
127.64142199999991
 30
0.0
 40
0.130108
 50
98.574168000000014
 51
132.933558
  0
ARC
  5
CD
  8
0
 62
     7
 10
24.584372999999989
 20
125.84358899999989
 30
0.0
 40
1.9809559999999999
 50
94.000534000000002
 51
103.4670959999999
  0
ARC
  5
CE
  8
0
 62
     7
 10
25.789265
 20
112.29951299999991
 30
0.0
 40
15.578210999999991
 50
91.46180099999998
 51
94.945956999999993
  0
ARC
  5
CF
  8
0
 62
     7
 10
27.611032000000002
 20
52.529780000000002
 30
0.0
 40
75.375550000000004
 50
90.061498000000014
 51
91.687112999999997
  0
ARC
  5
D0
  8
0
 62
     7
 10
28.198859999999989
 20
-93.294644999999974
 30
0.0
 40
221.200942
 50
89.652028000000001
 51
90.173209999999997
  0
LINE
  5
D1
  8
0
 62
     7
 10
24.872199999999999
 20
128.58899999999991
 30
0.0
 11
24.5732
 21
127.8429999999999
 31
0.0
  0
LINE
  5
D2
  8
0
 62
     7
 10
34.476100000000002
 20
127.8429999999999
 30
0.0
 11
34.177300000000002
 21
128.58899999999991
 31
0.0
  0
LINE
  5
D3
  8
0
 62
     7
 10
33.525100000000002
 20
146.0079999999999
 30
0.0
 11
33.525100000000002
 21
131.18199999999999
 31
0.0
  0
LINE
  5
D4
  8
0
 62
     7
 10
25.5245
 20
131.23699999999999
 30
0.0
 11
25.5245
 21
146.0079999999999
 31
0.0
  0
LINE
  5
D5
  8
0
 62
     7
 10
23.583200000000001
 20
116.176
 30
0.0
 11
24.2302
 21
105.3299999999999
 31
0.0
  0
ARC
  5
D6
  8
0
 62
     7
 10
27.549359999999989
 20
105.620671
 30
0.0
 40
3.3318660000000002
 50
185.00516400000001
 51
191.0117129999999
  0
ARC
  5
D7
  8
0
 62
     7
 10
29.843108000000001
 20
105.976831
 30
0.0
 40
5.652105999999999
 50
190.11429699999991
 51
214.17402299999989
  0
ARC
  5
D8
  8
0
 62
     7
 10
28.120640000000002
 20
104.939701
 30
0.0
 40
3.6461260000000002
 50
215.8945049999999
 51
234.34173699999999
  0
ARC
  5
D9
  8
0
 62
     7
 10
32.262540000000001
 20
110.869017
 30
0.0
 40
10.878645000000001
 50
234.82189500000001
 51
242.28044299999999
  0
ARC
  5
DA
  8
0
 62
     7
 10
29.530799999999989
 20
105.7731219999999
 30
0.0
 40
5.0971529999999987
 50
242.81892599999989
 51
269.93093799999991
  0
ARC
  5
DB
  8
0
 62
     7
 10
29.527011999999988
 20
110.1982939999999
 30
0.0
 40
9.5223220000000008
 50
269.98582900000002
 51
273.50349899999998
  0
ARC
  5
DC
  8
0
 62
     7
 10
29.750256
 20
105.89291799999999
 30
0.0
 40
5.2115049999999998
 50
273.946259
 51
300.41252900000001
  0
ARC
  5
DD
  8
0
 62
     7
 10
28.169553999999991
 20
108.931984
 30
0.0
 40
8.6343700000000005
 50
299.24958700000002
 51
305.34417300000001
  0
ARC
  5
DE
  8
0
 62
     7
 10
31.192467999999991
 20
104.68652899999999
 30
0.0
 40
3.4226860000000001
 50
305.17966499999989
 51
327.8019809999999
  0
ARC
  5
DF
  8
0
 62
     7
 10
29.712150999999999
 20
105.6974949999999
 30
0.0
 40
5.2144639999999987
 50
327.06898200000001
 51
347.45361099999991
  0
ARC
  5
E0
  8
0
 62
     7
 10
29.196943000000001
 20
105.946921
 30
0.0
 40
5.7730499999999987
 50
346.14789100000002
 51
353.86535299999991
  0
LINE
  5
E1
  8
0
 62
     7
 10
34.936900000000001
 20
105.3299999999999
 30
0.0
 11
35.5839
 21
116.176
 31
0.0
  0
ARC
  5
E2
  8
0
 62
     7
 10
51.689996999999998
 20
130.20534499999999
 30
0.0
 40
1.031547999999999
 50
91.424278999999984
 51
168.385672
  0
LINE
  5
E3
  8
0
 62
     7
 10
51.664400000000001
 20
131.23699999999999
 30
0.0
 11
61.251899999999992
 21
131.23699999999999
 31
0.0
  0
ARC
  5
E4
  8
0
 62
     7
 10
61.224961
 20
130.20352600000001
 30
0.0
 40
1.033401
 50
11.69619599999999
 51
88.503675999999999
  0
ARC
  5
E5
  8
0
 62
     7
 10
61.225566000000001
 20
129.6216719999999
 30
0.0
 40
1.032662
 50
271.46382199999988
 51
348.33630599999998
  0
LINE
  5
E6
  8
0
 62
     7
 10
61.251899999999992
 20
128.58899999999991
 30
0.0
 11
51.664400000000001
 21
128.58899999999991
 31
0.0
  0
ARC
  5
E7
  8
0
 62
     7
 10
51.691357000000004
 20
129.6223699999999
 30
0.0
 40
1.0333760000000001
 50
191.6853219999999
 51
268.50279599999988
  0
LINE
  5
E8
  8
0
 62
     7
 10
62.517699999999998
 20
129.4129999999999
 30
0.0
 11
50.399299999999997
 21
129.4129999999999
 31
0.0
  0
LINE
  5
E9
  8
0
 62
     7
 10
50.399299999999997
 20
129.4129999999999
 30
0.0
 11
50.399299999999997
 21
130.4129999999999
 31
0.0
  0
LINE
  5
EA
  8
0
 62
     7
 10
50.399299999999997
 20
130.4129999999999
 30
0.0
 11
62.517699999999998
 21
130.4129999999999
 31
0.0
  0
LINE
  5
EB
  8
0
 62
     7
 10
62.517699999999998
 20
130.4129999999999
 30
0.0
 11
62.517699999999998
 21
129.4129999999999
 31
0.0
  0
LINE
  5
EC
  8
0
 62
     7
 10
50.52389999999999
 20
147.03700000000001
 30
0.0
 11
50.52389999999999
 21
147.0079999999999
 31
0.0
  0
ARC
  5
ED
  8
0
 62
     7
 10
51.562587000000001
 20
147.04661599999989
 30
0.0
 40
1.0394419999999991
 50
182.111345
 51
267.918272
  0
LINE
  5
EE
  8
0
 62
     7
 10
51.524799999999999
 20
146.0079999999999
 30
0.0
 11
61.215400000000002
 21
146.0079999999999
 31
0.0
  0
ARC
  5
EF
  8
0
 62
     7
 10
61.176777000000001
 20
147.04697200000001
 30
0.0
 40
1.0398309999999991
 50
272.13017400000001
 51
357.86983599999991
  0
LINE
  5
F0
  8
0
 62
     7
 10
62.215899999999991
 20
147.0079999999999
 30
0.0
 11
62.215899999999991
 21
147.03700000000001
 31
0.0
  0
LINE
  5
F1
  8
0
 62
     7
 10
44.613399999999992
 20
100.676
 30
0.0
 11
53.988799999999998
 21
100.676
 31
0.0
  0
LINE
  5
F2
  8
0
 62
     7
 10
44.764299999999992
 20
123.17700000000001
 30
0.0
 11
48.92949999999999
 21
123.17700000000001
 31
0.0
  0
ARC
  5
F3
  8
0
 62
     7
 10
69.102377000000004
 20
114.99705899999999
 30
0.0
 40
6.8072339999999993
 50
161.80510100000001
 51
165.962266
  0
ARC
  5
F4
  8
0
 62
     7
 10
64.636837999999997
 20
116.093277
 30
0.0
 40
2.2092419999999988
 50
165.45180300000001
 51
177.856694
  0
ARC
  5
F5
  8
0
 62
     7
 10
43.782769999999992
 20
115.0059739999999
 30
0.0
 40
6.7785729999999988
 50
14.020609
 51
18.195181999999999
  0
ARC
  5
F6
  8
0
 62
     7
 10
48.218795999999998
 20
116.093408
 30
0.0
 40
2.2113360000000002
 50
2.1378590000000002
 51
14.530590999999999
  0
LINE
  5
F7
  8
0
 62
     7
 10
66.821299999999994
 20
190.34399999999999
 30
0.0
 11
66.125399999999999
 21
190.34399999999999
 31
0.0
  0
LINE
  5
F8
  8
0
 62
     7
 10
66.125399999999999
 20
190.34399999999999
 30
0.0
 11
66.125399999999999
 21
201.90299999999991
 31
0.0
  0
LINE
  5
F9
  8
0
 62
     7
 10
66.125399999999999
 20
201.90299999999991
 30
0.0
 11
66.821299999999994
 21
201.90299999999991
 31
0.0
  0
LINE
  5
FA
  8
0
 62
     7
 10
67.858999999999995
 20
190.23400000000001
 30
0.0
 11
67.887200000000007
 21
190.23400000000001
 31
0.0
  0
ARC
  5
FB
  8
0
 62
     7
 10
67.848637999999994
 20
191.27294900000001
 30
0.0
 40
1.039803
 50
272.1276519999999
 51
357.84275600000001
  0
LINE
  5
FC
  8
0
 62
     7
 10
68.887699999999995
 20
191.23400000000001
 30
0.0
 11
68.887699999999995
 21
200.92500000000001
 31
0.0
  0
ARC
  5
FD
  8
0
 62
     7
 10
67.848973000000001
 20
200.88648299999991
 30
0.0
 40
1.0394350000000001
 50
2.109893
 51
87.890096999999983
  0
LINE
  5
FE
  8
0
 62
     7
 10
67.887200000000007
 20
201.9249999999999
 30
0.0
 11
67.858999999999995
 21
201.9249999999999
 31
0.0
  0
LINE
  5
FF
  8
0
 62
     7
 10
66.850999999999999
 20
201.80799999999991
 30
0.0
 11
67.821799999999996
 21
201.80799999999991
 31
0.0
  0
LINE
  5
100
  8
0
 62
     7
 10
66.850999999999999
 20
201.529
 30
0.0
 11
67.821799999999996
 21
201.529
 31
0.0
  0
LINE
  5
101
  8
0
 62
     7
 10
66.850999999999999
 20
201.249
 30
0.0
 11
67.821799999999996
 21
201.249
 31
0.0
  0
LINE
  5
102
  8
0
 62
     7
 10
66.850999999999999
 20
200.96899999999999
 30
0.0
 11
67.821799999999996
 21
200.96899999999999
 31
0.0
  0
LINE
  5
103
  8
0
 62
     7
 10
66.850999999999999
 20
200.68999999999991
 30
0.0
 11
67.821799999999996
 21
200.68999999999991
 31
0.0
  0
LINE
  5
104
  8
0
 62
     7
 10
66.850999999999999
 20
200.41
 30
0.0
 11
67.821799999999996
 21
200.41
 31
0.0
  0
LINE
  5
105
  8
0
 62
     7
 10
66.850999999999999
 20
200.13
 30
0.0
 11
67.821799999999996
 21
200.13
 31
0.0
  0
LINE
  5
106
  8
0
 62
     7
 10
66.850999999999999
 20
199.85099999999991
 30
0.0
 11
67.821799999999996
 21
199.85099999999991
 31
0.0
  0
LINE
  5
107
  8
0
 62
     7
 10
66.850999999999999
 20
199.571
 30
0.0
 11
67.821799999999996
 21
199.571
 31
0.0
  0
LINE
  5
108
  8
0
 62
     7
 10
66.850999999999999
 20
199.29199999999989
 30
0.0
 11
67.821799999999996
 21
199.29199999999989
 31
0.0
  0
LINE
  5
109
  8
0
 62
     7
 10
66.850999999999999
 20
199.012
 30
0.0
 11
67.821799999999996
 21
199.012
 31
0.0
  0
LINE
  5
10A
  8
0
 62
     7
 10
66.850999999999999
 20
198.733
 30
0.0
 11
67.821799999999996
 21
198.733
 31
0.0
  0
LINE
  5
10B
  8
0
 62
     7
 10
66.850999999999999
 20
198.453
 30
0.0
 11
67.821799999999996
 21
198.453
 31
0.0
  0
LINE
  5
10C
  8
0
 62
     7
 10
66.850999999999999
 20
198.17299999999989
 30
0.0
 11
67.821799999999996
 21
198.17299999999989
 31
0.0
  0
LINE
  5
10D
  8
0
 62
     7
 10
66.850999999999999
 20
197.893
 30
0.0
 11
67.821799999999996
 21
197.893
 31
0.0
  0
LINE
  5
10E
  8
0
 62
     7
 10
66.850999999999999
 20
197.614
 30
0.0
 11
67.821799999999996
 21
197.614
 31
0.0
  0
LINE
  5
10F
  8
0
 62
     7
 10
66.850999999999999
 20
197.334
 30
0.0
 11
67.821799999999996
 21
197.334
 31
0.0
  0
LINE
  5
110
  8
0
 62
     7
 10
66.850999999999999
 20
197.05500000000001
 30
0.0
 11
67.821799999999996
 21
197.05500000000001
 31
0.0
  0
LINE
  5
111
  8
0
 62
     7
 10
66.850999999999999
 20
196.77500000000001
 30
0.0
 11
67.821799999999996
 21
196.77500000000001
 31
0.0
  0
LINE
  5
112
  8
0
 62
     7
 10
66.850999999999999
 20
196.4959999999999
 30
0.0
 11
67.821799999999996
 21
196.4959999999999
 31
0.0
  0
LINE
  5
113
  8
0
 62
     7
 10
66.850999999999999
 20
196.21599999999989
 30
0.0
 11
67.821799999999996
 21
196.21599999999989
 31
0.0
  0
LINE
  5
114
  8
0
 62
     7
 10
66.850999999999999
 20
195.93599999999989
 30
0.0
 11
67.821799999999996
 21
195.93599999999989
 31
0.0
  0
LINE
  5
115
  8
0
 62
     7
 10
66.850999999999999
 20
195.65599999999989
 30
0.0
 11
67.821799999999996
 21
195.65599999999989
 31
0.0
  0
LINE
  5
116
  8
0
 62
     7
 10
66.850999999999999
 20
195.37700000000001
 30
0.0
 11
67.821799999999996
 21
195.37700000000001
 31
0.0
  0
LINE
  5
117
  8
0
 62
     7
 10
66.850999999999999
 20
195.0979999999999
 30
0.0
 11
67.821799999999996
 21
195.0979999999999
 31
0.0
  0
LINE
  5
118
  8
0
 62
     7
 10
66.850999999999999
 20
194.8179999999999
 30
0.0
 11
67.821799999999996
 21
194.8179999999999
 31
0.0
  0
LINE
  5
119
  8
0
 62
     7
 10
66.850999999999999
 20
194.5379999999999
 30
0.0
 11
67.821799999999996
 21
194.5379999999999
 31
0.0
  0
LINE
  5
11A
  8
0
 62
     7
 10
66.850999999999999
 20
194.2579999999999
 30
0.0
 11
67.821799999999996
 21
194.2579999999999
 31
0.0
  0
LINE
  5
11B
  8
0
 62
     7
 10
66.850999999999999
 20
193.97900000000001
 30
0.0
 11
67.821799999999996
 21
193.97900000000001
 31
0.0
  0
LINE
  5
11C
  8
0
 62
     7
 10
66.850999999999999
 20
193.69900000000001
 30
0.0
 11
67.821799999999996
 21
193.69900000000001
 31
0.0
  0
LINE
  5
11D
  8
0
 62
     7
 10
66.850999999999999
 20
193.41900000000001
 30
0.0
 11
67.821799999999996
 21
193.41900000000001
 31
0.0
  0
LINE
  5
11E
  8
0
 62
     7
 10
66.850999999999999
 20
193.13999999999999
 30
0.0
 11
67.821799999999996
 21
193.13999999999999
 31
0.0
  0
LINE
  5
11F
  8
0
 62
     7
 10
66.850999999999999
 20
192.86000000000001
 30
0.0
 11
67.821799999999996
 21
192.86000000000001
 31
0.0
  0
LINE
  5
120
  8
0
 62
     7
 10
66.850999999999999
 20
192.58099999999999
 30
0.0
 11
67.821799999999996
 21
192.58099999999999
 31
0.0
  0
LINE
  5
121
  8
0
 62
     7
 10
66.850999999999999
 20
192.3009999999999
 30
0.0
 11
67.821799999999996
 21
192.3009999999999
 31
0.0
  0
LINE
  5
122
  8
0
 62
     7
 10
66.850999999999999
 20
192.0209999999999
 30
0.0
 11
67.821799999999996
 21
192.0209999999999
 31
0.0
  0
LINE
  5
123
  8
0
 62
     7
 10
66.850999999999999
 20
191.74199999999999
 30
0.0
 11
67.821799999999996
 21
191.74199999999999
 31
0.0
  0
LINE
  5
124
  8
0
 62
     7
 10
66.850999999999999
 20
191.46199999999999
 30
0.0
 11
67.821799999999996
 21
191.46199999999999
 31
0.0
  0
LINE
  5
125
  8
0
 62
     7
 10
66.850999999999999
 20
191.18299999999991
 30
0.0
 11
67.821799999999996
 21
191.18299999999991
 31
0.0
  0
LINE
  5
126
  8
0
 62
     7
 10
66.850999999999999
 20
190.90299999999991
 30
0.0
 11
67.821799999999996
 21
190.90299999999991
 31
0.0
  0
LINE
  5
127
  8
0
 62
     7
 10
66.850999999999999
 20
190.624
 30
0.0
 11
67.821799999999996
 21
190.624
 31
0.0
  0
LINE
  5
128
  8
0
 62
     7
 10
66.850999999999999
 20
190.34399999999999
 30
0.0
 11
67.821799999999996
 21
190.34399999999999
 31
0.0
  0
LINE
  5
129
  8
0
 62
     7
 10
67.821799999999996
 20
202.226
 30
0.0
 11
67.821799999999996
 21
190.108
 31
0.0
  0
LINE
  5
12A
  8
0
 62
     7
 10
67.821799999999996
 20
190.108
 30
0.0
 11
66.821299999999994
 21
190.108
 31
0.0
  0
LINE
  5
12B
  8
0
 62
     7
 10
66.821299999999994
 20
190.108
 30
0.0
 11
66.821299999999994
 21
202.226
 31
0.0
  0
LINE
  5
12C
  8
0
 62
     7
 10
66.821299999999994
 20
202.226
 30
0.0
 11
67.821799999999996
 21
202.226
 31
0.0
  0
LINE
  5
12D
  8
0
 62
     7
 10
157.40899999999991
 20
192.04900000000001
 30
0.0
 11
68.887699999999995
 21
192.04900000000001
 31
0.0
  0
LINE
  5
12E
  8
0
 62
     7
 10
68.887699999999995
 20
200.04900000000001
 30
0.0
 11
157.40100000000001
 21
200.04900000000001
 31
0.0
  0
LINE
  5
12F
  8
0
 62
     7
 10
66.821299999999994
 20
117.471
 30
0.0
 11
66.125399999999999
 21
117.471
 31
0.0
  0
LINE
  5
130
  8
0
 62
     7
 10
66.125399999999999
 20
117.471
 30
0.0
 11
66.125399999999999
 21
129.03100000000001
 31
0.0
  0
LINE
  5
131
  8
0
 62
     7
 10
66.125399999999999
 20
129.03100000000001
 30
0.0
 11
66.821299999999994
 21
129.03100000000001
 31
0.0
  0
LINE
  5
132
  8
0
 62
     7
 10
67.858999999999995
 20
117.3599999999999
 30
0.0
 11
67.887200000000007
 21
117.3599999999999
 31
0.0
  0
ARC
  5
133
  8
0
 62
     7
 10
67.848650000000006
 20
118.399411
 30
0.0
 40
1.039796999999999
 50
272.12699300000003
 51
357.83354300000002
  0
LINE
  5
134
  8
0
 62
     7
 10
68.887699999999995
 20
118.3599999999999
 30
0.0
 11
68.887699999999995
 21
128.05299999999991
 31
0.0
  0
ARC
  5
135
  8
0
 62
     7
 10
67.84898299999999
 20
128.01468399999999
 30
0.0
 40
1.039425
 50
2.109364999999999
 51
87.890625
  0
LINE
  5
136
  8
0
 62
     7
 10
67.887200000000007
 20
129.05299999999991
 30
0.0
 11
67.858999999999995
 21
129.05299999999991
 31
0.0
  0
LINE
  5
137
  8
0
 62
     7
 10
54.3521
 20
147.0739999999999
 30
0.0
 11
52.699100000000001
 21
147.0739999999999
 31
0.0
  0
LINE
  5
138
  8
0
 62
     7
 10
155.66699999999989
 20
137.298
 30
0.0
 11
157.3249999999999
 21
137.74199999999999
 31
0.0
  0
LINE
  5
139
  8
0
 62
     7
 10
157.3249999999999
 20
137.74199999999999
 30
0.0
 11
155.66699999999989
 21
138.18600000000001
 31
0.0
  0
LINE
  5
13A
  8
0
 62
     7
 10
155.66699999999989
 20
138.18600000000001
 30
0.0
 11
155.66699999999989
 21
137.298
 31
0.0
  0
LINE
  5
13B
  8
0
 62
     7
 10
162.733
 20
138.17500000000001
 30
0.0
 11
161.0749999999999
 21
137.73099999999999
 31
0.0
  0
LINE
  5
13C
  8
0
 62
     7
 10
161.0749999999999
 20
137.73099999999999
 30
0.0
 11
162.733
 21
137.28700000000001
 31
0.0
  0
LINE
  5
13D
  8
0
 62
     7
 10
162.733
 20
137.28700000000001
 30
0.0
 11
162.733
 21
138.17500000000001
 31
0.0
  0
LINE
  5
13E
  8
0
 62
     7
 10
164.7879999999999
 20
137.73699999999991
 30
0.0
 11
153.8249999999999
 21
137.73699999999991
 31
0.0
  0
LINE
  5
13F
  8
0
 62
     7
 10
157.3249999999999
 20
130.56399999999991
 30
0.0
 11
157.3249999999999
 21
138.297
 31
0.0
  0
LINE
  5
140
  8
0
 62
     7
 10
161.0749999999999
 20
132.27199999999999
 30
0.0
 11
161.0749999999999
 21
138.297
 31
0.0
  0
LINE
  5
141
  8
0
 62
     7
 10
67.229200000000006
 20
136.42199999999991
 30
0.0
 11
68.887699999999995
 21
136.86600000000001
 31
0.0
  0
LINE
  5
142
  8
0
 62
     7
 10
68.887699999999995
 20
136.86600000000001
 30
0.0
 11
67.229200000000006
 21
137.30999999999989
 31
0.0
  0
LINE
  5
143
  8
0
 62
     7
 10
67.229200000000006
 20
137.30999999999989
 30
0.0
 11
67.229200000000006
 21
136.42199999999991
 31
0.0
  0
LINE
  5
144
  8
0
 62
     7
 10
58.045200000000001
 20
137.29900000000001
 30
0.0
 11
56.387599999999999
 21
136.8549999999999
 31
0.0
  0
LINE
  5
145
  8
0
 62
     7
 10
56.387599999999999
 20
136.8549999999999
 30
0.0
 11
58.045200000000001
 21
136.41099999999989
 31
0.0
  0
LINE
  5
146
  8
0
 62
     7
 10
58.045200000000001
 20
136.41099999999989
 30
0.0
 11
58.045200000000001
 21
137.29900000000001
 31
0.0
  0
LINE
  5
147
  8
0
 62
     7
 10
68.887699999999995
 20
136.8609999999999
 30
0.0
 11
56.387599999999999
 21
136.8609999999999
 31
0.0
  0
LINE
  5
148
  8
0
 62
     7
 10
178.3829999999999
 20
116.80500000000001
 30
0.0
 11
178.82699999999991
 21
115.1459999999999
 31
0.0
  0
LINE
  5
149
  8
0
 62
     7
 10
178.82699999999991
 20
115.1459999999999
 30
0.0
 11
179.2709999999999
 21
116.80500000000001
 31
0.0
  0
LINE
  5
14A
  8
0
 62
     7
 10
179.2709999999999
 20
116.80500000000001
 30
0.0
 11
178.3829999999999
 21
116.80500000000001
 31
0.0
  0
LINE
  5
14B
  8
0
 62
     7
 10
179.25999999999999
 20
129.54900000000001
 30
0.0
 11
178.81599999999989
 21
131.20699999999999
 31
0.0
  0
LINE
  5
14C
  8
0
 62
     7
 10
178.81599999999989
 20
131.20699999999999
 30
0.0
 11
178.37200000000001
 21
129.54900000000001
 31
0.0
  0
LINE
  5
14D
  8
0
 62
     7
 10
178.37200000000001
 20
129.54900000000001
 30
0.0
 11
179.25999999999999
 21
129.54900000000001
 31
0.0
  0
LINE
  5
14E
  8
0
 62
     7
 10
178.822
 20
115.1459999999999
 30
0.0
 11
178.822
 21
131.20699999999999
 31
0.0
  0
LINE
  5
14F
  8
0
 62
     7
 10
172.87200000000001
 20
120.6849999999999
 30
0.0
 11
173.315
 21
119.0269999999999
 31
0.0
  0
LINE
  5
150
  8
0
 62
     7
 10
173.315
 20
119.0269999999999
 30
0.0
 11
173.75999999999999
 21
120.6849999999999
 31
0.0
  0
LINE
  5
151
  8
0
 62
     7
 10
173.75999999999999
 20
120.6849999999999
 30
0.0
 11
172.87200000000001
 21
120.6849999999999
 31
0.0
  0
LINE
  5
152
  8
0
 62
     7
 10
173.749
 20
125.532
 30
0.0
 11
173.30500000000001
 21
127.191
 31
0.0
  0
LINE
  5
153
  8
0
 62
     7
 10
173.30500000000001
 20
127.191
 30
0.0
 11
172.86000000000001
 21
125.532
 31
0.0
  0
LINE
  5
154
  8
0
 62
     7
 10
172.86000000000001
 20
125.532
 30
0.0
 11
173.749
 21
125.532
 31
0.0
  0
LINE
  5
155
  8
0
 62
     7
 10
173.31
 20
119.0269999999999
 30
0.0
 11
173.31
 21
127.191
 31
0.0
  0
LINE
  5
156
  8
0
 62
     7
 10
167.22399999999999
 20
127.14100000000001
 30
0.0
 11
174.26699999999991
 21
127.14100000000001
 31
0.0
  0
LINE
  5
157
  8
0
 62
     7
 10
161.72699999999989
 20
131.20699999999999
 30
0.0
 11
179.583
 21
131.20699999999999
 31
0.0
  0
LINE
  5
158
  8
0
 62
     7
 10
161.72699999999989
 20
115.14699999999991
 30
0.0
 11
179.583
 21
115.1459999999999
 31
0.0
  0
LINE
  5
159
  8
0
 62
     7
 10
167.22399999999999
 20
119.0209999999999
 30
0.0
 11
174.26699999999991
 21
119.0209999999999
 31
0.0
  0
LINE
  5
15A
  8
0
 62
     7
 10
44.809100000000001
 20
124.80200000000001
 30
0.0
 11
45.253199999999993
 21
123.1449999999999
 31
0.0
  0
LINE
  5
15B
  8
0
 62
     7
 10
45.253199999999993
 20
123.1449999999999
 30
0.0
 11
45.697400000000002
 21
124.80200000000001
 31
0.0
  0
LINE
  5
15C
  8
0
 62
     7
 10
45.697400000000002
 20
124.80200000000001
 30
0.0
 11
44.809100000000001
 21
124.80200000000001
 31
0.0
  0
LINE
  5
15D
  8
0
 62
     7
 10
44.809100000000001
 20
102.334
 30
0.0
 11
45.253199999999993
 21
100.676
 31
0.0
  0
LINE
  5
15E
  8
0
 62
     7
 10
45.253199999999993
 20
100.676
 30
0.0
 11
45.697400000000002
 21
102.334
 31
0.0
  0
LINE
  5
15F
  8
0
 62
     7
 10
45.697400000000002
 20
102.334
 30
0.0
 11
44.809100000000001
 21
102.334
 31
0.0
  0
LINE
  5
160
  8
0
 62
     7
 10
45.686599999999999
 20
121.45999999999989
 30
0.0
 11
45.2423
 21
123.117
 31
0.0
  0
LINE
  5
161
  8
0
 62
     7
 10
45.2423
 20
123.117
 30
0.0
 11
44.798099999999991
 21
121.45999999999989
 31
0.0
  0
LINE
  5
162
  8
0
 62
     7
 10
44.798099999999991
 20
121.45999999999989
 30
0.0
 11
45.686599999999999
 21
121.45999999999989
 31
0.0
  0
LINE
  5
163
  8
0
 62
     7
 10
45.686599999999999
 20
145.357
 30
0.0
 11
45.2423
 21
147.0149999999999
 31
0.0
  0
LINE
  5
164
  8
0
 62
     7
 10
45.2423
 20
147.0149999999999
 30
0.0
 11
44.798099999999991
 21
145.357
 31
0.0
  0
LINE
  5
165
  8
0
 62
     7
 10
44.798099999999991
 20
145.357
 30
0.0
 11
45.686599999999999
 21
145.357
 31
0.0
  0
LINE
  5
166
  8
0
 62
     7
 10
45.247700000000002
 20
100.676
 30
0.0
 11
45.247700000000002
 21
147.0739999999999
 31
0.0
  0
LINE
  5
167
  8
0
 62
     7
 10
44.704500000000003
 20
147.0739999999999
 30
0.0
 11
48.869700000000002
 21
147.0739999999999
 31
0.0
  0
LINE
  5
168
  8
0
 62
     7
 10
164.625
 20
92.579299999999989
 30
0.0
 11
166.2829999999999
 21
93.023300000000006
 31
0.0
  0
LINE
  5
169
  8
0
 62
     7
 10
166.2829999999999
 20
93.023300000000006
 30
0.0
 11
164.625
 21
93.467799999999997
 31
0.0
  0
LINE
  5
16A
  8
0
 62
     7
 10
164.625
 20
93.467799999999997
 30
0.0
 11
164.625
 21
92.579299999999989
 31
0.0
  0
LINE
  5
16B
  8
0
 62
     7
 10
58.018999999999991
 20
93.456699999999998
 30
0.0
 11
56.3613
 21
93.012299999999996
 31
0.0
  0
LINE
  5
16C
  8
0
 62
     7
 10
56.3613
 20
93.012299999999996
 30
0.0
 11
58.018999999999991
 21
92.568600000000004
 31
0.0
  0
LINE
  5
16D
  8
0
 62
     7
 10
58.018999999999991
 20
92.568600000000004
 30
0.0
 11
58.018999999999991
 21
93.456699999999998
 31
0.0
  0
LINE
  5
16E
  8
0
 62
     7
 10
166.2829999999999
 20
93.017799999999994
 30
0.0
 11
56.387599999999999
 21
93.017799999999994
 31
0.0
  0
LINE
  5
16F
  8
0
 62
     7
 10
56.387599999999999
 20
92.368799999999993
 30
0.0
 11
56.387599999999999
 21
97.967799999999997
 31
0.0
  0
LINE
  5
170
  8
0
  6
AIGENLINE001
 62
     7
 10
56.387599999999999
 20
187.72099999999989
 30
0.0
 11
56.387599999999999
 21
204.33699999999999
 31
0.0
  0
LINE
  5
171
  8
0
  6
AIGENLINE001
 62
     7
 10
47.242699999999992
 20
196.05000000000001
 30
0.0
 11
169.84
 21
196.05000000000001
 31
0.0
  0
LINE
  5
172
  8
0
 62
     7
 10
68.887699999999995
 20
129.62299999999991
 30
0.0
 11
68.887699999999995
 21
137.35599999999991
 31
0.0
  0
LINE
  5
173
  8
0
  6
AIGENLINE001
 62
     7
 10
56.387599999999999
 20
98.704999999999984
 30
0.0
 11
56.387599999999999
 21
150.5749999999999
 31
0.0
  0
LINE
  5
174
  8
0
  6
AIGENLINE001
 62
     7
 10
49.355299999999993
 20
123.17700000000001
 30
0.0
 11
167.89899999999989
 21
123.17700000000001
 31
0.0
  0
LINE
  5
175
  8
0
 62
     7
 10
166.38799999999989
 20
118.294
 30
0.0
 11
166.38799999999989
 21
92.184399999999997
 31
0.0
  0
LINE
  5
176
  8
0
 62
     7
 10
161.0749999999999
 20
196.05000000000001
 30
0.0
 11
161.0749999999999
 21
204.07900000000001
 31
0.0
  0
ARC
  5
177
  8
0
 62
     7
 10
160.30807799999991
 20
200.68022099999999
 30
0.0
 40
3.4837669999999989
 50
77.287114000000003
 51
83.057202000000004
  0
ARC
  5
178
  8
0
 62
     7
 10
160.14894399999989
 20
199.95333600000001
 30
0.0
 40
4.2251389999999986
 50
82.106515999999999
 51
96.276538000000002
  0
ARC
  5
179
  8
0
 62
     7
 10
159.92765900000001
 20
202.19944199999989
 30
0.0
 40
1.968470999999999
 50
97.021763000000036
 51
116.555404
  0
ARC
  5
17A
  8
0
 62
     7
 10
160.01833400000001
 20
202.16760599999989
 30
0.0
 40
2.038583
 50
118.4353629999999
 51
137.044567
  0
ARC
  5
17B
  8
0
 62
     7
 10
161.16480000000001
 20
201.02893399999999
 30
0.0
 40
3.6539589999999991
 50
136.22694300000001
 51
160.33918099999991
  0
ARC
  5
17C
  8
0
 62
     7
 10
161.6162239999999
 20
200.75443499999989
 30
0.0
 40
4.172782999999999
 50
158.87511599999991
 51
169.15289799999999
  0
ARC
  5
17D
  8
0
 62
     7
 10
160.76833600000001
 20
200.942196
 30
0.0
 40
3.3048029999999988
 50
169.58362399999999
 51
175.695562
  0
ARC
  5
17E
  8
0
 62
     7
 10
176.877636
 20
199.472994
 30
0.0
 40
19.480617999999989
 50
174.94270499999999
 51
177.98929099999989
  0
ARC
  5
17F
  8
0
 62
     7
 10
254.143316
 20
196.49793500000001
 30
0.0
 40
96.803464000000005
 50
177.83404899999991
 51
180.159673
  0
LINE
  5
180
  8
0
 62
     7
 10
157.34
 20
196.22799999999989
 30
0.0
 11
157.3249999999999
 21
196.04900000000001
 31
0.0
  0
ARC
  5
181
  8
0
 62
     7
 10
277.674352
 20
196.538274
 30
0.0
 40
120.35027700000001
 50
180.23292799999999
 51
182.39373299999991
  0
ARC
  5
182
  8
0
 62
     7
 10
166.04875899999999
 20
191.834765
 30
0.0
 40
8.6257199999999994
 50
182.14631800000001
 51
188.5094859999999
  0
ARC
  5
183
  8
0
 62
     7
 10
161.54767699999991
 20
191.32115499999989
 30
0.0
 40
4.1012349999999991
 50
190.71849800000001
 51
224.15820699999989
  0
ARC
  5
184
  8
0
 62
     7
 10
160.09700699999999
 20
190.02643
 30
0.0
 40
2.160083999999999
 50
226.3267689999999
 51
240.93482
  0
ARC
  5
185
  8
0
 62
     7
 10
159.81430900000001
 20
189.5625409999999
 30
0.0
 40
1.617424999999999
 50
241.70486699999989
 51
261.72430800000001
  0
ARC
  5
186
  8
0
 62
     7
 10
160.14456199999989
 20
191.33090599999991
 30
0.0
 40
3.4156759999999999
 50
260.51175099999989
 51
277.11689399999989
  0
ARC
  5
187
  8
0
 62
     7
 10
160.12337099999991
 20
192.45965200000001
 30
0.0
 40
4.5399050000000001
 50
275.61718999999999
 51
282.096338
  0
LINE
  5
188
  8
0
 62
     7
 10
161.0749999999999
 20
188.0209999999999
 30
0.0
 11
161.0749999999999
 21
196.04900000000001
 31
0.0
  0
LINE
  5
189
  8
0
 62
     7
 10
161.0749999999999
 20
196.04900000000001
 30
0.0
 11
161.0749999999999
 21
196.05000000000001
 31
0.0
  0
LINE
  5
18A
  8
0
 62
     7
 10
161.0749999999999
 20
200.04900000000001
 30
0.0
 11
166.50099999999989
 21
200.04900000000001
 31
0.0
  0
LINE
  5
18B
  8
0
 62
     7
 10
166.50099999999989
 20
200.04900000000001
 30
0.0
 11
166.50099999999989
 21
192.04900000000001
 31
0.0
  0
LINE
  5
18C
  8
0
 62
     7
 10
166.50099999999989
 20
192.04900000000001
 30
0.0
 11
161.0749999999999
 21
192.04900000000001
 31
0.0
  0
LINE
  5
18D
  8
0
 62
     7
 10
161.0749999999999
 20
123.17700000000001
 30
0.0
 11
161.0749999999999
 21
131.20699999999999
 31
0.0
  0
ARC
  5
18E
  8
0
 62
     7
 10
160.29818099999989
 20
127.72301399999991
 30
0.0
 40
3.569091999999999
 50
77.433199000000002
 51
83.127304000000009
  0
ARC
  5
18F
  8
0
 62
     7
 10
160.13985299999999
 20
127.0022219999999
 30
0.0
 40
4.3042360000000004
 50
82.182979000000003
 51
96.214164000000011
  0
ARC
  5
190
  8
0
 62
     7
 10
159.913329
 20
129.32055099999991
 30
0.0
 40
1.975177
 50
96.961293999999995
 51
116.49623799999991
  0
ARC
  5
191
  8
0
 62
     7
 10
160.00338300000001
 20
129.29461599999991
 30
0.0
 40
2.039733
 50
118.435486
 51
137.03260399999991
  0
ARC
  5
192
  8
0
 62
     7
 10
161.14795799999999
 20
128.15779499999991
 30
0.0
 40
3.652469
 50
136.22097600000001
 51
160.342173
  0
ARC
  5
193
  8
0
 62
     7
 10
161.60090299999999
 20
127.88255100000001
 30
0.0
 40
4.1729769999999986
 50
158.87519900000001
 51
169.15235999999999
  0
ARC
  5
194
  8
0
 62
     7
 10
160.752534
 20
128.07044099999999
 30
0.0
 40
3.304498999999999
 50
169.58360599999989
 51
175.69647699999999
  0
ARC
  5
195
  8
0
 62
     7
 10
176.866623
 20
126.600971
 30
0.0
 40
19.485108
 50
174.943307
 51
177.98956999999999
  0
ARC
  5
196
  8
0
 62
     7
 10
254.15918799999989
 20
123.625377
 30
0.0
 40
96.834839000000002
 50
177.83439699999991
 51
180.1596879999999
  0
LINE
  5
197
  8
0
 62
     7
 10
157.3249999999999
 20
123.35599999999999
 30
0.0
 11
157.31
 21
123.1759999999999
 31
0.0
  0
ARC
  5
198
  8
0
 62
     7
 10
277.69943999999992
 20
123.66577100000001
 30
0.0
 40
120.390868
 50
180.23293000000001
 51
182.39333300000001
  0
ARC
  5
199
  8
0
 62
     7
 10
166.0355769999999
 20
118.96139100000001
 30
0.0
 40
8.6280389999999993
 50
182.145646
 51
188.50824299999991
  0
ARC
  5
19A
  8
0
 62
     7
 10
161.53312700000001
 20
118.448177
 30
0.0
 40
4.1022749999999988
 50
190.72362100000001
 51
224.1540489999999
  0
ARC
  5
19B
  8
0
 62
     7
 10
160.07930300000001
 20
117.150701
 30
0.0
 40
2.1569439999999989
 50
226.327958
 51
240.95533800000001
  0
ARC
  5
19C
  8
0
 62
     7
 10
159.79744099999991
 20
116.68746999999991
 30
0.0
 40
1.615270999999999
 50
241.71871999999991
 51
261.82578100000001
  0
ARC
  5
19D
  8
0
 62
     7
 10
160.1353719999999
 20
118.5066249999999
 30
0.0
 40
3.4648219999999998
 50
260.57150899999988
 51
277.07527499999992
  0
ARC
  5
19E
  8
0
 62
     7
 10
160.1114169999999
 20
119.695145
 30
0.0
 40
4.648858999999999
 50
275.563828
 51
281.95925899999992
  0
LINE
  5
19F
  8
0
 62
     7
 10
161.0749999999999
 20
115.14699999999991
 30
0.0
 11
161.0749999999999
 21
123.1759999999999
 31
0.0
  0
LINE
  5
1A0
  8
0
 62
     7
 10
161.0749999999999
 20
123.1759999999999
 30
0.0
 11
161.0749999999999
 21
123.17700000000001
 31
0.0
  0
LINE
  5
1A1
  8
0
 62
     7
 10
66.850999999999999
 20
128.93700000000001
 30
0.0
 11
67.821799999999996
 21
128.93700000000001
 31
0.0
  0
LINE
  5
1A2
  8
0
 62
     7
 10
66.850999999999999
 20
128.65700000000001
 30
0.0
 11
67.821799999999996
 21
128.65700000000001
 31
0.0
  0
LINE
  5
1A3
  8
0
 62
     7
 10
66.850999999999999
 20
128.37700000000001
 30
0.0
 11
67.821799999999996
 21
128.37700000000001
 31
0.0
  0
LINE
  5
1A4
  8
0
 62
     7
 10
66.850999999999999
 20
128.09700000000001
 30
0.0
 11
67.821799999999996
 21
128.09700000000001
 31
0.0
  0
LINE
  5
1A5
  8
0
 62
     7
 10
66.850999999999999
 20
127.818
 30
0.0
 11
67.821799999999996
 21
127.818
 31
0.0
  0
LINE
  5
1A6
  8
0
 62
     7
 10
66.850999999999999
 20
127.5379999999999
 30
0.0
 11
67.821799999999996
 21
127.5379999999999
 31
0.0
  0
LINE
  5
1A7
  8
0
 62
     7
 10
66.850999999999999
 20
127.258
 30
0.0
 11
67.821799999999996
 21
127.258
 31
0.0
  0
LINE
  5
1A8
  8
0
 62
     7
 10
66.850999999999999
 20
126.9789999999999
 30
0.0
 11
67.821799999999996
 21
126.9789999999999
 31
0.0
  0
LINE
  5
1A9
  8
0
 62
     7
 10
66.850999999999999
 20
126.699
 30
0.0
 11
67.821799999999996
 21
126.699
 31
0.0
  0
LINE
  5
1AA
  8
0
 62
     7
 10
66.850999999999999
 20
126.4189999999999
 30
0.0
 11
67.821799999999996
 21
126.4189999999999
 31
0.0
  0
LINE
  5
1AB
  8
0
 62
     7
 10
66.850999999999999
 20
126.139
 30
0.0
 11
67.821799999999996
 21
126.139
 31
0.0
  0
LINE
  5
1AC
  8
0
 62
     7
 10
66.850999999999999
 20
125.8599999999999
 30
0.0
 11
67.821799999999996
 21
125.8599999999999
 31
0.0
  0
LINE
  5
1AD
  8
0
 62
     7
 10
66.850999999999999
 20
125.58
 30
0.0
 11
67.821799999999996
 21
125.58
 31
0.0
  0
LINE
  5
1AE
  8
0
 62
     7
 10
66.850999999999999
 20
125.2999999999999
 30
0.0
 11
67.821799999999996
 21
125.2999999999999
 31
0.0
  0
LINE
  5
1AF
  8
0
 62
     7
 10
66.850999999999999
 20
125.021
 30
0.0
 11
67.821799999999996
 21
125.021
 31
0.0
  0
LINE
  5
1B0
  8
0
 62
     7
 10
66.850999999999999
 20
124.741
 30
0.0
 11
67.821799999999996
 21
124.741
 31
0.0
  0
LINE
  5
1B1
  8
0
 62
     7
 10
66.850999999999999
 20
124.4609999999999
 30
0.0
 11
67.821799999999996
 21
124.4609999999999
 31
0.0
  0
LINE
  5
1B2
  8
0
 62
     7
 10
66.850999999999999
 20
124.182
 30
0.0
 11
67.821799999999996
 21
124.182
 31
0.0
  0
LINE
  5
1B3
  8
0
 62
     7
 10
66.850999999999999
 20
123.902
 30
0.0
 11
67.821799999999996
 21
123.902
 31
0.0
  0
LINE
  5
1B4
  8
0
 62
     7
 10
66.850999999999999
 20
123.62299999999991
 30
0.0
 11
67.821799999999996
 21
123.62299999999991
 31
0.0
  0
LINE
  5
1B5
  8
0
 62
     7
 10
66.850999999999999
 20
123.343
 30
0.0
 11
67.821799999999996
 21
123.343
 31
0.0
  0
LINE
  5
1B6
  8
0
 62
     7
 10
66.850999999999999
 20
123.0629999999999
 30
0.0
 11
67.821799999999996
 21
123.0629999999999
 31
0.0
  0
LINE
  5
1B7
  8
0
 62
     7
 10
66.850999999999999
 20
122.7829999999999
 30
0.0
 11
67.821799999999996
 21
122.7829999999999
 31
0.0
  0
LINE
  5
1B8
  8
0
 62
     7
 10
66.850999999999999
 20
122.50399999999991
 30
0.0
 11
67.821799999999996
 21
122.50399999999991
 31
0.0
  0
LINE
  5
1B9
  8
0
 62
     7
 10
66.850999999999999
 20
122.2239999999999
 30
0.0
 11
67.821799999999996
 21
122.2239999999999
 31
0.0
  0
LINE
  5
1BA
  8
0
 62
     7
 10
66.850999999999999
 20
121.944
 30
0.0
 11
67.821799999999996
 21
121.944
 31
0.0
  0
LINE
  5
1BB
  8
0
 62
     7
 10
66.850999999999999
 20
121.66500000000001
 30
0.0
 11
67.821799999999996
 21
121.66500000000001
 31
0.0
  0
LINE
  5
1BC
  8
0
 62
     7
 10
66.850999999999999
 20
121.38500000000001
 30
0.0
 11
67.821799999999996
 21
121.38500000000001
 31
0.0
  0
LINE
  5
1BD
  8
0
 62
     7
 10
66.850999999999999
 20
121.1049999999999
 30
0.0
 11
67.821799999999996
 21
121.1049999999999
 31
0.0
  0
LINE
  5
1BE
  8
0
 62
     7
 10
66.850999999999999
 20
120.82599999999999
 30
0.0
 11
67.821799999999996
 21
120.82599999999999
 31
0.0
  0
LINE
  5
1BF
  8
0
 62
     7
 10
66.850999999999999
 20
120.54600000000001
 30
0.0
 11
67.821799999999996
 21
120.54600000000001
 31
0.0
  0
LINE
  5
1C0
  8
0
 62
     7
 10
66.850999999999999
 20
120.267
 30
0.0
 11
67.821799999999996
 21
120.267
 31
0.0
  0
LINE
  5
1C1
  8
0
 62
     7
 10
66.850999999999999
 20
119.98699999999999
 30
0.0
 11
67.821799999999996
 21
119.98699999999999
 31
0.0
  0
LINE
  5
1C2
  8
0
 62
     7
 10
66.850999999999999
 20
119.70699999999999
 30
0.0
 11
67.821799999999996
 21
119.70699999999999
 31
0.0
  0
LINE
  5
1C3
  8
0
 62
     7
 10
66.850999999999999
 20
119.42700000000001
 30
0.0
 11
67.821799999999996
 21
119.42700000000001
 31
0.0
  0
LINE
  5
1C4
  8
0
 62
     7
 10
66.850999999999999
 20
119.148
 30
0.0
 11
67.821799999999996
 21
119.148
 31
0.0
  0
LINE
  5
1C5
  8
0
 62
     7
 10
66.850999999999999
 20
118.8679999999999
 30
0.0
 11
67.821799999999996
 21
118.8679999999999
 31
0.0
  0
LINE
  5
1C6
  8
0
 62
     7
 10
66.850999999999999
 20
118.58799999999999
 30
0.0
 11
67.821799999999996
 21
118.58799999999999
 31
0.0
  0
LINE
  5
1C7
  8
0
 62
     7
 10
66.850999999999999
 20
118.3089999999999
 30
0.0
 11
67.821799999999996
 21
118.3089999999999
 31
0.0
  0
LINE
  5
1C8
  8
0
 62
     7
 10
66.850999999999999
 20
118.029
 30
0.0
 11
67.821799999999996
 21
118.029
 31
0.0
  0
LINE
  5
1C9
  8
0
 62
     7
 10
66.850999999999999
 20
117.7499999999999
 30
0.0
 11
67.821799999999996
 21
117.7499999999999
 31
0.0
  0
LINE
  5
1CA
  8
0
 62
     7
 10
66.850999999999999
 20
117.471
 30
0.0
 11
67.821799999999996
 21
117.471
 31
0.0
  0
LINE
  5
1CB
  8
0
 62
     7
 10
67.821799999999996
 20
129.3549999999999
 30
0.0
 11
67.821799999999996
 21
117.235
 31
0.0
  0
LINE
  5
1CC
  8
0
 62
     7
 10
67.821799999999996
 20
117.235
 30
0.0
 11
66.821299999999994
 21
117.235
 31
0.0
  0
LINE
  5
1CD
  8
0
 62
     7
 10
66.821299999999994
 20
117.235
 30
0.0
 11
66.821299999999994
 21
129.3549999999999
 31
0.0
  0
LINE
  5
1CE
  8
0
 62
     7
 10
66.821299999999994
 20
129.3549999999999
 30
0.0
 11
67.821799999999996
 21
129.3549999999999
 31
0.0
  0
LINE
  5
1CF
  8
0
 62
     7
 10
62.099400000000003
 20
148.0449999999999
 30
0.0
 11
62.099400000000003
 21
147.0739999999999
 31
0.0
  0
LINE
  5
1D0
  8
0
 62
     7
 10
61.81969999999999
 20
148.0449999999999
 30
0.0
 11
61.81969999999999
 21
147.0739999999999
 31
0.0
  0
LINE
  5
1D1
  8
0
 62
     7
 10
61.539999999999992
 20
148.0449999999999
 30
0.0
 11
61.539999999999992
 21
147.0739999999999
 31
0.0
  0
LINE
  5
1D2
  8
0
 62
     7
 10
61.260199999999998
 20
148.0449999999999
 30
0.0
 11
61.260199999999998
 21
147.0739999999999
 31
0.0
  0
LINE
  5
1D3
  8
0
 62
     7
 10
60.981200000000001
 20
148.0449999999999
 30
0.0
 11
60.981200000000001
 21
147.0739999999999
 31
0.0
  0
LINE
  5
1D4
  8
0
 62
     7
 10
60.70109999999999
 20
148.0449999999999
 30
0.0
 11
60.70109999999999
 21
147.0739999999999
 31
0.0
  0
LINE
  5
1D5
  8
0
 62
     7
 10
60.421700000000001
 20
148.0449999999999
 30
0.0
 11
60.421700000000001
 21
147.0739999999999
 31
0.0
  0
LINE
  5
1D6
  8
0
 62
     7
 10
60.1419
 20
148.0449999999999
 30
0.0
 11
60.1419
 21
147.0739999999999
 31
0.0
  0
LINE
  5
1D7
  8
0
 62
     7
 10
59.862200000000001
 20
148.0449999999999
 30
0.0
 11
59.862200000000001
 21
147.0739999999999
 31
0.0
  0
LINE
  5
1D8
  8
0
 62
     7
 10
59.582399999999993
 20
148.0449999999999
 30
0.0
 11
59.582399999999993
 21
147.0739999999999
 31
0.0
  0
LINE
  5
1D9
  8
0
 62
     7
 10
59.302700000000002
 20
148.0449999999999
 30
0.0
 11
59.302700000000002
 21
147.0739999999999
 31
0.0
  0
LINE
  5
1DA
  8
0
 62
     7
 10
59.023600000000002
 20
148.0449999999999
 30
0.0
 11
59.023600000000002
 21
147.0739999999999
 31
0.0
  0
LINE
  5
1DB
  8
0
 62
     7
 10
58.743600000000001
 20
148.0449999999999
 30
0.0
 11
58.743600000000001
 21
147.0739999999999
 31
0.0
  0
LINE
  5
1DC
  8
0
 62
     7
 10
58.464199999999998
 20
148.0449999999999
 30
0.0
 11
58.464199999999998
 21
147.0739999999999
 31
0.0
  0
LINE
  5
1DD
  8
0
 62
     7
 10
58.184399999999989
 20
148.0449999999999
 30
0.0
 11
58.184399999999989
 21
147.0739999999999
 31
0.0
  0
LINE
  5
1DE
  8
0
 62
     7
 10
57.904699999999998
 20
148.0449999999999
 30
0.0
 11
57.904699999999998
 21
147.0739999999999
 31
0.0
  0
LINE
  5
1DF
  8
0
 62
     7
 10
57.625300000000003
 20
148.0449999999999
 30
0.0
 11
57.625300000000003
 21
147.0739999999999
 31
0.0
  0
LINE
  5
1E0
  8
0
 62
     7
 10
57.3459
 20
148.0449999999999
 30
0.0
 11
57.3459
 21
147.0739999999999
 31
0.0
  0
LINE
  5
1E1
  8
0
 62
     7
 10
57.066099999999999
 20
148.0449999999999
 30
0.0
 11
57.066099999999999
 21
147.0739999999999
 31
0.0
  0
LINE
  5
1E2
  8
0
 62
     7
 10
56.7864
 20
148.0449999999999
 30
0.0
 11
56.7864
 21
147.0739999999999
 31
0.0
  0
LINE
  5
1E3
  8
0
 62
     7
 10
56.506799999999998
 20
148.0449999999999
 30
0.0
 11
56.506799999999998
 21
147.0739999999999
 31
0.0
  0
LINE
  5
1E4
  8
0
 62
     7
 10
56.226900000000001
 20
148.0449999999999
 30
0.0
 11
56.226900000000001
 21
147.0739999999999
 31
0.0
  0
LINE
  5
1E5
  8
0
 62
     7
 10
55.947299999999998
 20
148.0449999999999
 30
0.0
 11
55.947299999999998
 21
147.0739999999999
 31
0.0
  0
LINE
  5
1E6
  8
0
 62
     7
 10
55.6678
 20
148.0449999999999
 30
0.0
 11
55.6678
 21
147.0739999999999
 31
0.0
  0
LINE
  5
1E7
  8
0
 62
     7
 10
55.388500000000001
 20
148.0449999999999
 30
0.0
 11
55.388500000000001
 21
147.0739999999999
 31
0.0
  0
LINE
  5
1E8
  8
0
 62
     7
 10
55.108600000000003
 20
148.0449999999999
 30
0.0
 11
55.108600000000003
 21
147.0739999999999
 31
0.0
  0
LINE
  5
1E9
  8
0
 62
     7
 10
54.828999999999994
 20
148.0449999999999
 30
0.0
 11
54.828999999999994
 21
147.0739999999999
 31
0.0
  0
LINE
  5
1EA
  8
0
 62
     7
 10
54.549300000000002
 20
148.0449999999999
 30
0.0
 11
54.549300000000002
 21
147.0739999999999
 31
0.0
  0
LINE
  5
1EB
  8
0
 62
     7
 10
54.269899999999993
 20
148.0449999999999
 30
0.0
 11
54.269899999999993
 21
147.0739999999999
 31
0.0
  0
LINE
  5
1EC
  8
0
 62
     7
 10
53.990200000000002
 20
148.0449999999999
 30
0.0
 11
53.990200000000002
 21
147.0739999999999
 31
0.0
  0
LINE
  5
1ED
  8
0
 62
     7
 10
53.7102
 20
148.0449999999999
 30
0.0
 11
53.7102
 21
147.0739999999999
 31
0.0
  0
LINE
  5
1EE
  8
0
 62
     7
 10
53.430999999999997
 20
148.0449999999999
 30
0.0
 11
53.430999999999997
 21
147.0739999999999
 31
0.0
  0
LINE
  5
1EF
  8
0
 62
     7
 10
53.1511
 20
148.0449999999999
 30
0.0
 11
53.1511
 21
147.0739999999999
 31
0.0
  0
LINE
  5
1F0
  8
0
 62
     7
 10
52.871499999999997
 20
148.0449999999999
 30
0.0
 11
52.903399999999998
 21
147.0739999999999
 31
0.0
  0
LINE
  5
1F1
  8
0
 62
     7
 10
52.591799999999999
 20
148.0449999999999
 30
0.0
 11
52.591799999999999
 21
147.0739999999999
 31
0.0
  0
LINE
  5
1F2
  8
0
 62
     7
 10
52.31239999999999
 20
148.0449999999999
 30
0.0
 11
52.31239999999999
 21
147.0739999999999
 31
0.0
  0
LINE
  5
1F3
  8
0
 62
     7
 10
52.032800000000002
 20
148.0449999999999
 30
0.0
 11
52.032800000000002
 21
147.0739999999999
 31
0.0
  0
LINE
  5
1F4
  8
0
 62
     7
 10
51.752699999999997
 20
148.0449999999999
 30
0.0
 11
51.752699999999997
 21
147.0739999999999
 31
0.0
  0
LINE
  5
1F5
  8
0
 62
     7
 10
51.473500000000001
 20
148.0449999999999
 30
0.0
 11
51.473500000000001
 21
147.0739999999999
 31
0.0
  0
LINE
  5
1F6
  8
0
 62
     7
 10
51.193600000000004
 20
148.0449999999999
 30
0.0
 11
51.193600000000004
 21
147.0739999999999
 31
0.0
  0
LINE
  5
1F7
  8
0
 62
     7
 10
50.914400000000001
 20
148.0449999999999
 30
0.0
 11
50.914400000000001
 21
147.0739999999999
 31
0.0
  0
LINE
  5
1F8
  8
0
 62
     7
 10
50.634399999999992
 20
148.0449999999999
 30
0.0
 11
50.634399999999992
 21
147.0739999999999
 31
0.0
  0
LINE
  5
1F9
  8
0
 62
     7
 10
52.699100000000001
 20
147.0739999999999
 30
0.0
 11
50.399299999999997
 21
147.0739999999999
 31
0.0
  0
LINE
  5
1FA
  8
0
 62
     7
 10
50.399299999999997
 20
147.0739999999999
 30
0.0
 11
50.399299999999997
 21
148.0739999999999
 31
0.0
  0
LINE
  5
1FB
  8
0
 62
     7
 10
50.399299999999997
 20
148.0739999999999
 30
0.0
 11
62.517699999999998
 21
148.0739999999999
 31
0.0
  0
LINE
  5
1FC
  8
0
 62
     7
 10
62.517699999999998
 20
148.0739999999999
 30
0.0
 11
62.517699999999998
 21
147.0739999999999
 31
0.0
  0
LINE
  5
1FD
  8
0
 62
     7
 10
62.517699999999998
 20
147.0739999999999
 30
0.0
 11
54.3521
 21
147.0739999999999
 31
0.0
  0
LINE
  5
1FE
  8
0
 62
     7
 10
50.634399999999992
 20
148.0449999999999
 30
0.0
 11
50.634399999999992
 21
148.77000000000001
 31
0.0
  0
LINE
  5
1FF
  8
0
 62
     7
 10
50.634399999999992
 20
148.77000000000001
 30
0.0
 11
62.1935
 21
148.77000000000001
 31
0.0
  0
LINE
  5
200
  8
0
 62
     7
 10
62.1935
 20
148.77000000000001
 30
0.0
 11
62.1935
 21
148.0449999999999
 31
0.0
  0
LINE
  5
201
  8
0
 62
     7
 10
62.37919999999999
 20
130.3839999999999
 30
0.0
 11
62.37919999999999
 21
129.4129999999999
 31
0.0
  0
LINE
  5
202
  8
0
 62
     7
 10
62.099400000000003
 20
130.3839999999999
 30
0.0
 11
62.099400000000003
 21
129.4129999999999
 31
0.0
  0
LINE
  5
203
  8
0
 62
     7
 10
61.81969999999999
 20
130.3839999999999
 30
0.0
 11
61.81969999999999
 21
129.4129999999999
 31
0.0
  0
LINE
  5
204
  8
0
 62
     7
 10
61.539999999999992
 20
130.3839999999999
 30
0.0
 11
61.539999999999992
 21
129.4129999999999
 31
0.0
  0
LINE
  5
205
  8
0
 62
     7
 10
61.260199999999998
 20
130.3839999999999
 30
0.0
 11
61.260199999999998
 21
129.4129999999999
 31
0.0
  0
LINE
  5
206
  8
0
 62
     7
 10
60.981200000000001
 20
130.3839999999999
 30
0.0
 11
60.981200000000001
 21
129.4129999999999
 31
0.0
  0
LINE
  5
207
  8
0
 62
     7
 10
60.70109999999999
 20
130.3839999999999
 30
0.0
 11
60.70109999999999
 21
129.4129999999999
 31
0.0
  0
LINE
  5
208
  8
0
 62
     7
 10
60.421700000000001
 20
130.3839999999999
 30
0.0
 11
60.421700000000001
 21
129.4129999999999
 31
0.0
  0
LINE
  5
209
  8
0
 62
     7
 10
60.1419
 20
130.3839999999999
 30
0.0
 11
60.1419
 21
129.4129999999999
 31
0.0
  0
LINE
  5
20A
  8
0
 62
     7
 10
59.862200000000001
 20
130.3839999999999
 30
0.0
 11
59.862200000000001
 21
129.4129999999999
 31
0.0
  0
LINE
  5
20B
  8
0
 62
     7
 10
59.582399999999993
 20
130.3839999999999
 30
0.0
 11
59.582399999999993
 21
129.4129999999999
 31
0.0
  0
LINE
  5
20C
  8
0
 62
     7
 10
59.302700000000002
 20
130.3839999999999
 30
0.0
 11
59.302700000000002
 21
129.4129999999999
 31
0.0
  0
LINE
  5
20D
  8
0
 62
     7
 10
59.023600000000002
 20
130.3839999999999
 30
0.0
 11
59.023600000000002
 21
129.4129999999999
 31
0.0
  0
LINE
  5
20E
  8
0
 62
     7
 10
58.743600000000001
 20
130.3839999999999
 30
0.0
 11
58.743600000000001
 21
129.4129999999999
 31
0.0
  0
LINE
  5
20F
  8
0
 62
     7
 10
58.464199999999998
 20
130.3839999999999
 30
0.0
 11
58.464199999999998
 21
129.4129999999999
 31
0.0
  0
LINE
  5
210
  8
0
 62
     7
 10
58.184399999999989
 20
130.3839999999999
 30
0.0
 11
58.184399999999989
 21
129.4129999999999
 31
0.0
  0
LINE
  5
211
  8
0
 62
     7
 10
57.904699999999998
 20
130.3839999999999
 30
0.0
 11
57.904699999999998
 21
129.4129999999999
 31
0.0
  0
LINE
  5
212
  8
0
 62
     7
 10
57.625300000000003
 20
130.3839999999999
 30
0.0
 11
57.625300000000003
 21
129.4129999999999
 31
0.0
  0
LINE
  5
213
  8
0
 62
     7
 10
57.3459
 20
130.3839999999999
 30
0.0
 11
57.3459
 21
129.4129999999999
 31
0.0
  0
LINE
  5
214
  8
0
 62
     7
 10
57.066099999999999
 20
130.3839999999999
 30
0.0
 11
57.066099999999999
 21
129.4129999999999
 31
0.0
  0
LINE
  5
215
  8
0
 62
     7
 10
56.7864
 20
130.3839999999999
 30
0.0
 11
56.7864
 21
129.4129999999999
 31
0.0
  0
LINE
  5
216
  8
0
 62
     7
 10
56.506799999999998
 20
130.3839999999999
 30
0.0
 11
56.506799999999998
 21
129.4129999999999
 31
0.0
  0
LINE
  5
217
  8
0
 62
     7
 10
56.226900000000001
 20
130.3839999999999
 30
0.0
 11
56.226900000000001
 21
129.4129999999999
 31
0.0
  0
LINE
  5
218
  8
0
 62
     7
 10
55.947299999999998
 20
130.3839999999999
 30
0.0
 11
55.947299999999998
 21
129.4129999999999
 31
0.0
  0
LINE
  5
219
  8
0
 62
     7
 10
55.6678
 20
130.3839999999999
 30
0.0
 11
55.6678
 21
129.4129999999999
 31
0.0
  0
LINE
  5
21A
  8
0
 62
     7
 10
55.388500000000001
 20
130.3839999999999
 30
0.0
 11
55.388500000000001
 21
129.4129999999999
 31
0.0
  0
LINE
  5
21B
  8
0
 62
     7
 10
55.108600000000003
 20
130.3839999999999
 30
0.0
 11
55.108600000000003
 21
129.4129999999999
 31
0.0
  0
LINE
  5
21C
  8
0
 62
     7
 10
54.828999999999994
 20
130.3839999999999
 30
0.0
 11
54.828999999999994
 21
129.4129999999999
 31
0.0
  0
LINE
  5
21D
  8
0
 62
     7
 10
54.549300000000002
 20
130.3839999999999
 30
0.0
 11
54.549300000000002
 21
129.4129999999999
 31
0.0
  0
LINE
  5
21E
  8
0
 62
     7
 10
54.269899999999993
 20
130.3839999999999
 30
0.0
 11
54.269899999999993
 21
129.4129999999999
 31
0.0
  0
LINE
  5
21F
  8
0
 62
     7
 10
53.990200000000002
 20
130.3839999999999
 30
0.0
 11
53.990200000000002
 21
129.4129999999999
 31
0.0
  0
LINE
  5
220
  8
0
 62
     7
 10
53.7102
 20
130.3839999999999
 30
0.0
 11
53.7102
 21
129.4129999999999
 31
0.0
  0
LINE
  5
221
  8
0
 62
     7
 10
53.430999999999997
 20
130.3839999999999
 30
0.0
 11
53.430999999999997
 21
129.4129999999999
 31
0.0
  0
LINE
  5
222
  8
0
 62
     7
 10
53.1511
 20
130.3839999999999
 30
0.0
 11
53.1511
 21
129.4129999999999
 31
0.0
  0
LINE
  5
223
  8
0
 62
     7
 10
52.871499999999997
 20
130.3839999999999
 30
0.0
 11
52.871499999999997
 21
129.4129999999999
 31
0.0
  0
LINE
  5
224
  8
0
 62
     7
 10
52.591799999999999
 20
130.3839999999999
 30
0.0
 11
52.591799999999999
 21
129.4129999999999
 31
0.0
  0
LINE
  5
225
  8
0
 62
     7
 10
52.31239999999999
 20
130.3839999999999
 30
0.0
 11
52.31239999999999
 21
129.4129999999999
 31
0.0
  0
LINE
  5
226
  8
0
 62
     7
 10
52.032800000000002
 20
130.3839999999999
 30
0.0
 11
52.032800000000002
 21
129.4129999999999
 31
0.0
  0
LINE
  5
227
  8
0
 62
     7
 10
51.752699999999997
 20
130.3839999999999
 30
0.0
 11
51.752699999999997
 21
129.4129999999999
 31
0.0
  0
LINE
  5
228
  8
0
 62
     7
 10
51.473500000000001
 20
130.3839999999999
 30
0.0
 11
51.473500000000001
 21
129.4129999999999
 31
0.0
  0
LINE
  5
229
  8
0
 62
     7
 10
51.193600000000004
 20
130.3839999999999
 30
0.0
 11
51.193600000000004
 21
129.4129999999999
 31
0.0
  0
LINE
  5
22A
  8
0
 62
     7
 10
50.914400000000001
 20
130.3839999999999
 30
0.0
 11
50.914400000000001
 21
129.4129999999999
 31
0.0
  0
LINE
  5
22B
  8
0
 62
     7
 10
50.634399999999992
 20
130.3839999999999
 30
0.0
 11
50.634399999999992
 21
129.4129999999999
 31
0.0
  0
ARC
  5
22C
  8
0
 62
     7
 10
65.39479
 20
124.229004
 30
0.0
 40
4.6555400000000002
 50
154.46287799999999
 51
159.590844
  0
ARC
  5
22D
  8
0
 62
     7
 10
67.559860999999998
 20
123.3148259999999
 30
0.0
 40
7.0042339999999994
 50
158.75819299999989
 51
175.1916389999999
  0
ARC
  5
22E
  8
0
 62
     7
 10
64.157910999999984
 20
123.6743949999999
 30
0.0
 40
3.584862999999999
 50
176.36072999999999
 51
196.656361
  0
ARC
  5
22F
  8
0
 62
     7
 10
66.573649000000003
 20
124.614206
 30
0.0
 40
6.172123
 50
198.58715100000001
 51
235.48215300000001
  0
LINE
  5
230
  8
0
 62
     7
 10
66.125399999999999
 20
118.55799999999989
 30
0.0
 11
64.752499999999984
 21
118.55799999999989
 31
0.0
  0
ARC
  5
231
  8
0
 62
     7
 10
65.102388000000005
 20
116.88804999999989
 30
0.0
 40
1.706399
 50
101.831104
 51
124.54291000000001
  0
ARC
  5
232
  8
0
 62
     7
 10
64.260920999999996
 20
118.1696899999999
 30
0.0
 40
0.176801
 50
135.49903
 51
164.5723899999999
  0
ARC
  5
233
  8
0
 62
     7
 10
64.588194000000001
 20
118.083906
 30
0.0
 40
0.5151200000000001
 50
165.0582939999999
 51
184.54964699999999
  0
ARC
  5
234
  8
0
 62
     7
 10
59.928257999999992
 20
117.6555479999999
 30
0.0
 40
4.1645070000000004
 50
358.67032199999989
 51
5.3389620000000004
  0
ARC
  5
235
  8
0
 62
     7
 10
63.50973599999999
 20
117.60800399999999
 30
0.0
 40
0.5839750000000001
 50
320.20555399999989
 51
355.17749600000002
  0
ARC
  5
236
  8
0
 62
     7
 10
63.881174000000001
 20
117.3220139999999
 30
0.0
 40
0.11693
 50
274.99089099999998
 51
311.353025
  0
ARC
  5
237
  8
0
 62
     7
 10
63.413106999999997
 20
119.4006399999999
 30
0.0
 40
2.2466049999999989
 50
273.112638
 51
282.29074300000002
  0
ARC
  5
238
  8
0
 62
     7
 10
62.053696000000002
 20
136.3663249999999
 30
0.0
 40
19.266013999999998
 50
271.39318399999991
 51
274.40994000000001
  0
ARC
  5
239
  8
0
 62
     7
 10
59.814841000000001
 20
212.38785299999989
 30
0.0
 40
95.320300000000003
 50
270.23068399999988
 51
271.62753399999991
  0
ARC
  5
23A
  8
0
 62
     7
 10
58.433917000000001
 20
451.10990099999992
 30
0.0
 40
334.04623700000002
 50
269.52418599999987
 51
270.30269099999998
  0
ARC
  5
23B
  8
0
 62
     7
 10
61.016308999999993
 20
834.73043399999995
 30
0.0
 40
717.67524100000003
 50
269.08659799999992
 51
269.57236799999998
  0
ARC
  5
23C
  8
0
 62
     7
 10
50.961665000000004
 20
118.1590149999999
 30
0.0
 40
1.716577999999999
 50
207.792742
 51
216.1506279999999
  0
ARC
  5
23D
  8
0
 62
     7
 10
51.186900999999999
 20
118.331012
 30
0.0
 40
1.9965839999999999
 50
179.16108099999991
 51
209.1454489999999
  0
ARC
  5
23E
  8
0
 62
     7
 10
50.382536000000002
 20
118.26853699999999
 30
0.0
 40
1.195527
 50
165.97838999999991
 51
175.60058599999999
  0
ARC
  5
23F
  8
0
 62
     7
 10
44.640321999999998
 20
119.675985
 30
0.0
 40
4.7166709999999989
 50
346.29126000000002
 51
351.58790199999987
  0
ARC
  5
240
  8
0
 62
     7
 10
-228.541236
 20
166.9247739999999
 30
0.0
 40
281.95275099999992
 50
350.21077300000002
 51
350.947292
  0
ARC
  5
241
  8
0
 62
     7
 10
177.42557500000001
 20
102.295456
 30
0.0
 40
129.12632500000001
 50
169.21171299999989
 51
170.97023300000001
  0
ARC
  5
242
  8
0
 62
     7
 10
62.353639999999999
 20
124.38227500000001
 30
0.0
 40
11.955038
 50
164.49394699999999
 51
169.96542899999989
  0
ARC
  5
243
  8
0
 62
     7
 10
51.280138999999998
 20
127.48691699999991
 30
0.0
 40
0.455665
 50
146.76132200000001
 51
168.42665700000001
  0
ARC
  5
244
  8
0
 62
     7
 10
50.979950000000002
 20
127.658086
 30
0.0
 40
0.112809
 50
95.771946999999983
 51
135.8375659999999
  0
ARC
  5
245
  8
0
 62
     7
 10
51.416114999999998
 20
125.928527
 30
0.0
 40
1.8953839999999991
 50
94.104146000000014
 51
103.65678799999991
  0
ARC
  5
246
  8
0
 62
     7
 10
52.585487999999991
 20
113.154218
 30
0.0
 40
14.722785
 50
91.508485999999991
 51
95.085352999999984
  0
ARC
  5
247
  8
0
 62
     7
 10
54.360613999999991
 20
57.520220000000002
 30
0.0
 40
70.384915000000007
 50
90.083707999999987
 51
91.760784999999998
  0
ARC
  5
248
  8
0
 62
     7
 10
55.000993000000008
 20
-114.42862099999989
 30
0.0
 40
242.33482099999989
 50
89.269008999999997
 51
90.175712000000004
  0
ARC
  5
249
  8
0
 62
     7
 10
50.560068000000001
 20
-491.49054299999989
 30
0.0
 40
619.42282299999999
 50
88.560066000000006
 51
89.303221999999991
  0
LINE
  5
24A
  8
0
 62
     7
 10
51.71759999999999
 20
128.58899999999991
 30
0.0
 11
51.418500000000002
 21
127.8429999999999
 31
0.0
  0
LINE
  5
24B
  8
0
 62
     7
 10
61.3215
 20
127.8429999999999
 30
0.0
 11
61.022500000000001
 21
128.58899999999991
 31
0.0
  0
LINE
  5
24C
  8
0
 62
     7
 10
161.0749999999999
 20
127.1779999999999
 30
0.0
 11
166.50099999999989
 21
127.1779999999999
 31
0.0
  0
LINE
  5
24D
  8
0
 62
     7
 10
166.50099999999989
 20
127.1779999999999
 30
0.0
 11
166.50099999999989
 21
119.176
 31
0.0
  0
LINE
  5
24E
  8
0
 62
     7
 10
166.50099999999989
 20
119.176
 30
0.0
 11
161.0749999999999
 21
119.176
 31
0.0
  0
LINE
  5
24F
  8
0
 62
     7
 10
157.39400000000001
 20
119.176
 30
0.0
 11
68.887699999999995
 21
119.176
 31
0.0
  0
LINE
  5
250
  8
0
 62
     7
 10
68.887699999999995
 20
127.1779999999999
 30
0.0
 11
157.38499999999999
 21
127.1779999999999
 31
0.0
  0
LINE
  5
251
  8
0
 62
     7
 10
60.3703
 20
146.0079999999999
 30
0.0
 11
60.3703
 21
131.18199999999999
 31
0.0
  0
LINE
  5
252
  8
0
 62
     7
 10
52.369700000000002
 20
131.23699999999999
 30
0.0
 11
52.369700000000002
 21
146.0079999999999
 31
0.0
  0
LINE
  5
253
  8
0
 62
     7
 10
50.42860000000001
 20
116.176
 30
0.0
 11
51.075600000000001
 21
105.3299999999999
 31
0.0
  0
ARC
  5
254
  8
0
 62
     7
 10
54.394746999999988
 20
105.620671
 30
0.0
 40
3.3318660000000002
 50
185.00516400000001
 51
191.0117129999999
  0
ARC
  5
255
  8
0
 62
     7
 10
56.688495999999986
 20
105.976831
 30
0.0
 40
5.652105999999999
 50
190.11429699999991
 51
214.17402299999989
  0
ARC
  5
256
  8
0
 62
     7
 10
54.966028000000001
 20
104.939701
 30
0.0
 40
3.6461260000000002
 50
215.8945049999999
 51
234.34173699999999
  0
ARC
  5
257
  8
0
 62
     7
 10
59.104261000000001
 20
110.86250699999999
 30
0.0
 40
10.871212
 50
234.81791999999999
 51
242.28123500000001
  0
ARC
  5
258
  8
0
 62
     7
 10
56.376111999999999
 20
105.7731229999999
 30
0.0
 40
5.0971539999999989
 50
242.81893199999999
 51
269.93178399999988
  0
ARC
  5
259
  8
0
 62
     7
 10
56.372396999999999
 20
110.19555099999999
 30
0.0
 40
9.5195790000000002
 50
269.985838
 51
273.50400400000001
  0
ARC
  5
25A
  8
0
 62
     7
 10
56.595529000000013
 20
105.892686
 30
0.0
 40
5.2112759999999989
 50
273.94674099999997
 51
300.4132699999999
  0
ARC
  5
25B
  8
0
 62
     7
 10
55.014769000000001
 20
108.931984
 30
0.0
 40
8.6343700000000005
 50
299.24958700000002
 51
305.34417300000001
  0
ARC
  5
25C
  8
0
 62
     7
 10
58.037682999999987
 20
104.68652899999999
 30
0.0
 40
3.4226860000000001
 50
305.17966499999989
 51
327.8019809999999
  0
ARC
  5
25D
  8
0
 62
     7
 10
56.556851999999999
 20
105.69771
 30
0.0
 40
5.2150119999999998
 50
327.070065
 51
347.45252799999992
  0
ARC
  5
25E
  8
0
 62
     7
 10
56.039794999999998
 20
105.947337
 30
0.0
 40
5.7754449999999986
 50
346.14949300000001
 51
353.86375099999998
  0
LINE
  5
25F
  8
0
 62
     7
 10
61.782099999999993
 20
105.3299999999999
 30
0.0
 11
62.429099999999998
 21
116.176
 31
0.0
  0
LINE
  5
260
  8
_________2
 62
     7
 10
205.30099999999999
 20
127.411
 30
0.0
 11
183.55000000000001
 21
127.411
 31
0.0
  0
LINE
  5
261
  8
_________2
 62
     7
 10
100.2999999999999
 20
-4.0910799999999998
 30
0.0
 11
100.2999999999999
 21
-21.071400000000001
 31
0.0
  0
LINE
  5
262
  8
_________2
 62
     7
 10
100.2999999999999
 20
275.93099999999993
 30
0.0
 11
100.2999999999999
 21
258.911
 31
0.0
  0
LINE
  5
263
  8
_________2
 62
     7
 10
17.049499999999998
 20
127.411
 30
0.0
 11
-4.70052
 21
127.411
 31
0.0
  0
LINE
  5
264
  8
_________2
 62
     7
 10
76.741
 20
29.8047
 30
0.0
 11
74.554699999999997
 21
29.8047
 31
0.0
  0
LINE
  5
265
  8
_________2
 62
     7
 10
77.233699999999999
 20
29.8047
 30
0.0
 11
76.981499999999997
 21
29.8047
 31
0.0
  0
LINE
  5
266
  8
_________2
 62
     7
 10
77.726299999999995
 20
29.8047
 30
0.0
 11
80.651200000000003
 21
29.8047
 31
0.0
  0
LINE
  5
267
  8
_________2
 62
     7
 10
77.233699999999999
 20
29.8047
 30
0.0
 11
77.485500000000002
 21
29.8047
 31
0.0
  0
LINE
  5
268
  8
_________2
 62
     7
 10
70.837100000000007
 20
29.8047
 30
0.0
 11
68.650499999999994
 21
29.8047
 31
0.0
  0
LINE
  5
269
  8
_________2
 62
     7
 10
71.329400000000007
 20
29.8047
 30
0.0
 11
71.077600000000004
 21
29.8047
 31
0.0
  0
LINE
  5
26A
  8
_________2
 62
     7
 10
71.329400000000007
 20
30.2974
 30
0.0
 11
71.329400000000007
 21
32.484400000000001
 31
0.0
  0
LINE
  5
26B
  8
_________2
 62
     7
 10
71.329400000000007
 20
29.8047
 30
0.0
 11
71.329400000000007
 21
30.056899999999992
 31
0.0
  0
LINE
  5
26C
  8
_________2
 62
     7
 10
71.822100000000006
 20
29.8047
 30
0.0
 11
74.009
 21
29.8047
 31
0.0
  0
LINE
  5
26D
  8
_________2
 62
     7
 10
71.329400000000007
 20
29.8047
 30
0.0
 11
71.581599999999995
 21
29.8047
 31
0.0
  0
LINE
  5
26E
  8
_________2
 62
     7
 10
71.329400000000007
 20
29.312799999999999
 30
0.0
 11
71.329400000000007
 21
27.125800000000002
 31
0.0
  0
LINE
  5
26F
  8
_________2
 62
     7
 10
71.329400000000007
 20
29.8047
 30
0.0
 11
71.329400000000007
 21
29.5532
 31
0.0
  0
LINE
  5
270
  8
_________2
 62
     7
 10
75.040499999999994
 20
28.5852
 30
0.0
 11
80.218500000000006
 21
27.720400000000001
 31
0.0
  0
LINE
  5
271
  8
_________2
 62
     7
 10
75.040499999999994
 20
31.0243
 30
0.0
 11
80.218500000000006
 21
31.889700000000001
 31
0.0
  0
LINE
  5
272
  8
_________2
 62
     7
 10
80.218500000000006
 20
27.720400000000001
 30
0.0
 11
80.218500000000006
 21
31.889700000000001
 31
0.0
  0
LINE
  5
273
  8
_________2
 62
     7
 10
75.040499999999994
 20
28.5852
 30
0.0
 11
75.040499999999994
 21
31.0243
 31
0.0
  0
ARC
  5
274
  8
_________2
 62
     7
 10
71.28285600000001
 20
29.757811
 30
0.0
 40
1.2673589999999999
 50
2.122214
 51
87.893958999999995
  0
ARC
  5
275
  8
_________2
 62
     7
 10
71.375959999999992
 20
29.758213000000001
 30
0.0
 40
1.2669559999999991
 50
92.104701000000006
 51
177.8952689999999
  0
ARC
  5
276
  8
_________2
 62
     7
 10
71.376357999999996
 20
29.851671
 30
0.0
 40
1.2673680000000001
 50
182.12203600000001
 51
267.877993
  0
ARC
  5
277
  8
_________2
 62
     7
 10
71.282531999999989
 20
29.851998999999989
 30
0.0
 40
1.267695999999999
 50
272.12015300000002
 51
357.863674
  0
ARC
  5
278
  8
_________2
 62
     7
 10
71.329430000000002
 20
29.804742999999998
 30
0.0
 40
2.0849849999999992
 50
0.00001
 51
89.999980000000008
  0
ARC
  5
279
  8
_________2
 62
     7
 10
71.329603000000006
 20
29.804915000000001
 30
0.0
 40
2.084813
 50
90.004733999999999
 51
180.00474399999999
  0
ARC
  5
27A
  8
_________2
 62
     7
 10
71.409106000000008
 20
29.884775999999999
 30
0.0
 40
2.1657950000000001
 50
182.11776599999999
 51
267.89173399999999
  0
ARC
  5
27B
  8
_________2
 62
     7
 10
71.249459000000002
 20
29.885429999999989
 30
0.0
 40
2.1664590000000001
 50
272.11546800000002
 51
357.86560400000002
  0
TEXT
  5
27C
  8
_________2
 62
     7
 10
104.605
 20
1.6794899999999999
 30
0.0
 40
3.0923400000000001
  1
図番
 41
0.5
  0
LINE
  5
27D
  8
_________2
 62
     7
 10
103.55
 20
5.9087199999999989
 30
0.0
 11
183.55099999999999
 21
5.9087199999999989
 31
0.0
  0
TEXT
  5
27E
  8
_________2
 62
     7
 10
104.605
 20
11.679299999999991
 30
0.0
 40
3.0923400000000001
  1
品番
 41
0.5
  0
TEXT
  5
27F
  8
_________2
 62
     7
 10
104.605
 20
31.818100000000001
 30
0.0
 40
3.0923400000000001
  1
名称
 41
0.5
  0
TEXT
  5
280
  8
_________2
 62
     7
 10
91.845058333333341
 20
26.821999999999989
 30
0.0
 40
3.6545800000000002
  1
mm
 41
0.5
 72
     1
 11
93.367800000000003
 21
26.821999999999989
 31
0.0
  0
TEXT
  5
281
  8
_________2
 62
     7
 10
85.643199999999993
 20
31.818100000000001
 30
0.0
 40
3.0923400000000001
  1
単位
 41
0.5
  0
TEXT
  5
282
  8
_________2
 62
     7
 10
85.643199999999993
 20
19.410799999999991
 30
0.0
 40
3.0923400000000001
  1
尺度
 41
0.5
  0
TEXT
  5
283
  8
_________2
 62
     7
 10
90.548758666666686
 20
13.2179
 30
0.0
 40
3.6545800000000002
  1
1 ： 4
 41
0.5
 72
     1
 11
93.959699999999998
 21
13.2179
 31
0.0
  0
TEXT
  5
284
  8
_________2
 62
     7
 10
136.17056249999999
 20
9.1078600000000005
 30
0.0
 40
3.9357000000000002
  1
HG52053L
 41
0.5
 72
     1
 11
143.55000000000001
 21
9.1078600000000005
 31
0.0
  0
TEXT
  5
285
  8
_________2
 62
     7
 10
136.17056249999999
 20
-0.8926299999999999
 30
0.0
 40
3.9357000000000002
  1
HG52053L
 41
0.5
 72
     1
 11
143.55000000000001
 21
-0.8926299999999999
 31
0.0
  0
TEXT
  5
286
  8
_________2
 62
     7
 10
109.179
 20
24.2257
 30
0.0
 40
3.9357000000000002
  1
ボトルトラップ
 41
0.5
  0
TEXT
  5
287
  8
_________2
 62
     7
 10
39.364390666666658
 20
13.603
 30
0.0
 40
3.6545800000000002
  1
高橋
 41
0.5
 72
     1
 11
41.313499999999998
 21
13.603
 31
0.0
  0
TEXT
  5
288
  8
_________2
 62
     7
 10
20.790090666666661
 20
13.603
 30
0.0
 40
3.6545800000000002
  1
石原
 41
0.5
 72
     1
 11
22.73919999999999
 21
13.603
 31
0.0
  0
TEXT
  5
289
  8
_________2
 62
     7
 10
67.785399999999996
 20
13.2179
 30
0.0
 40
3.6545800000000002
  1
07.05.07
 41
0.5
  0
TEXT
  5
28A
  8
_________2
 62
     7
 10
66.593100000000007
 20
19.410799999999991
 30
0.0
 40
3.0923400000000001
  1
日付
 41
0.5
  0
TEXT
  5
28B
  8
_________2
 62
     7
 10
29.639399999999998
 20
19.410799999999991
 30
0.0
 40
3.0923400000000001
  1
検図
 41
0.5
  0
TEXT
  5
28C
  8
_________2
 62
     7
 10
18.021100000000001
 20
5.21143
 30
0.0
 40
3.0923400000000001
  1
備考
 41
0.5
  0
TEXT
  5
28D
  8
_________2
 62
     7
 10
18.021100000000001
 20
19.410799999999991
 30
0.0
 40
3.0923400000000001
  1
製図
 41
0.5
  0
TEXT
  5
28E
  8
_________2
 62
     7
 10
23.788465333333338
 20
27.936800000000002
 30
0.0
 40
4.4979399999999989
  1
セラトレーディング株式会社
 41
0.5
 72
     1
 11
41.180500000000002
 21
27.936800000000002
 31
0.0
  0
LINE
  5
28F
  8
_________2
 62
     7
 10
183.55099999999999
 20
-4.0910799999999998
 30
0.0
 11
17.049499999999998
 21
-4.0910799999999998
 31
0.0
  0
LINE
  5
290
  8
_________2
 62
     7
 10
17.049499999999998
 20
-4.0910799999999998
 30
0.0
 11
17.049499999999998
 21
258.911
 31
0.0
  0
LINE
  5
291
  8
_________2
 62
     7
 10
17.049499999999998
 20
258.911
 30
0.0
 11
183.55099999999999
 21
258.911
 31
0.0
  0
LINE
  5
292
  8
_________2
 62
     7
 10
183.55099999999999
 20
258.911
 30
0.0
 11
183.55099999999999
 21
-4.0910799999999998
 31
0.0
  0
LINE
  5
293
  8
_________2
 62
     7
 10
65.549599999999998
 20
9.4089600000000004
 30
0.0
 11
65.549599999999998
 21
35.908799999999999
 31
0.0
  0
LINE
  5
294
  8
_________2
 62
     7
 10
84.549700000000016
 20
9.4089600000000004
 30
0.0
 11
84.549700000000016
 21
35.908799999999999
 31
0.0
  0
LINE
  5
295
  8
_________2
 62
     7
 10
103.55
 20
-4.0910799999999998
 30
0.0
 11
103.55
 21
35.908799999999999
 31
0.0
  0
LINE
  5
296
  8
_________2
 62
     7
 10
28.549299999999992
 20
9.4089600000000004
 30
0.0
 11
28.549299999999992
 21
23.409199999999998
 31
0.0
  0
LINE
  5
297
  8
_________2
 62
     7
 10
17.049499999999998
 20
9.4089600000000004
 30
0.0
 11
103.55
 21
9.4089600000000004
 31
0.0
  0
LINE
  5
298
  8
_________2
 62
     7
 10
17.049499999999998
 20
23.409199999999998
 30
0.0
 11
103.55
 21
23.409199999999998
 31
0.0
  0
LINE
  5
299
  8
_________2
 62
     7
 10
103.55
 20
15.9085
 30
0.0
 11
183.55099999999999
 21
15.9085
 31
0.0
  0
LINE
  5
29A
  8
_________2
 62
     7
 10
17.049499999999998
 20
35.908799999999999
 30
0.0
 11
183.55099999999999
 21
35.908799999999999
 31
0.0
  0
ENDSEC
  0
EOF
