  0
SECTION
  2
HEADER
  9
$ACADVER
  1
AC1009
  9
$INSBASE
 10
0.0
 20
0.0
 30
0.0
  9
$EXTMIN
 10
-4.7012099999999988
 20
-21.071000000000002
 30
0.0
  9
$EXTMAX
 10
205.30099999999999
 20
275.93099999999998
 30
0.0
  9
$LIMMIN
 10
0.0
 20
0.0
  9
$LIMMAX
 10
12.0
 20
9.0
  9
$ORTHOMODE
 70
     0
  9
$REGENMODE
 70
     1
  9
$FILLMODE
 70
     1
  9
$QTEXTMODE
 70
     0
  9
$MIRRTEXT
 70
     1
  9
$DRAGMODE
 70
     2
  9
$LTSCALE
 40
1.0
  9
$OSMODE
 70
    37
  9
$ATTMODE
 70
     1
  9
$TEXTSIZE
 40
0.0
  9
$TRACEWID
 40
0.05
  9
$TEXTSTYLE
  7
STANDARD
  9
$CLAYER
  8
0
  9
$CELTYPE
  6
CONTINUOUS
  9
$CECOLOR
 62
   256
  9
$DIMSCALE
 40
1.0
  9
$DIMASZ
 40
0.18
  9
$DIMEXO
 40
0.0625
  9
$DIMDLI
 40
0.38
  9
$DIMRND
 40
0.0
  9
$DIMDLE
 40
0.0
  9
$DIMEXE
 40
0.18
  9
$DIMTP
 40
0.0
  9
$DIMTM
 40
0.0
  9
$DIMTXT
 40
0.18
  9
$DIMCEN
 40
0.09
  9
$DIMTSZ
 40
0.0
  9
$DIMTOL
 70
     0
  9
$DIMLIM
 70
     0
  9
$DIMTIH
 70
     1
  9
$DIMTOH
 70
     1
  9
$DIMSE1
 70
     0
  9
$DIMSE2
 70
     0
  9
$DIMTAD
 70
     0
  9
$DIMZIN
 70
     0
  9
$DIMBLK
  1

  9
$DIMASO
 70
     1
  9
$DIMSHO
 70
     1
  9
$DIMPOST
  1

  9
$DIMAPOST
  1

  9
$DIMALT
 70
     0
  9
$DIMALTD
 70
     2
  9
$DIMALTF
 40
25.399999999999999
  9
$DIMLFAC
 40
1.0
  9
$DIMTOFL
 70
     0
  9
$DIMTVP
 40
0.0
  9
$DIMTIX
 70
     0
  9
$DIMSOXD
 70
     0
  9
$DIMSAH
 70
     0
  9
$DIMBLK1
  1

  9
$DIMBLK2
  1

  9
$DIMSTYLE
  2
STANDARD
  9
$DIMCLRD
 70
     0
  9
$DIMCLRE
 70
     0
  9
$DIMCLRT
 70
     0
  9
$DIMTFAC
 40
1.0
  9
$DIMGAP
 40
0.09
  9
$LUNITS
 70
     2
  9
$LUPREC
 70
     4
  9
$SKETCHINC
 40
0.1
  9
$FILLETRAD
 40
0.0
  9
$AUNITS
 70
     0
  9
$AUPREC
 70
     0
  9
$MENU
  1
.
  9
$ELEVATION
 40
0.0
  9
$PELEVATION
 40
0.0
  9
$THICKNESS
 40
0.0
  9
$LIMCHECK
 70
     0
  9
$BLIPMODE
 70
     0
  9
$CHAMFERA
 40
0.0
  9
$CHAMFERB
 40
0.0
  9
$SKPOLY
 70
     0
  9
$TDCREATE
 40
2444972.375
  9
$TDUPDATE
 40
2457675.2496128469
  9
$TDINDWG
 40
0.0000321412
  9
$TDUSRTIMER
 40
0.0000321412
  9
$USRTIMER
 70
     1
  9
$ANGBASE
 50
0.0
  9
$ANGDIR
 70
     0
  9
$PDMODE
 70
     0
  9
$PDSIZE
 40
0.0
  9
$PLINEWID
 40
0.0
  9
$COORDS
 70
     1
  9
$SPLFRAME
 70
     0
  9
$SPLINETYPE
 70
     6
  9
$SPLINESEGS
 70
     8
  9
$ATTDIA
 70
     1
  9
$ATTREQ
 70
     1
  9
$HANDLING
 70
     1
  9
$HANDSEED
  5
344
  9
$SURFTAB1
 70
     6
  9
$SURFTAB2
 70
     6
  9
$SURFTYPE
 70
     6
  9
$SURFU
 70
     6
  9
$SURFV
 70
     6
  9
$UCSNAME
  2

  9
$UCSORG
 10
0.0
 20
0.0
 30
0.0
  9
$UCSXDIR
 10
1.0
 20
0.0
 30
0.0
  9
$UCSYDIR
 10
0.0
 20
1.0
 30
0.0
  9
$PUCSNAME
  2

  9
$PUCSORG
 10
0.0
 20
0.0
 30
0.0
  9
$PUCSXDIR
 10
1.0
 20
0.0
 30
0.0
  9
$PUCSYDIR
 10
0.0
 20
1.0
 30
0.0
  9
$USERI1
 70
     0
  9
$USERI2
 70
     0
  9
$USERI3
 70
     0
  9
$USERI4
 70
     0
  9
$USERI5
 70
     0
  9
$USERR1
 40
0.0
  9
$USERR2
 40
0.0
  9
$USERR3
 40
0.0
  9
$USERR4
 40
0.0
  9
$USERR5
 40
0.0
  9
$WORLDVIEW
 70
     1
  9
$SHADEDGE
 70
     3
  9
$SHADEDIF
 70
    70
  9
$TILEMODE
 70
     1
  9
$MAXACTVP
 70
    48
  9
$PLIMCHECK
 70
     0
  9
$PEXTMIN
 10
1.0000000000000000E+020
 20
1.0000000000000000E+020
 30
1.0000000000000000E+020
  9
$PEXTMAX
 10
-1.0000000000000000E+020
 20
-1.0000000000000000E+020
 30
-1.0000000000000000E+020
  9
$PLIMMIN
 10
0.0
 20
0.0
  9
$PLIMMAX
 10
12.0
 20
9.0
  9
$UNITMODE
 70
     0
  9
$VISRETAIN
 70
     1
  9
$PLINEGEN
 70
     0
  9
$PSLTSCALE
 70
     1
  0
ENDSEC
  0
SECTION
  2
TABLES
  0
TABLE
  2
VPORT
 70
     1
  0
VPORT
  2
*ACTIVE
 70
     0
 10
0.0
 20
0.0
 11
1.0
 21
1.0
 12
242.94244138791149
 22
127.42999999999989
 13
0.0
 23
0.0
 14
1.0
 24
1.0
 15
0.0
 25
0.0
 16
0.0
 26
0.0
 36
1.0
 17
0.0
 27
0.0
 37
0.0
 40
271.07266271200172
 41
1.5328467153284671
 42
50.0
 43
0.0
 44
0.0
 50
0.0
 51
0.0
 71
     0
 72
   100
 73
     1
 74
     1
 75
     0
 76
     0
 77
     0
 78
     0
  0
ENDTAB
  0
TABLE
  2
LTYPE
 70
     3
  0
LTYPE
  2
CONTINUOUS
 70
     0
  3
Solid line
 72
    65
 73
     0
 40
0.0
  0
LTYPE
  2
AIGENLINE001
 70
     0
  3
generate AI->DXF Converter
 72
    65
 73
     4
 40
5.8561449999999988
 49
3.5278
 49
-0.776115
 49
0.776115
 49
-0.776115
  0
LTYPE
  2
AIGENLINE002
 70
     0
  3
generate AI->DXF Converter
 72
    65
 73
     2
 40
1.5522299999999991
 49
0.776115
 49
-0.776115
  0
ENDTAB
  0
TABLE
  2
LAYER
 70
     2
  0
LAYER
  2
0
 70
     0
 62
     7
  6
CONTINUOUS
  0
LAYER
  2
_________2
 70
     0
 62
     7
  6
CONTINUOUS
  0
ENDTAB
  0
TABLE
  2
STYLE
 70
     1
  0
STYLE
  2
STANDARD
 70
     0
 40
0.0
 41
0.0
 50
0.0
 71
     0
 42
0.0
  3
TXT
  4
EXTFONT.SHX
  0
ENDTAB
  0
TABLE
  2
VIEW
 70
     0
  0
ENDTAB
  0
TABLE
  2
UCS
 70
     0
  0
ENDTAB
  0
TABLE
  2
APPID
 70
     3
  0
APPID
  2
ACAD
 70
     0
  0
APPID
  2
ACAD_NAV_VCDISPLAY
 70
     0
  0
APPID
  2
ACAD_MLEADERVER
 70
     0
  0
ENDTAB
  0
TABLE
  2
DIMSTYLE
 70
     1
  0
DIMSTYLE
  2
STANDARD
 70
     0
  3

  4

  5

  6

  7

 40
1.0
 41
0.18
 42
0.0625
 43
0.38
 44
0.18
 45
0.0
 46
0.0
 47
0.0
 48
0.0
140
0.18
141
0.09
142
0.0
143
25.399999999999999
144
1.0
145
0.0
146
1.0
147
0.09
 71
     0
 72
     0
 73
     1
 74
     1
 75
     0
 76
     0
 77
     0
 78
     0
170
     0
171
     2
172
     0
173
     0
174
     0
175
     0
176
     0
177
     0
178
     0
  0
ENDTAB
  0
ENDSEC
  0
SECTION
  2
BLOCKS
  0
BLOCK
  8
0
  2
$MODEL_SPACE
 70
     0
 10
0.0
 20
0.0
 30
0.0
  3
$MODEL_SPACE
  1

  0
ENDBLK
  5
1A
  8
0
  0
BLOCK
 67
     1
  8
0
  2
$PAPER_SPACE
 70
     0
 10
0.0
 20
0.0
 30
0.0
  3
$PAPER_SPACE
  1

  0
ENDBLK
  5
17
 67
     1
  8
0
  0
ENDSEC
  0
SECTION
  2
ENTITIES
  0
TEXT
  5
23
  8
0
 62
     7
 10
114.55
 20
120.71225
 30
0.0
 40
3.0923400000000001
  1
※254、289、324、359
 50
90.0
 41
0.5
 72
     1
 11
114.55
 21
133.59700000000001
 31
0.0
  0
TEXT
  5
24
  8
0
 62
     7
 10
103.551
 20
108.41813500000001
 30
0.0
 40
3.0923400000000001
  1
127
 50
90.0
 41
0.5
 72
     1
 11
103.551
 21
110.22199999999999
 31
0.0
  0
TEXT
  5
25
  8
0
 62
     7
 10
109.05
 20
112.6642875
 30
0.0
 40
3.0923400000000001
  1
207
 50
90.0
 41
0.5
 72
     1
 11
109.05
 21
114.59699999999999
 31
0.0
  0
TEXT
  5
26
  8
0
 62
     7
 10
43.77729999999999
 20
108.41813500000001
 30
0.0
 40
3.0923400000000001
  1
172
 50
90.0
 41
0.5
 72
     1
 11
43.77729999999999
 21
110.22199999999999
 31
0.0
  0
TEXT
  5
27
  8
0
 62
     7
 10
73.204072499999995
 20
120.464
 30
0.0
 40
3.0923400000000001
  1
90
 41
0.5
 72
     1
 11
74.363699999999994
 21
120.464
 31
0.0
  0
TEXT
  5
28
  8
0
 62
     7
 10
148.36237249999999
 20
120.114
 30
0.0
 40
3.0923400000000001
  1
30
 41
0.5
 72
     1
 11
149.52199999999999
 21
120.114
 31
0.0
  0
TEXT
  5
29
  8
0
 62
     7
 10
103.545
 20
208.325525
 30
0.0
 40
3.0923400000000001
  1
76
 50
90.0
 41
0.5
 72
     1
 11
103.545
 21
209.614
 31
0.0
  0
TEXT
  5
2A
  8
0
 62
     7
 10
72.688682499999999
 20
191.19300000000001
 30
0.0
 40
3.0923400000000001
  1
160
 41
0.5
 72
     1
 11
74.363699999999994
 21
191.19300000000001
 31
0.0
  0
TEXT
  5
2B
  8
0
 62
     7
 10
72.688682499999999
 20
72.654799999999994
 30
0.0
 40
3.0923400000000001
  1
160
 41
0.5
 72
     1
 11
74.363699999999994
 21
72.654799999999994
 31
0.0
  0
TEXT
  5
2C
  8
0
 62
     7
 10
72.817529999999991
 20
78.155199999999994
 30
0.0
 40
3.0923400000000001
  1
100
 41
0.5
 72
     1
 11
74.363699999999994
 21
78.155199999999994
 31
0.0
  0
TEXT
  5
2D
  8
0
 62
     7
 10
148.23352499999999
 20
78.155199999999994
 30
0.0
 40
3.0923400000000001
  1
76
 41
0.5
 72
     1
 11
149.52199999999999
 21
78.155199999999994
 31
0.0
  0
TEXT
  5
2E
  8
0
 62
     7
 10
20.139500000000002
 20
58.666200000000011
 30
0.0
 40
3.9357000000000002
  1
付属品：スポンジテープ
 41
0.5
  0
TEXT
  5
2F
  8
0
 62
     7
 10
20.139500000000002
 20
53.746600000000001
 30
0.0
 40
3.9357000000000002
  1
SUSタッピングねじ%%c4\U+00D720（2本）
 41
0.5
  0
TEXT
  5
30
  8
0
 62
     7
 10
20.139500000000002
 20
38.674199999999999
 30
0.0
 40
3.9357000000000002
  1
※高さは254、289、324、359で調整することができます。
 41
0.5
  0
LINE
  5
31
  8
0
  6
AIGENLINE001
 62
     7
 10
149.52199999999999
 20
90.479799999999997
 30
0.0
 11
149.52199999999999
 21
86.190600000000003
 31
0.0
  0
LINE
  5
32
  8
0
  6
AIGENLINE001
 62
     7
 10
63.113300000000002
 20
221.98400000000001
 30
0.0
 11
63.113300000000002
 21
216.995
 31
0.0
  0
LINE
  5
33
  8
0
  6
AIGENLINE001
 62
     7
 10
85.614099999999993
 20
221.98400000000001
 30
0.0
 11
85.614099999999993
 21
216.995
 31
0.0
  0
LINE
  5
34
  8
0
  6
AIGENLINE002
 62
     7
 10
150.02199999999999
 20
89.221599999999995
 30
0.0
 11
150.02199999999999
 21
88.721399999999988
 31
0.0
  0
LINE
  5
35
  8
0
  6
AIGENLINE002
 62
     7
 10
149.023
 20
89.221599999999995
 30
0.0
 11
149.023
 21
88.721399999999988
 31
0.0
  0
LINE
  5
36
  8
0
  6
AIGENLINE002
 62
     7
 10
86.363699999999994
 20
88.721399999999988
 30
0.0
 11
86.363699999999994
 21
89.221599999999995
 31
0.0
  0
LINE
  5
37
  8
0
  6
AIGENLINE002
 62
     7
 10
87.363900000000001
 20
88.721399999999988
 30
0.0
 11
87.363900000000001
 21
89.221599999999995
 31
0.0
  0
LINE
  5
38
  8
0
  6
AIGENLINE001
 62
     7
 10
86.86399999999999
 20
90.479799999999997
 30
0.0
 11
86.86399999999999
 21
86.190600000000003
 31
0.0
  0
LINE
  5
39
  8
0
  6
AIGENLINE001
 62
     7
 10
61.863500000000002
 20
90.479799999999997
 30
0.0
 11
61.863500000000002
 21
86.190600000000003
 31
0.0
  0
ARC
  5
3A
  8
0
 62
     7
 10
57.092518999999989
 20
166.09802099999999
 30
0.0
 40
1.271428
 50
308.04503499999998
 51
359.52826800000003
  0
ARC
  5
3B
  8
0
 62
     7
 10
56.385238000000001
 20
162.34626
 30
0.0
 40
1.271498999999999
 50
128.066384
 51
179.53895299999999
  0
LINE
  5
3C
  8
0
 62
     7
 10
57.876100000000001
 20
165.09700000000001
 30
0.0
 11
55.601999999999997
 21
163.34700000000001
 31
0.0
  0
LINE
  5
3D
  8
0
 62
     7
 10
55.113799999999991
 20
140.47200000000001
 30
0.0
 11
55.113799999999991
 21
162.35599999999999
 31
0.0
  0
ARC
  5
3E
  8
0
 62
     7
 10
91.634658000000002
 20
166.097554
 30
0.0
 40
1.2704770000000001
 50
180.451064
 51
231.975674
  0
ARC
  5
3F
  8
0
 62
     7
 10
92.342196999999999
 20
162.34626
 30
0.0
 40
1.271498999999999
 50
0.461027
 51
51.933595999999987
  0
LINE
  5
40
  8
0
 62
     7
 10
114.782
 20
90.490099999999998
 30
0.0
 11
115.256
 21
88.721399999999988
 31
0.0
  0
LINE
  5
41
  8
0
 62
     7
 10
115.256
 20
88.721399999999988
 30
0.0
 11
115.73
 21
90.490099999999998
 31
0.0
  0
LINE
  5
42
  8
0
 62
     7
 10
115.73
 20
90.490099999999998
 30
0.0
 11
114.782
 21
90.490099999999998
 31
0.0
  0
LINE
  5
43
  8
0
 62
     7
 10
115.718
 20
176.70400000000001
 30
0.0
 11
115.245
 21
178.47200000000001
 31
0.0
  0
LINE
  5
44
  8
0
 62
     7
 10
115.245
 20
178.47200000000001
 30
0.0
 11
114.771
 21
176.70400000000001
 31
0.0
  0
LINE
  5
45
  8
0
 62
     7
 10
114.771
 20
176.70400000000001
 30
0.0
 11
115.718
 21
176.70400000000001
 31
0.0
  0
LINE
  5
46
  8
0
 62
     7
 10
115.25
 20
88.742800000000003
 30
0.0
 11
115.25
 21
178.45099999999999
 31
0.0
  0
LINE
  5
47
  8
0
 62
     7
 10
103.783
 20
90.490099999999998
 30
0.0
 11
104.256
 21
88.721399999999988
 31
0.0
  0
LINE
  5
48
  8
0
 62
     7
 10
104.256
 20
88.721399999999988
 30
0.0
 11
104.73
 21
90.490099999999998
 31
0.0
  0
LINE
  5
49
  8
0
 62
     7
 10
104.73
 20
90.490099999999998
 30
0.0
 11
103.783
 21
90.490099999999998
 31
0.0
  0
LINE
  5
4A
  8
0
 62
     7
 10
104.718
 20
129.95400000000001
 30
0.0
 11
104.245
 21
131.72200000000001
 31
0.0
  0
LINE
  5
4B
  8
0
 62
     7
 10
104.245
 20
131.72200000000001
 30
0.0
 11
103.771
 21
129.95400000000001
 31
0.0
  0
LINE
  5
4C
  8
0
 62
     7
 10
103.771
 20
129.95400000000001
 30
0.0
 11
104.718
 21
129.95400000000001
 31
0.0
  0
LINE
  5
4D
  8
0
 62
     7
 10
104.251
 20
88.742800000000003
 30
0.0
 11
104.251
 21
131.69999999999999
 31
0.0
  0
LINE
  5
4E
  8
0
 62
     7
 10
109.283
 20
90.490099999999998
 30
0.0
 11
109.756
 21
88.721399999999988
 31
0.0
  0
LINE
  5
4F
  8
0
 62
     7
 10
109.756
 20
88.721399999999988
 30
0.0
 11
110.23
 21
90.490099999999998
 31
0.0
  0
LINE
  5
50
  8
0
 62
     7
 10
110.23
 20
90.490099999999998
 30
0.0
 11
109.283
 21
90.490099999999998
 31
0.0
  0
LINE
  5
51
  8
0
 62
     7
 10
110.218
 20
138.70400000000001
 30
0.0
 11
109.745
 21
140.47200000000001
 31
0.0
  0
LINE
  5
52
  8
0
 62
     7
 10
109.745
 20
140.47200000000001
 30
0.0
 11
109.271
 21
138.70400000000001
 31
0.0
  0
LINE
  5
53
  8
0
 62
     7
 10
109.271
 20
138.70400000000001
 30
0.0
 11
110.218
 21
138.70400000000001
 31
0.0
  0
LINE
  5
54
  8
0
 62
     7
 10
109.75
 20
88.742800000000003
 30
0.0
 11
109.75
 21
140.45099999999999
 31
0.0
  0
LINE
  5
55
  8
0
 62
     7
 10
44.009500000000003
 20
90.490099999999998
 30
0.0
 11
44.48279999999999
 21
88.721399999999988
 31
0.0
  0
LINE
  5
56
  8
0
 62
     7
 10
44.48279999999999
 20
88.721399999999988
 30
0.0
 11
44.95689999999999
 21
90.490099999999998
 31
0.0
  0
LINE
  5
57
  8
0
 62
     7
 10
44.95689999999999
 20
90.490099999999998
 30
0.0
 11
44.009500000000003
 21
90.490099999999998
 31
0.0
  0
LINE
  5
58
  8
0
 62
     7
 10
44.9452
 20
129.95400000000001
 30
0.0
 11
44.471800000000002
 21
131.72200000000001
 31
0.0
  0
LINE
  5
59
  8
0
 62
     7
 10
44.471800000000002
 20
131.72200000000001
 30
0.0
 11
43.997799999999991
 21
129.95400000000001
 31
0.0
  0
LINE
  5
5A
  8
0
 62
     7
 10
43.997799999999991
 20
129.95400000000001
 30
0.0
 11
44.9452
 21
129.95400000000001
 31
0.0
  0
LINE
  5
5B
  8
0
 62
     7
 10
44.477299999999993
 20
88.742800000000003
 30
0.0
 11
44.477299999999993
 21
131.69999999999999
 31
0.0
  0
LINE
  5
5C
  8
0
  6
AIGENLINE002
 62
     7
 10
155.77199999999999
 20
89.221599999999995
 30
0.0
 11
143.27199999999999
 21
89.221599999999995
 31
0.0
  0
LINE
  5
5D
  8
0
  6
AIGENLINE002
 62
     7
 10
91.113900000000001
 20
89.221599999999995
 30
0.0
 11
57.613599999999991
 21
89.221599999999995
 31
0.0
  0
LINE
  5
5E
  8
0
  6
AIGENLINE002
 62
     7
 10
61.363599999999991
 20
88.721399999999988
 30
0.0
 11
61.363599999999991
 21
89.221599999999995
 31
0.0
  0
LINE
  5
5F
  8
0
  6
AIGENLINE002
 62
     7
 10
62.363700000000001
 20
88.721399999999988
 30
0.0
 11
62.363700000000001
 21
89.221599999999995
 31
0.0
  0
ARC
  5
60
  8
0
 62
     7
 10
89.104666000000009
 20
96.962118000000004
 30
0.0
 40
0.25996
 50
2.1307099999999992
 51
87.869280000000003
  0
LINE
  5
61
  8
0
 62
     7
 10
54.363399999999999
 20
101.789
 30
0.0
 11
54.363399999999999
 21
101.405
 31
0.0
  0
LINE
  5
62
  8
0
 62
     7
 10
94.113900000000001
 20
91.221900000000005
 30
0.0
 11
94.113900000000001
 21
100.97199999999999
 31
0.0
  0
LINE
  5
63
  8
0
 62
     7
 10
94.36399999999999
 20
101.405
 30
0.0
 11
94.36399999999999
 21
101.789
 31
0.0
  0
ARC
  5
64
  8
0
 62
     7
 10
59.623446999999999
 20
96.962128000000007
 30
0.0
 40
0.25995
 50
92.128518000000014
 51
177.87145200000001
  0
ARC
  5
65
  8
0
 62
     7
 10
59.623457999999992
 20
94.981212999999997
 30
0.0
 40
0.25996
 50
182.13073
 51
267.86930000000001
  0
ARC
  5
66
  8
0
 62
     7
 10
89.104660999999979
 20
94.981217999999984
 30
0.0
 40
0.259966
 50
272.13181300000002
 51
357.86819700000001
  0
LINE
  5
67
  8
0
 62
     7
 10
54.613500000000002
 20
100.97199999999999
 30
0.0
 11
54.613500000000002
 21
91.221900000000005
 31
0.0
  0
LINE
  5
68
  8
0
 62
     7
 10
54.613500000000002
 20
100.97199999999999
 30
0.0
 11
94.113900000000001
 21
100.97199999999999
 31
0.0
  0
ARC
  5
69
  8
0
 62
     7
 10
91.613763999999989
 20
91.221537999999995
 30
0.0
 40
2.5001220000000002
 50
270.00791500000003
 51
0.007885
  0
ARC
  5
6A
  8
0
 62
     7
 10
57.113669999999992
 20
91.221536999999998
 30
0.0
 40
2.500121
 50
179.992075
 51
269.99212499999999
  0
LINE
  5
6B
  8
0
 62
     7
 10
91.614099999999993
 20
88.721399999999988
 30
0.0
 11
57.113300000000002
 21
88.721399999999988
 31
0.0
  0
LINE
  5
6C
  8
0
 62
     7
 10
89.364400000000003
 20
96.971800000000016
 30
0.0
 11
89.364400000000003
 21
94.971500000000006
 31
0.0
  0
LINE
  5
6D
  8
0
 62
     7
 10
59.613799999999998
 20
97.221900000000005
 30
0.0
 11
89.114300000000014
 21
97.221900000000005
 31
0.0
  0
LINE
  5
6E
  8
0
 62
     7
 10
59.363700000000001
 20
94.971500000000006
 30
0.0
 11
59.363700000000001
 21
96.971800000000016
 31
0.0
  0
LINE
  5
6F
  8
0
 62
     7
 10
89.114300000000014
 20
94.721400000000017
 30
0.0
 11
59.613799999999998
 21
94.721400000000017
 31
0.0
  0
LINE
  5
70
  8
0
 62
     7
 10
54.613500000000002
 20
102.221
 30
0.0
 11
94.113900000000001
 21
102.221
 31
0.0
  0
ARC
  5
71
  8
0
 62
     7
 10
93.853659999999991
 20
101.78239600000001
 30
0.0
 40
0.5103800000000001
 50
0.712881
 51
59.34512500000001
  0
ARC
  5
72
  8
0
 62
     7
 10
54.871619000000003
 20
101.783642
 30
0.0
 40
0.5082110000000001
 50
120.517402
 51
179.42455200000001
  0
ARC
  5
73
  8
0
 62
     7
 10
93.853353999999996
 20
101.410788
 30
0.0
 40
0.51068
 50
300.67485199999999
 51
359.34610500000002
  0
ARC
  5
74
  8
0
 62
     7
 10
54.873845999999993
 20
101.410653
 30
0.0
 40
0.5104440000000001
 50
180.63905399999999
 51
239.34002799999999
  0
LINE
  5
75
  8
0
 62
     7
 10
159.02199999999999
 20
101.405
 30
0.0
 11
159.02199999999999
 21
101.789
 31
0.0
  0
LINE
  5
76
  8
0
 62
     7
 10
140.023
 20
101.789
 30
0.0
 11
140.023
 21
101.405
 31
0.0
  0
LINE
  5
77
  8
0
 62
     7
 10
158.77199999999999
 20
91.221900000000005
 30
0.0
 11
158.77199999999999
 21
100.97199999999999
 31
0.0
  0
ARC
  5
78
  8
0
 62
     7
 10
142.77289400000001
 20
91.221536999999998
 30
0.0
 40
2.500121
 50
179.992075
 51
269.99212499999999
  0
LINE
  5
79
  8
0
 62
     7
 10
140.273
 20
100.97199999999999
 30
0.0
 11
140.273
 21
91.221900000000005
 31
0.0
  0
ARC
  5
7A
  8
0
 62
     7
 10
156.27224100000001
 20
91.221537999999995
 30
0.0
 40
2.5001220000000002
 50
270.00791500000003
 51
0.007885
  0
LINE
  5
7B
  8
0
 62
     7
 10
156.273
 20
88.721399999999988
 30
0.0
 11
142.773
 21
88.721399999999988
 31
0.0
  0
LINE
  5
7C
  8
0
 62
     7
 10
140.273
 20
102.221
 30
0.0
 11
158.77199999999999
 21
102.221
 31
0.0
  0
ARC
  5
7D
  8
0
 62
     7
 10
158.51213799999999
 20
101.78239600000001
 30
0.0
 40
0.5103800000000001
 50
0.712881
 51
59.34512500000001
  0
ARC
  5
7E
  8
0
 62
     7
 10
140.53139100000001
 20
101.783325
 30
0.0
 40
0.508763
 50
120.552494
 51
179.38946000000001
  0
ARC
  5
7F
  8
0
 62
     7
 10
140.53416300000001
 20
101.411283
 30
0.0
 40
0.511545
 50
180.708326
 51
239.27075600000001
  0
LINE
  5
80
  8
0
 62
     7
 10
158.77199999999999
 20
100.97199999999999
 30
0.0
 11
140.273
 21
100.97199999999999
 31
0.0
  0
ARC
  5
81
  8
0
 62
     7
 10
158.511832
 20
101.410788
 30
0.0
 40
0.51068
 50
300.67485199999999
 51
359.34610500000002
  0
ARC
  5
82
  8
0
 62
     7
 10
90.13340500000001
 20
210.25845699999999
 30
0.0
 40
0.519904
 50
182.167022
 51
267.87248099999999
  0
ARC
  5
83
  8
0
 62
     7
 10
90.114018999999999
 20
210.23871199999999
 30
0.0
 40
0.500145
 50
89.990132999999986
 51
179.990104
  0
ARC
  5
84
  8
0
 62
     7
 10
90.133418000000006
 20
209.00840099999999
 30
0.0
 40
0.51991
 50
182.14859899999999
 51
267.87116400000002
  0
ARC
  5
85
  8
0
 62
     7
 10
90.133086000000006
 20
208.96957
 30
0.0
 40
0.519573
 50
92.093641000000005
 51
177.86685600000001
  0
LINE
  5
86
  8
0
 62
     7
 10
93.613699999999994
 20
210.739
 30
0.0
 11
90.114099999999993
 21
210.739
 31
0.0
  0
LINE
  5
87
  8
0
 62
     7
 10
93.613699999999994
 20
209.739
 30
0.0
 11
90.114099999999993
 21
209.739
 31
0.0
  0
LINE
  5
88
  8
0
 62
     7
 10
93.613699999999994
 20
209.489
 30
0.0
 11
90.114099999999993
 21
209.489
 31
0.0
  0
LINE
  5
89
  8
0
 62
     7
 10
93.613699999999994
 20
208.489
 30
0.0
 11
90.114099999999993
 21
208.489
 31
0.0
  0
ARC
  5
8A
  8
0
 62
     7
 10
57.363442000000013
 20
216.113756
 30
0.0
 40
3.000008999999999
 50
90.0
 51
179.99996999999999
  0
ARC
  5
8B
  8
0
 62
     7
 10
91.248878000000005
 20
215.99864099999999
 30
0.0
 40
3.117249999999999
 50
2.1163270000000001
 51
87.883662999999984
  0
ARC
  5
8C
  8
0
 62
     7
 10
57.363441000000002
 20
203.113778
 30
0.0
 40
3.0000079999999998
 50
179.99996999999999
 51
270.00002000000001
  0
ARC
  5
8D
  8
0
 62
     7
 10
91.248878000000005
 20
203.228894
 30
0.0
 40
3.117249999999999
 50
272.11633699999999
 51
357.88367299999999
  0
ARC
  5
8E
  8
0
 62
     7
 10
60.863165000000002
 20
216.11392799999999
 30
0.0
 40
2.249833999999999
 50
90.004386999999994
 51
180.00439700000001
  0
ARC
  5
8F
  8
0
 62
     7
 10
60.863164000000012
 20
203.113606
 30
0.0
 40
2.2498330000000002
 50
179.99558300000001
 51
269.995633
  0
LINE
  5
90
  8
0
 62
     7
 10
58.613300000000002
 20
216.114
 30
0.0
 11
58.613300000000002
 21
203.114
 31
0.0
  0
ARC
  5
91
  8
0
 62
     7
 10
57.363269999999993
 20
216.113584
 30
0.0
 40
2.2501790000000002
 50
89.995614000000018
 51
179.99558400000001
  0
ARC
  5
92
  8
0
 62
     7
 10
57.363268999999988
 20
203.11394999999999
 30
0.0
 40
2.250178
 50
180.00439600000001
 51
270.00440600000002
  0
ARC
  5
93
  8
0
 62
     7
 10
87.863926000000006
 20
216.113584
 30
0.0
 40
2.2501790000000002
 50
0.004396
 51
90.004366000000005
  0
ARC
  5
94
  8
0
 62
     7
 10
87.863926000000006
 20
203.11395099999999
 30
0.0
 40
2.2501790000000002
 50
269.995634
 51
359.99560400000001
  0
LINE
  5
95
  8
0
 62
     7
 10
90.114099999999993
 20
216.114
 30
0.0
 11
90.114099999999993
 21
210.739
 31
0.0
  0
LINE
  5
96
  8
0
 62
     7
 10
90.114099999999993
 20
209.739
 30
0.0
 11
90.114099999999993
 21
209.489
 31
0.0
  0
LINE
  5
97
  8
0
 62
     7
 10
90.114099999999993
 20
208.489
 30
0.0
 11
90.114099999999993
 21
203.114
 31
0.0
  0
ARC
  5
98
  8
0
 62
     7
 10
91.36381999999999
 20
216.11392799999999
 30
0.0
 40
2.249833999999999
 50
359.99562300000002
 51
89.995592999999985
  0
ARC
  5
99
  8
0
 62
     7
 10
91.36381999999999
 20
203.113607
 30
0.0
 40
2.249833999999999
 50
270.00440700000001
 51
0.004377
  0
ARC
  5
9A
  8
0
 62
     7
 10
61.632638999999998
 20
219.344221
 30
0.0
 40
0.519904
 50
92.127519000000007
 51
177.832978
  0
ARC
  5
9B
  8
0
 62
     7
 10
64.594045999999992
 20
219.344221
 30
0.0
 40
0.519904
 50
2.1670020000000001
 51
87.872461000000001
  0
LINE
  5
9C
  8
0
 62
     7
 10
61.613300000000002
 20
219.864
 30
0.0
 11
64.613299999999995
 21
219.864
 31
0.0
  0
LINE
  5
9D
  8
0
 62
     7
 10
61.113100000000003
 20
219.114
 30
0.0
 11
61.113100000000003
 21
219.364
 31
0.0
  0
LINE
  5
9E
  8
0
 62
     7
 10
65.113600000000005
 20
219.114
 30
0.0
 11
65.113600000000005
 21
219.364
 31
0.0
  0
ARC
  5
9F
  8
0
 62
     7
 10
94.594468000000006
 20
207.34455700000001
 30
0.0
 40
0.519549
 50
2.1278509999999988
 51
87.832638000000003
  0
ARC
  5
A0
  8
0
 62
     7
 10
94.594293999999991
 20
204.38312500000001
 30
0.0
 40
0.5197230000000001
 50
272.18589600000001
 51
357.873355
  0
LINE
  5
A1
  8
0
 62
     7
 10
95.113699999999994
 20
207.364
 30
0.0
 11
95.113699999999994
 21
204.364
 31
0.0
  0
LINE
  5
A2
  8
0
 62
     7
 10
94.36399999999999
 20
207.864
 30
0.0
 11
94.614099999999979
 21
207.864
 31
0.0
  0
LINE
  5
A3
  8
0
 62
     7
 10
94.36399999999999
 20
203.864
 30
0.0
 11
94.614099999999979
 21
203.864
 31
0.0
  0
ARC
  5
A4
  8
0
 62
     7
 10
94.594468000000006
 20
214.84457699999999
 30
0.0
 40
0.519549
 50
2.1278509999999988
 51
87.832638000000003
  0
ARC
  5
A5
  8
0
 62
     7
 10
94.594293999999991
 20
211.88314600000001
 30
0.0
 40
0.5197230000000001
 50
272.18589600000001
 51
357.873355
  0
LINE
  5
A6
  8
0
 62
     7
 10
95.113699999999994
 20
214.864
 30
0.0
 11
95.113699999999994
 21
211.864
 31
0.0
  0
LINE
  5
A7
  8
0
 62
     7
 10
94.36399999999999
 20
215.364
 30
0.0
 11
94.614099999999979
 21
215.364
 31
0.0
  0
LINE
  5
A8
  8
0
 62
     7
 10
94.36399999999999
 20
211.364
 30
0.0
 11
94.614099999999979
 21
211.364
 31
0.0
  0
ARC
  5
A9
  8
0
 62
     7
 10
84.133389000000008
 20
219.344221
 30
0.0
 40
0.519904
 50
92.127519000000007
 51
177.832978
  0
ARC
  5
AA
  8
0
 62
     7
 10
87.094762000000003
 20
219.34490400000001
 30
0.0
 40
0.5192230000000001
 50
2.0944970000000001
 51
87.865992000000006
  0
LINE
  5
AB
  8
0
 62
     7
 10
84.114099999999993
 20
219.864
 30
0.0
 11
87.114099999999979
 21
219.864
 31
0.0
  0
LINE
  5
AC
  8
0
 62
     7
 10
83.613900000000001
 20
219.114
 30
0.0
 11
83.613900000000001
 21
219.364
 31
0.0
  0
LINE
  5
AD
  8
0
 62
     7
 10
87.613600000000005
 20
219.114
 30
0.0
 11
87.613600000000005
 21
219.364
 31
0.0
  0
ARC
  5
AE
  8
0
 62
     7
 10
59.411782999999993
 20
218.380043
 30
0.0
 40
1.491619
 50
87.020045999999994
 51
150.53469999999999
  0
ARC
  5
AF
  8
0
 62
     7
 10
59.361106999999997
 20
218.49131
 30
0.0
 40
1.3842849999999991
 50
58.466483999999987
 51
84.685346999999993
  0
ARC
  5
B0
  8
0
 62
     7
 10
59.31325300000001
 20
218.410191
 30
0.0
 40
1.4784539999999999
 50
28.416936
 51
58.529941000000001
  0
ARC
  5
B1
  8
0
 62
     7
 10
89.412552999999988
 20
218.380043
 30
0.0
 40
1.491619
 50
87.020045999999994
 51
150.53469999999999
  0
ARC
  5
B2
  8
0
 62
     7
 10
89.361877000000007
 20
218.49131
 30
0.0
 40
1.3842849999999991
 50
58.466483999999987
 51
84.685346999999993
  0
ARC
  5
B3
  8
0
 62
     7
 10
89.316342000000006
 20
218.413993
 30
0.0
 40
1.4740009999999999
 50
28.342585
 51
58.529651000000001
  0
ARC
  5
B4
  8
0
 62
     7
 10
59.415265000000012
 20
200.84363099999999
 30
0.0
 40
1.4927600000000001
 50
209.27055799999999
 51
267.48174
  0
ARC
  5
B5
  8
0
 62
     7
 10
59.361781999999998
 20
200.73501400000001
 30
0.0
 40
1.382754
 50
269.498356
 51
301.53962999999999
  0
ARC
  5
B6
  8
0
 62
     7
 10
59.312943000000011
 20
200.818027
 30
0.0
 40
1.479052
 50
301.46995399999997
 51
331.56548500000002
  0
ARC
  5
B7
  8
0
 62
     7
 10
89.416034999999994
 20
200.84363099999999
 30
0.0
 40
1.4927600000000001
 50
209.27055799999999
 51
267.48174
  0
ARC
  5
B8
  8
0
 62
     7
 10
89.362552000000008
 20
200.73501400000001
 30
0.0
 40
1.382754
 50
269.498356
 51
301.53962999999999
  0
ARC
  5
B9
  8
0
 62
     7
 10
89.316034000000002
 20
200.814221
 30
0.0
 40
1.4745950000000001
 50
301.47024399999998
 51
331.639838
  0
LINE
  5
BA
  8
0
 62
     7
 10
55.113100000000003
 20
216.114
 30
0.0
 11
55.113100000000003
 21
203.114
 31
0.0
  0
LINE
  5
BB
  8
0
 62
     7
 10
93.613699999999994
 20
216.114
 30
0.0
 11
93.613699999999994
 21
203.114
 31
0.0
  0
LINE
  5
BC
  8
0
 62
     7
 10
91.364000000000004
 20
200.864
 30
0.0
 11
57.363399999999999
 21
200.864
 31
0.0
  0
LINE
  5
BD
  8
0
 62
     7
 10
91.364000000000004
 20
218.364
 30
0.0
 11
57.363399999999999
 21
218.364
 31
0.0
  0
LINE
  5
BE
  8
0
 62
     7
 10
54.363399999999999
 20
216.114
 30
0.0
 11
54.363399999999999
 21
203.114
 31
0.0
  0
LINE
  5
BF
  8
0
 62
     7
 10
94.36399999999999
 20
216.114
 30
0.0
 11
94.36399999999999
 21
203.114
 31
0.0
  0
LINE
  5
C0
  8
0
 62
     7
 10
91.364000000000004
 20
200.114
 30
0.0
 11
57.363399999999999
 21
200.114
 31
0.0
  0
LINE
  5
C1
  8
0
 62
     7
 10
91.364000000000004
 20
219.114
 30
0.0
 11
57.363399999999999
 21
219.114
 31
0.0
  0
ARC
  5
C2
  8
0
 62
     7
 10
89.313226999999998
 20
106.271711
 30
0.0
 40
1.3502579999999991
 50
272.17395599999998
 51
357.88684599999999
  0
ARC
  5
C3
  8
0
 62
     7
 10
89.414369999999977
 20
106.271131
 30
0.0
 40
1.349629999999999
 50
182.08951300000001
 51
267.88012900000001
  0
ARC
  5
C4
  8
0
 62
     7
 10
89.364446999999998
 20
106.22192200000001
 30
0.0
 40
1.2988090000000001
 50
90.0
 51
179.99996999999999
  0
ARC
  5
C5
  8
0
 62
     7
 10
89.314538999999996
 20
106.17273
 30
0.0
 40
1.3489260000000001
 50
2.089942999999999
 51
87.879643000000002
  0
ARC
  5
C6
  8
0
 62
     7
 10
89.313905000000005
 20
115.021658
 30
0.0
 40
1.3495820000000001
 50
272.14625000000001
 51
357.884164
  0
ARC
  5
C7
  8
0
 62
     7
 10
89.364446999999998
 20
114.97183099999999
 30
0.0
 40
1.2988090000000001
 50
179.99996999999999
 51
270.00002000000001
  0
ARC
  5
C8
  8
0
 62
     7
 10
89.364446999999998
 20
114.97183099999999
 30
0.0
 40
1.2988090000000001
 50
90.0
 51
179.99996999999999
  0
ARC
  5
C9
  8
0
 62
     7
 10
89.314538999999996
 20
114.92263800000001
 30
0.0
 40
1.3489260000000001
 50
2.089942999999999
 51
87.879643000000002
  0
ARC
  5
CA
  8
0
 62
     7
 10
89.313905000000005
 20
123.771567
 30
0.0
 40
1.3495820000000001
 50
272.14625000000001
 51
357.884164
  0
ARC
  5
CB
  8
0
 62
     7
 10
89.364446999999998
 20
123.72174
 30
0.0
 40
1.2988090000000001
 50
179.99996999999999
 51
270.00002000000001
  0
ARC
  5
CC
  8
0
 62
     7
 10
89.364446999999998
 20
123.72174
 30
0.0
 40
1.2988090000000001
 50
90.0
 51
179.99996999999999
  0
ARC
  5
CD
  8
0
 62
     7
 10
89.314538999999996
 20
123.67254699999999
 30
0.0
 40
1.3489260000000001
 50
2.089942999999999
 51
87.879643000000002
  0
ARC
  5
CE
  8
0
 62
     7
 10
89.313905000000005
 20
132.52130299999999
 30
0.0
 40
1.3495820000000001
 50
272.14625000000001
 51
357.884164
  0
ARC
  5
CF
  8
0
 62
     7
 10
89.364446999999998
 20
132.47147699999999
 30
0.0
 40
1.2988090000000001
 50
179.99996999999999
 51
270.00002000000001
  0
ARC
  5
D0
  8
0
 62
     7
 10
89.364446999999998
 20
132.47147699999999
 30
0.0
 40
1.2988090000000001
 50
90.0
 51
179.99996999999999
  0
ARC
  5
D1
  8
0
 62
     7
 10
89.314538999999996
 20
132.42228399999999
 30
0.0
 40
1.3489260000000001
 50
2.089942999999999
 51
87.879643000000002
  0
ARC
  5
D2
  8
0
 62
     7
 10
59.313124000000002
 20
106.27176
 30
0.0
 40
1.3502819999999991
 50
272.14558099999999
 51
357.884816
  0
ARC
  5
D3
  8
0
 62
     7
 10
59.413600000000002
 20
106.271131
 30
0.0
 40
1.349629999999999
 50
182.08951300000001
 51
267.88012900000001
  0
ARC
  5
D4
  8
0
 62
     7
 10
59.363677000000003
 20
106.22192200000001
 30
0.0
 40
1.2988090000000001
 50
90.0
 51
179.99996999999999
  0
ARC
  5
D5
  8
0
 62
     7
 10
59.363677000000003
 20
106.22192200000001
 30
0.0
 40
1.2988090000000001
 50
0.00001
 51
89.999980000000008
  0
ARC
  5
D6
  8
0
 62
     7
 10
59.363677000000003
 20
114.97183200000001
 30
0.0
 40
1.2988090000000001
 50
270.00002000000001
 51
359.99999000000003
  0
ARC
  5
D7
  8
0
 62
     7
 10
59.363677000000003
 20
114.97183099999999
 30
0.0
 40
1.2988090000000001
 50
179.99996999999999
 51
270.00002000000001
  0
ARC
  5
D8
  8
0
 62
     7
 10
59.363677000000003
 20
114.97183099999999
 30
0.0
 40
1.2988090000000001
 50
90.0
 51
179.99996999999999
  0
ARC
  5
D9
  8
0
 62
     7
 10
59.363677000000003
 20
114.97183099999999
 30
0.0
 40
1.2988090000000001
 50
0.00001
 51
89.999980000000008
  0
ARC
  5
DA
  8
0
 62
     7
 10
59.363677000000003
 20
123.72174
 30
0.0
 40
1.2988090000000001
 50
270.00002000000001
 51
359.99999000000003
  0
ARC
  5
DB
  8
0
 62
     7
 10
59.363677000000003
 20
123.72174
 30
0.0
 40
1.2988090000000001
 50
179.99996999999999
 51
270.00002000000001
  0
ARC
  5
DC
  8
0
 62
     7
 10
59.363677000000003
 20
123.72174
 30
0.0
 40
1.2988090000000001
 50
90.0
 51
179.99996999999999
  0
ARC
  5
DD
  8
0
 62
     7
 10
59.363677000000003
 20
123.72174
 30
0.0
 40
1.2988090000000001
 50
0.00001
 51
89.999980000000008
  0
ARC
  5
DE
  8
0
 62
     7
 10
59.363677000000003
 20
132.47147699999999
 30
0.0
 40
1.2988090000000001
 50
270.00002000000001
 51
359.99999000000003
  0
ARC
  5
DF
  8
0
 62
     7
 10
59.363677000000003
 20
132.47147699999999
 30
0.0
 40
1.2988090000000001
 50
179.99996999999999
 51
270.00002000000001
  0
ARC
  5
E0
  8
0
 62
     7
 10
59.363677000000003
 20
132.47147699999999
 30
0.0
 40
1.2988090000000001
 50
90.0
 51
179.99996999999999
  0
ARC
  5
E1
  8
0
 62
     7
 10
59.363677000000003
 20
132.47147699999999
 30
0.0
 40
1.2988090000000001
 50
0.00001
 51
89.999980000000008
  0
LINE
  5
E2
  8
0
  6
AIGENLINE001
 62
     7
 10
85.614099999999993
 20
134.28700000000001
 30
0.0
 11
85.614099999999993
 21
126.58199999999999
 31
0.0
  0
LINE
  5
E3
  8
0
  6
AIGENLINE001
 62
     7
 10
96.035899999999998
 20
131.72200000000001
 30
0.0
 11
93.316699999999997
 21
131.72200000000001
 31
0.0
  0
LINE
  5
E4
  8
0
  6
AIGENLINE001
 62
     7
 10
97.233599999999996
 20
213.364
 30
0.0
 11
92.244399999999985
 21
213.364
 31
0.0
  0
LINE
  5
E5
  8
0
  6
AIGENLINE001
 62
     7
 10
97.233599999999996
 20
205.864
 30
0.0
 11
92.244399999999985
 21
205.864
 31
0.0
  0
LINE
  5
E6
  8
0
  6
AIGENLINE001
 62
     7
 10
88.106300000000005
 20
131.72200000000001
 30
0.0
 11
83.117099999999994
 21
131.72200000000001
 31
0.0
  0
LINE
  5
E7
  8
0
  6
AIGENLINE002
 62
     7
 10
83.864000000000004
 20
131.72200000000001
 30
0.0
 11
83.864000000000004
 21
130.44
 31
0.0
  0
LINE
  5
E8
  8
0
  6
AIGENLINE002
 62
     7
 10
87.364199999999997
 20
130.44
 30
0.0
 11
87.364199999999997
 21
131.72200000000001
 31
0.0
  0
ARC
  5
E9
  8
0
  6
AIGENLINE002
 62
     7
 10
85.717445999999995
 20
129.501204
 30
0.0
 40
2.0774629999999998
 50
153.14864499999999
 51
238.953036
  0
ARC
  5
EA
  8
0
  6
AIGENLINE002
 62
     7
 10
85.584356999999997
 20
129.57482400000001
 30
0.0
 40
2.0774629999999998
 50
243.14869200000001
 51
328.95300900000001
  0
ARC
  5
EB
  8
0
  6
AIGENLINE002
 62
     7
 10
85.573127999999997
 20
129.47146900000001
 30
0.0
 40
2.0359660000000002
 50
331.60885100000002
 51
28.391148999999999
  0
ARC
  5
EC
  8
0
  6
AIGENLINE002
 62
     7
 10
85.614436999999995
 20
131.721474
 30
0.0
 40
1.7497750000000001
 50
0.011291
 51
90.011261000000005
  0
ARC
  5
ED
  8
0
  6
AIGENLINE002
 62
     7
 10
85.613748000000015
 20
131.721474
 30
0.0
 40
1.7497750000000001
 50
89.988718999999989
 51
179.98868899999999
  0
ARC
  5
EE
  8
0
  6
AIGENLINE002
 62
     7
 10
85.680863000000002
 20
129.46192199999999
 30
0.0
 40
1.298184
 50
128.969043
 51
214.758117
  0
ARC
  5
EF
  8
0
  6
AIGENLINE002
 62
     7
 10
85.62401899999999
 20
129.538859
 30
0.0
 40
1.2988690000000001
 50
218.979772
 51
304.75372900000002
  0
ARC
  5
F0
  8
0
  6
AIGENLINE002
 62
     7
 10
85.547013000000007
 20
129.48102900000001
 30
0.0
 40
1.298821999999999
 50
309.00289600000002
 51
34.774799000000002
  0
ARC
  5
F1
  8
0
  6
AIGENLINE002
 62
     7
 10
85.606894999999994
 20
129.46427199999999
 30
0.0
 40
1.2601029999999991
 50
36.954138999999998
 51
53.045850999999999
  0
ARC
  5
F2
  8
0
  6
AIGENLINE002
 62
     7
 10
85.586185999999998
 20
131.693198
 30
0.0
 40
0.7787790000000001
 50
2.1061799999999988
 51
87.946446999999992
  0
ARC
  5
F3
  8
0
  6
AIGENLINE002
 62
     7
 10
85.643056999999999
 20
131.69285500000001
 30
0.0
 40
0.7791610000000001
 50
92.130403000000015
 51
177.86956699999999
  0
LINE
  5
F4
  8
0
  6
AIGENLINE002
 62
     7
 10
86.364400000000003
 20
131.72200000000001
 30
0.0
 11
86.364400000000003
 21
130.471
 31
0.0
  0
LINE
  5
F5
  8
0
  6
AIGENLINE002
 62
     7
 10
84.864399999999989
 20
130.471
 30
0.0
 11
84.864399999999989
 21
131.72200000000001
 31
0.0
  0
LINE
  5
F6
  8
0
  6
AIGENLINE001
 62
     7
 10
145.773
 20
134.637
 30
0.0
 11
145.773
 21
126.232
 31
0.0
  0
LINE
  5
F7
  8
0
  6
AIGENLINE001
 62
     7
 10
148.26499999999999
 20
131.72200000000001
 30
0.0
 11
143.27600000000001
 21
131.72200000000001
 31
0.0
  0
LINE
  5
F8
  8
0
 62
     7
 10
144.02199999999999
 20
131.72200000000001
 30
0.0
 11
144.02199999999999
 21
130.44
 31
0.0
  0
LINE
  5
F9
  8
0
 62
     7
 10
147.523
 20
130.44
 30
0.0
 11
147.523
 21
131.72200000000001
 31
0.0
  0
ARC
  5
FA
  8
0
 62
     7
 10
145.87616499999999
 20
129.50100499999999
 30
0.0
 40
2.077777999999999
 50
153.146905
 51
238.92794699999999
  0
ARC
  5
FB
  8
0
 62
     7
 10
145.74213700000001
 20
129.576379
 30
0.0
 40
2.0788530000000001
 50
243.167956
 51
328.92602900000003
  0
ARC
  5
FC
  8
0
 62
     7
 10
145.72801899999999
 20
129.47146900000001
 30
0.0
 40
2.0391110000000001
 50
331.65661399999999
 51
28.343385999999999
  0
ARC
  5
FD
  8
0
 62
     7
 10
145.77290199999999
 20
131.721474
 30
0.0
 40
1.7497750000000001
 50
0.011291
 51
90.011261000000005
  0
ARC
  5
FE
  8
0
 62
     7
 10
145.77221399999999
 20
131.721474
 30
0.0
 40
1.7497750000000001
 50
89.988718999999989
 51
179.98868899999999
  0
ARC
  5
FF
  8
0
 62
     7
 10
145.83964499999999
 20
129.46177900000001
 30
0.0
 40
1.2989269999999991
 50
128.99951899999999
 51
214.72764100000001
  0
ARC
  5
100
  8
0
 62
     7
 10
145.78191899999999
 20
129.53972899999999
 30
0.0
 40
1.299512999999999
 50
219.00613899999999
 51
304.72736200000003
  0
ARC
  5
101
  8
0
 62
     7
 10
145.70516699999999
 20
129.48139499999999
 30
0.0
 40
1.2988690000000001
 50
308.97976199999999
 51
34.753718999999997
  0
ARC
  5
102
  8
0
 62
     7
 10
145.76390000000001
 20
129.46071499999999
 30
0.0
 40
1.2634099999999999
 50
37.043199999999999
 51
53.114846999999997
  0
ARC
  5
103
  8
0
 62
     7
 10
145.743593
 20
131.69285500000001
 30
0.0
 40
0.7791610000000001
 50
2.130412999999999
 51
87.869577000000007
  0
ARC
  5
104
  8
0
 62
     7
 10
145.80150499999999
 20
131.69215700000001
 30
0.0
 40
0.7798580000000001
 50
92.127187000000006
 51
177.82014599999999
  0
LINE
  5
105
  8
0
 62
     7
 10
146.52199999999999
 20
131.72200000000001
 30
0.0
 11
146.52199999999999
 21
130.471
 31
0.0
  0
LINE
  5
106
  8
0
 62
     7
 10
145.02199999999999
 20
130.471
 30
0.0
 11
145.02199999999999
 21
131.72200000000001
 31
0.0
  0
LINE
  5
107
  8
0
  6
AIGENLINE001
 62
     7
 10
153.273
 20
134.637
 30
0.0
 11
153.273
 21
126.232
 31
0.0
  0
LINE
  5
108
  8
0
  6
AIGENLINE001
 62
     7
 10
155.76499999999999
 20
131.72200000000001
 30
0.0
 11
150.77600000000001
 21
131.72200000000001
 31
0.0
  0
LINE
  5
109
  8
0
 62
     7
 10
151.52199999999999
 20
131.72200000000001
 30
0.0
 11
151.52199999999999
 21
130.44
 31
0.0
  0
LINE
  5
10A
  8
0
 62
     7
 10
155.023
 20
130.44
 30
0.0
 11
155.023
 21
131.72200000000001
 31
0.0
  0
ARC
  5
10B
  8
0
 62
     7
 10
153.37618499999999
 20
129.50100499999999
 30
0.0
 40
2.077777999999999
 50
153.146905
 51
238.92794699999999
  0
ARC
  5
10C
  8
0
 62
     7
 10
153.24215699999999
 20
129.576379
 30
0.0
 40
2.0788530000000001
 50
243.167956
 51
328.92602900000003
  0
ARC
  5
10D
  8
0
 62
     7
 10
153.228039
 20
129.47146900000001
 30
0.0
 40
2.0391110000000001
 50
331.65661399999999
 51
28.343385999999999
  0
ARC
  5
10E
  8
0
 62
     7
 10
153.27292199999999
 20
131.721474
 30
0.0
 40
1.7497750000000001
 50
0.011291
 51
90.011261000000005
  0
ARC
  5
10F
  8
0
 62
     7
 10
153.272234
 20
131.721474
 30
0.0
 40
1.7497750000000001
 50
89.988718999999989
 51
179.98868899999999
  0
ARC
  5
110
  8
0
 62
     7
 10
153.339665
 20
129.46177900000001
 30
0.0
 40
1.2989269999999991
 50
128.99951899999999
 51
214.72764100000001
  0
ARC
  5
111
  8
0
 62
     7
 10
153.28193999999999
 20
129.53972899999999
 30
0.0
 40
1.299512999999999
 50
219.00613899999999
 51
304.72736200000003
  0
ARC
  5
112
  8
0
 62
     7
 10
153.20518799999999
 20
129.48139499999999
 30
0.0
 40
1.2988690000000001
 50
308.97976199999999
 51
34.753718999999997
  0
ARC
  5
113
  8
0
 62
     7
 10
153.26392100000001
 20
129.46071499999999
 30
0.0
 40
1.2634099999999999
 50
37.043199999999999
 51
53.114846999999997
  0
ARC
  5
114
  8
0
 62
     7
 10
153.2436129999999
 20
131.69285500000001
 30
0.0
 40
0.7791610000000001
 50
2.130412999999999
 51
87.869577000000007
  0
ARC
  5
115
  8
0
 62
     7
 10
153.301525
 20
131.69215700000001
 30
0.0
 40
0.7798580000000001
 50
92.127187000000006
 51
177.82014599999999
  0
LINE
  5
116
  8
0
 62
     7
 10
154.02199999999999
 20
131.72200000000001
 30
0.0
 11
154.02199999999999
 21
130.471
 31
0.0
  0
LINE
  5
117
  8
0
 62
     7
 10
152.52199999999999
 20
130.471
 30
0.0
 11
152.52199999999999
 21
131.72200000000001
 31
0.0
  0
LINE
  5
118
  8
0
  6
AIGENLINE001
 62
     7
 10
63.113300000000002
 20
134.28700000000001
 30
0.0
 11
63.113300000000002
 21
126.58199999999999
 31
0.0
  0
LINE
  5
119
  8
0
  6
AIGENLINE001
 62
     7
 10
65.605500000000006
 20
131.72200000000001
 30
0.0
 11
60.616300000000003
 21
131.72200000000001
 31
0.0
  0
LINE
  5
11A
  8
0
  6
AIGENLINE002
 62
     7
 10
61.363199999999999
 20
131.72200000000001
 30
0.0
 11
61.363199999999999
 21
130.44
 31
0.0
  0
LINE
  5
11B
  8
0
 62
     7
 10
93.6143
 20
103.47199999999999
 30
0.0
 11
55.113799999999991
 21
103.47199999999999
 31
0.0
  0
ARC
  5
11C
  8
0
 62
     7
 10
93.874065000000002
 20
103.461707
 30
0.0
 40
0.259927
 50
92.117980000000017
 51
177.72393299999999
  0
LINE
  5
11D
  8
0
 62
     7
 10
93.864500000000007
 20
103.721
 30
0.0
 11
54.863700000000001
 21
103.721
 31
0.0
  0
LINE
  5
11E
  8
0
 62
     7
 10
55.113799999999991
 20
103.47199999999999
 30
0.0
 11
55.113799999999991
 21
102.221
 31
0.0
  0
LINE
  5
11F
  8
0
 62
     7
 10
94.36399999999999
 20
104.22199999999999
 30
0.0
 11
54.363399999999999
 21
104.22199999999999
 31
0.0
  0
ARC
  5
120
  8
0
 62
     7
 10
93.845100999999985
 20
104.240331
 30
0.0
 40
0.5192350000000001
 50
272.1366470000001
 51
357.94233800000001
  0
ARC
  5
121
  8
0
 62
     7
 10
54.854695999999997
 20
103.46234699999999
 30
0.0
 40
0.259265
 50
2.14039
 51
88.017657
  0
ARC
  5
122
  8
0
 62
     7
 10
59.080412000000003
 20
151.33512400000001
 30
0.0
 40
21.679649999999999
 50
284.78622999999999
 51
285.27079600000002
  0
ARC
  5
123
  8
0
 62
     7
 10
68.748558000000003
 20
115.03427600000001
 30
0.0
 40
15.887616
 50
104.15441199999999
 51
104.426215
  0
LINE
  5
124
  8
0
  6
AIGENLINE002
 62
     7
 10
64.863500000000002
 20
130.44
 30
0.0
 11
64.863500000000002
 21
131.72200000000001
 31
0.0
  0
ARC
  5
125
  8
0
  6
AIGENLINE002
 62
     7
 10
63.216697000000003
 20
129.501204
 30
0.0
 40
2.0774629999999998
 50
153.14864499999999
 51
238.953036
  0
ARC
  5
126
  8
0
  6
AIGENLINE002
 62
     7
 10
63.11334200000001
 20
129.47146900000001
 30
0.0
 40
2.0000239999999998
 50
241.05086499999999
 51
331.050836
  0
ARC
  5
127
  8
0
  6
AIGENLINE002
 62
     7
 10
63.072378
 20
129.47146900000001
 30
0.0
 40
2.0359660000000002
 50
331.60885100000002
 51
28.391148999999999
  0
LINE
  5
128
  8
0
 62
     7
 10
54.363399999999999
 20
139.221
 30
0.0
 11
54.363399999999999
 21
104.22199999999999
 31
0.0
  0
ARC
  5
129
  8
0
  6
AIGENLINE002
 62
     7
 10
63.113686999999999
 20
131.721474
 30
0.0
 40
1.7497750000000001
 50
0.011291
 51
90.011261000000005
  0
ARC
  5
12A
  8
0
  6
AIGENLINE002
 62
     7
 10
63.180133999999988
 20
131.654312
 30
0.0
 40
1.818165
 50
92.105274999999992
 51
177.87213299999999
  0
LINE
  5
12B
  8
0
 62
     7
 10
95.113699999999994
 20
130.37299999999999
 30
0.0
 11
95.113699999999994
 21
127.721
 31
0.0
  0
ARC
  5
12C
  8
0
 62
     7
 10
94.854918999999995
 20
127.731032
 30
0.0
 40
0.259265
 50
271.98234300000001
 51
357.85960999999998
  0
LINE
  5
12D
  8
0
 62
     7
 10
95.113699999999994
 20
131.72200000000001
 30
0.0
 11
95.113699999999994
 21
130.37299999999999
 31
0.0
  0
LINE
  5
12E
  8
0
 62
     7
 10
94.36399999999999
 20
104.22199999999999
 30
0.0
 11
94.36399999999999
 21
139.221
 31
0.0
  0
LINE
  5
12F
  8
0
 62
     7
 10
94.36399999999999
 20
127.47199999999999
 30
0.0
 11
94.863900000000001
 21
127.47199999999999
 31
0.0
  0
LINE
  5
130
  8
0
 62
     7
 10
94.363699999999994
 20
133.471
 30
0.0
 11
94.863499999999988
 21
133.471
 31
0.0
  0
LINE
  5
131
  8
0
 62
     7
 10
54.113300000000002
 20
140.0389999999999
 30
0.0
 11
54.113300000000002
 21
139.655
 31
0.0
  0
ARC
  5
132
  8
0
  6
AIGENLINE002
 62
     7
 10
63.180112999999999
 20
129.46192199999999
 30
0.0
 40
1.298184
 50
128.969043
 51
214.758117
  0
ARC
  5
133
  8
0
  6
AIGENLINE002
 62
     7
 10
63.123268999999993
 20
129.538859
 30
0.0
 40
1.2988690000000001
 50
218.979772
 51
304.75372900000002
  0
ARC
  5
134
  8
0
  6
AIGENLINE002
 62
     7
 10
63.045970999999987
 20
129.48149100000001
 30
0.0
 40
1.299364999999999
 50
309.00008500000001
 51
34.733395999999999
  0
ARC
  5
135
  8
0
  6
AIGENLINE002
 62
     7
 10
63.115200999999999
 20
129.47056900000001
 30
0.0
 40
1.2496320000000001
 50
36.954005000000002
 51
53.204041999999987
  0
ARC
  5
136
  8
0
  6
AIGENLINE002
 62
     7
 10
63.085436000000001
 20
131.693198
 30
0.0
 40
0.7787790000000001
 50
2.1061799999999988
 51
87.946446999999992
  0
ARC
  5
137
  8
0
  6
AIGENLINE002
 62
     7
 10
63.142306999999988
 20
131.69285500000001
 30
0.0
 40
0.7791610000000001
 50
92.130403000000015
 51
177.86956699999999
  0
ARC
  5
138
  8
0
 62
     7
 10
54.863664999999997
 20
104.221687
 30
0.0
 40
0.5002310000000002
 50
179.99996999999999
 51
270.00002000000001
  0
LINE
  5
139
  8
0
 62
     7
 10
94.614099999999979
 20
139.655
 30
0.0
 11
94.614099999999979
 21
140.0389999999999
 31
0.0
  0
LINE
  5
13A
  8
0
 62
     7
 10
93.6143
 20
102.221
 30
0.0
 11
93.6143
 21
103.47199999999999
 31
0.0
  0
ARC
  5
13B
  8
0
 62
     7
 10
94.853926999999999
 20
133.21149
 30
0.0
 40
0.259938
 50
2.2782299999999989
 51
87.879817000000017
  0
LINE
  5
13C
  8
0
 62
     7
 10
95.113699999999994
 20
131.72200000000001
 30
0.0
 11
95.113699999999994
 21
133.22200000000001
 31
0.0
  0
LINE
  5
13D
  8
0
 62
     7
 10
54.363399999999999
 20
140.47200000000001
 30
0.0
 11
94.36399999999999
 21
140.47200000000001
 31
0.0
  0
LINE
  5
13E
  8
0
 62
     7
 10
94.36399999999999
 20
139.221
 30
0.0
 11
54.363399999999999
 21
139.221
 31
0.0
  0
LINE
  5
13F
  8
0
  6
AIGENLINE002
 62
     7
 10
63.863700000000001
 20
131.72200000000001
 30
0.0
 11
63.863700000000001
 21
130.471
 31
0.0
  0
LINE
  5
140
  8
0
  6
AIGENLINE002
 62
     7
 10
62.363700000000001
 20
130.471
 30
0.0
 11
62.363700000000001
 21
131.72200000000001
 31
0.0
  0
ARC
  5
141
  8
0
 62
     7
 10
54.625073
 20
140.03203500000001
 30
0.0
 40
0.511798
 50
120.744837
 51
179.25635800000001
  0
ARC
  5
142
  8
0
 62
     7
 10
94.103469999999987
 20
139.660719
 30
0.0
 40
0.51068
 50
300.67485199999999
 51
359.34610500000002
  0
ARC
  5
143
  8
0
 62
     7
 10
94.102871999999991
 20
140.032329
 30
0.0
 40
0.511284
 50
0.71139
 51
59.287376000000009
  0
ARC
  5
144
  8
0
 62
     7
 10
54.623766000000003
 20
139.66060400000001
 30
0.0
 40
0.51048
 50
180.64128700000001
 51
239.337795
  0
LINE
  5
145
  8
0
 62
     7
 10
159.721
 20
130.37299999999999
 30
0.0
 11
159.721
 21
132.083
 31
0.0
  0
ARC
  5
146
  8
0
 62
     7
 10
158.53186400000001
 20
103.461697
 30
0.0
 40
0.259938
 50
92.120163000000005
 51
177.72174999999999
  0
LINE
  5
147
  8
0
 62
     7
 10
158.27199999999999
 20
102.221
 30
0.0
 11
158.27199999999999
 21
103.47199999999999
 31
0.0
  0
ARC
  5
148
  8
0
 62
     7
 10
158.52224799999999
 20
104.221688
 30
0.0
 40
0.5002310000000002
 50
270.00002000000001
 51
359.99999000000003
  0
LINE
  5
149
  8
0
 62
     7
 10
159.02199999999999
 20
127.47199999999999
 30
0.0
 11
159.471
 21
127.47199999999999
 31
0.0
  0
LINE
  5
14A
  8
0
 62
     7
 10
159.02199999999999
 20
104.22199999999999
 30
0.0
 11
159.02199999999999
 21
139.221
 31
0.0
  0
LINE
  5
14B
  8
0
 62
     7
 10
159.02199999999999
 20
104.22199999999999
 30
0.0
 11
140.023
 21
104.22199999999999
 31
0.0
  0
ARC
  5
14C
  8
0
 62
     7
 10
159.462065
 20
133.21214000000001
 30
0.0
 40
0.259265
 50
2.14039
 51
88.017657
  0
LINE
  5
14D
  8
0
 62
     7
 10
159.39699999999999
 20
133.471
 30
0.0
 11
159.471
 21
133.471
 31
0.0
  0
LINE
  5
14E
  8
0
 62
     7
 10
159.721
 20
133.22200000000001
 30
0.0
 11
159.721
 21
132.86199999999999
 31
0.0
  0
LINE
  5
14F
  8
0
 62
     7
 10
159.39699999999999
 20
133.464
 30
0.0
 11
159.39699999999999
 21
133.471
 31
0.0
  0
LINE
  5
150
  8
0
 62
     7
 10
159.721
 20
127.721
 30
0.0
 11
159.721
 21
130.37299999999999
 31
0.0
  0
ARC
  5
151
  8
0
 62
     7
 10
159.46142699999999
 20
127.731672
 30
0.0
 40
0.259927
 50
272.11799999999999
 51
357.723952
  0
LINE
  5
152
  8
0
 62
     7
 10
159.38999999999999
 20
133.471
 30
0.0
 11
159.39699999999999
 21
133.471
 31
0.0
  0
LINE
  5
153
  8
0
 62
     7
 10
159.39699999999999
 20
133.471
 30
0.0
 11
159.39699999999999
 21
133.464
 31
0.0
  0
ARC
  5
154
  8
0
 62
     7
 10
158.27282099999999
 20
123.72174
 30
0.0
 40
1.499630999999999
 50
299.99305700000002
 51
29.993027000000001
  0
ARC
  5
155
  8
0
 62
     7
 10
158.27426500000001
 20
123.723184
 30
0.0
 40
1.497657999999999
 50
29.972808000000001
 51
60.027182000000003
  0
LINE
  5
156
  8
0
 62
     7
 10
159.02199999999999
 20
124.23699999999999
 30
0.0
 11
159.02199999999999
 21
124.09699999999999
 31
0.0
  0
LINE
  5
157
  8
0
 62
     7
 10
159.02199999999999
 20
124.09699999999999
 30
0.0
 11
159.02199999999999
 21
123.81999999999999
 31
0.0
  0
LINE
  5
158
  8
0
 62
     7
 10
159.02199999999999
 20
123.81999999999999
 30
0.0
 11
159.023
 21
123.7
 31
0.0
  0
ARC
  5
159
  8
0
 62
     7
 10
252.18839600000001
 20
123.342037
 30
0.0
 40
93.165918000000005
 50
179.77960300000001
 51
179.996982
  0
LINE
  5
15A
  8
0
 62
     7
 10
159.02199999999999
 20
123.34699999999999
 30
0.0
 11
159.02199999999999
 21
123.19
 31
0.0
  0
LINE
  5
15B
  8
0
 62
     7
 10
159.023
 20
123.72199999999999
 30
0.0
 11
159.023
 21
123.74299999999999
 31
0.0
  0
ARC
  5
15C
  8
0
 62
     7
 10
252.18839600000001
 20
124.101444
 30
0.0
 40
93.165918000000005
 50
180.003018
 51
180.22039699999999
  0
LINE
  5
15D
  8
0
 62
     7
 10
159.02199999999999
 20
124.09699999999999
 30
0.0
 11
159.02199999999999
 21
124.185
 31
0.0
  0
ARC
  5
15E
  8
0
 62
     7
 10
158.19367099999999
 20
132.492941
 30
0.0
 40
1.5588599999999999
 50
302.1187670000001
 51
27.876954999999999
  0
ARC
  5
15F
  8
0
 62
     7
 10
158.274551
 20
132.47226599999999
 30
0.0
 40
1.4980830000000001
 50
30.022777999999999
 51
60.049146
  0
LINE
  5
160
  8
0
 62
     7
 10
159.02199999999999
 20
132.98699999999999
 30
0.0
 11
159.02199999999999
 21
132.846
 31
0.0
  0
LINE
  5
161
  8
0
 62
     7
 10
159.02199999999999
 20
132.846
 30
0.0
 11
159.02199999999999
 21
132.56999999999999
 31
0.0
  0
LINE
  5
162
  8
0
 62
     7
 10
159.02199999999999
 20
132.56999999999999
 30
0.0
 11
159.023
 21
132.44999999999999
 31
0.0
  0
ARC
  5
163
  8
0
 62
     7
 10
252.19382400000001
 20
132.09175200000001
 30
0.0
 40
93.171344999999988
 50
179.77960300000001
 51
179.996546
  0
LINE
  5
164
  8
0
 62
     7
 10
159.02199999999999
 20
132.09700000000001
 30
0.0
 11
159.02199999999999
 21
131.94
 31
0.0
  0
LINE
  5
165
  8
0
 62
     7
 10
159.023
 20
132.471
 30
0.0
 11
159.023
 21
132.49299999999999
 31
0.0
  0
ARC
  5
166
  8
0
 62
     7
 10
252.18839600000001
 20
132.85118
 30
0.0
 40
93.165918000000005
 50
180.003018
 51
180.22039699999999
  0
LINE
  5
167
  8
0
 62
     7
 10
159.02199999999999
 20
132.846
 30
0.0
 11
159.02199999999999
 21
132.935
 31
0.0
  0
ARC
  5
168
  8
0
 62
     7
 10
140.85037
 20
106.20075199999999
 30
0.0
 40
1.5580290000000001
 50
122.090383
 51
207.905339
  0
ARC
  5
169
  8
0
 62
     7
 10
140.77442500000001
 20
106.223344
 30
0.0
 40
1.502513999999999
 50
210.02253300000001
 51
239.977497
  0
ARC
  5
16A
  8
0
 62
     7
 10
154.03291300000001
 20
105.708134
 30
0.0
 40
14.010945
 50
179.431714
 51
180.00656699999999
  0
LINE
  5
16B
  8
0
 62
     7
 10
140.023
 20
105.84699999999999
 30
0.0
 11
140.02199999999999
 21
106.123
 31
0.0
  0
ARC
  5
16C
  8
0
 62
     7
 10
-80.662993999999998
 20
106.18333699999999
 30
0.0
 40
220.68496999999999
 50
359.98443700000001
 51
0.015563
  0
LINE
  5
16D
  8
0
 62
     7
 10
140.02199999999999
 20
106.24299999999999
 30
0.0
 11
140.023
 21
106.596
 31
0.0
  0
ARC
  5
16E
  8
0
 62
     7
 10
149.206064
 20
106.715059
 30
0.0
 40
9.1841779999999993
 50
179.75799000000001
 51
180.74240599999999
  0
LINE
  5
16F
  8
0
 62
     7
 10
140.02199999999999
 20
106.22199999999999
 30
0.0
 11
140.02199999999999
 21
106.20099999999999
 31
0.0
  0
LINE
  5
170
  8
0
 62
     7
 10
140.02199999999999
 20
106.20099999999999
 30
0.0
 11
140.023
 21
105.84699999999999
 31
0.0
  0
LINE
  5
171
  8
0
 62
     7
 10
140.023
 20
105.84699999999999
 30
0.0
 11
140.02199999999999
 21
105.758
 31
0.0
  0
LINE
  5
172
  8
0
 62
     7
 10
159.273
 20
139.655
 30
0.0
 11
159.273
 21
140.0389999999999
 31
0.0
  0
ARC
  5
173
  8
0
 62
     7
 10
158.19367099999999
 20
106.24269700000001
 30
0.0
 40
1.5588599999999999
 50
302.1187670000001
 51
27.876954999999999
  0
ARC
  5
174
  8
0
 62
     7
 10
158.27071000000001
 20
106.219812
 30
0.0
 40
1.502513999999999
 50
30.022513000000011
 51
59.977477000000007
  0
LINE
  5
175
  8
0
 62
     7
 10
159.02199999999999
 20
106.73699999999999
 30
0.0
 11
159.02199999999999
 21
106.596
 31
0.0
  0
LINE
  5
176
  8
0
 62
     7
 10
159.02199999999999
 20
106.596
 30
0.0
 11
159.02199999999999
 21
106.31999999999999
 31
0.0
  0
LINE
  5
177
  8
0
 62
     7
 10
159.02199999999999
 20
106.31999999999999
 30
0.0
 11
159.023
 21
106.20099999999999
 31
0.0
  0
ARC
  5
178
  8
0
 62
     7
 10
252.18839600000001
 20
105.842219
 30
0.0
 40
93.165918000000005
 50
179.77960300000001
 51
179.996982
  0
LINE
  5
179
  8
0
 62
     7
 10
159.02199999999999
 20
105.84699999999999
 30
0.0
 11
159.02199999999999
 21
105.68899999999999
 31
0.0
  0
LINE
  5
17A
  8
0
 62
     7
 10
159.023
 20
106.22199999999999
 30
0.0
 11
159.023
 21
106.24299999999999
 31
0.0
  0
ARC
  5
17B
  8
0
 62
     7
 10
252.19382400000001
 20
106.601647
 30
0.0
 40
93.171344999999988
 50
180.003454
 51
180.22039699999999
  0
LINE
  5
17C
  8
0
 62
     7
 10
159.02199999999999
 20
106.596
 30
0.0
 11
159.02199999999999
 21
106.68600000000001
 31
0.0
  0
ARC
  5
17D
  8
0
 62
     7
 10
158.19182699999999
 20
114.9931
 30
0.0
 40
1.5602590000000001
 50
302.16646500000002
 51
27.829257000000009
  0
ARC
  5
17E
  8
0
 62
     7
 10
158.27071000000001
 20
114.96972100000001
 30
0.0
 40
1.502513999999999
 50
30.022513000000011
 51
59.977477000000007
  0
LINE
  5
17F
  8
0
 62
     7
 10
159.02199999999999
 20
115.48699999999999
 30
0.0
 11
159.02199999999999
 21
115.34699999999999
 31
0.0
  0
LINE
  5
180
  8
0
 62
     7
 10
159.02199999999999
 20
115.34699999999999
 30
0.0
 11
159.02199999999999
 21
115.06999999999999
 31
0.0
  0
LINE
  5
181
  8
0
 62
     7
 10
159.02199999999999
 20
115.06999999999999
 30
0.0
 11
159.023
 21
114.95
 31
0.0
  0
ARC
  5
182
  8
0
 62
     7
 10
250.754504
 20
114.594229
 30
0.0
 40
91.732024999999993
 50
179.77790100000001
 51
179.99824799999999
  0
LINE
  5
183
  8
0
 62
     7
 10
159.02199999999999
 20
114.59699999999999
 30
0.0
 11
159.02199999999999
 21
114.44
 31
0.0
  0
LINE
  5
184
  8
0
 62
     7
 10
159.023
 20
114.97199999999999
 30
0.0
 11
159.023
 21
114.99299999999999
 31
0.0
  0
ARC
  5
185
  8
0
 62
     7
 10
252.18839600000001
 20
115.351535
 30
0.0
 40
93.165918000000005
 50
180.003018
 51
180.22039699999999
  0
LINE
  5
186
  8
0
 62
     7
 10
159.02199999999999
 20
115.34699999999999
 30
0.0
 11
159.02199999999999
 21
115.43600000000001
 31
0.0
  0
ARC
  5
187
  8
0
 62
     7
 10
140.85037
 20
114.950661
 30
0.0
 40
1.5580290000000001
 50
122.090383
 51
207.905339
  0
ARC
  5
188
  8
0
 62
     7
 10
140.77442500000001
 20
114.973253
 30
0.0
 40
1.502513999999999
 50
210.02253300000001
 51
239.977497
  0
ARC
  5
189
  8
0
 62
     7
 10
154.027423
 20
114.45807000000001
 30
0.0
 40
14.005455
 50
179.431602
 51
180.00667899999999
  0
LINE
  5
18A
  8
0
 62
     7
 10
140.023
 20
114.59699999999999
 30
0.0
 11
140.02199999999999
 21
114.873
 31
0.0
  0
ARC
  5
18B
  8
0
 62
     7
 10
-94.498646999999991
 20
114.933246
 30
0.0
 40
234.520623
 50
359.98535500000003
 51
0.014645
  0
LINE
  5
18C
  8
0
 62
     7
 10
140.02199999999999
 20
114.99299999999999
 30
0.0
 11
140.023
 21
115.346
 31
0.0
  0
ARC
  5
18D
  8
0
 62
     7
 10
149.206064
 20
115.464968
 30
0.0
 40
9.1841779999999993
 50
179.75799000000001
 51
180.74240599999999
  0
LINE
  5
18E
  8
0
 62
     7
 10
140.02199999999999
 20
114.97199999999999
 30
0.0
 11
140.02199999999999
 21
114.95
 31
0.0
  0
LINE
  5
18F
  8
0
 62
     7
 10
140.02199999999999
 20
114.95
 30
0.0
 11
140.023
 21
114.59699999999999
 31
0.0
  0
LINE
  5
190
  8
0
 62
     7
 10
140.023
 20
114.59699999999999
 30
0.0
 11
140.02199999999999
 21
114.508
 31
0.0
  0
LINE
  5
191
  8
0
 62
     7
 10
140.77199999999999
 20
103.47199999999999
 30
0.0
 11
140.77199999999999
 21
102.221
 31
0.0
  0
LINE
  5
192
  8
0
 62
     7
 10
140.77199999999999
 20
103.47199999999999
 30
0.0
 11
158.27199999999999
 21
103.47199999999999
 31
0.0
  0
ARC
  5
193
  8
0
 62
     7
 10
140.85015799999999
 20
123.700872
 30
0.0
 40
1.55766
 50
122.089664
 51
207.896421
  0
ARC
  5
194
  8
0
 62
     7
 10
140.770871
 20
123.720296
 30
0.0
 40
1.497657999999999
 50
209.97282799999999
 51
240.02720199999999
  0
ARC
  5
195
  8
0
 62
     7
 10
154.027423
 20
123.20797899999999
 30
0.0
 40
14.005455
 50
179.431602
 51
180.00667899999999
  0
LINE
  5
196
  8
0
 62
     7
 10
140.023
 20
123.34699999999999
 30
0.0
 11
140.02199999999999
 21
123.624
 31
0.0
  0
ARC
  5
197
  8
0
 62
     7
 10
-109.43218400000001
 20
123.683499
 30
0.0
 40
249.454159
 50
359.986311
 51
0.013689
  0
LINE
  5
198
  8
0
 62
     7
 10
140.02199999999999
 20
123.74299999999999
 30
0.0
 11
140.023
 21
124.09699999999999
 31
0.0
  0
ARC
  5
199
  8
0
 62
     7
 10
149.18607299999999
 20
124.21531
 30
0.0
 40
9.1641849999999998
 50
179.76016799999999
 51
180.742424
  0
LINE
  5
19A
  8
0
 62
     7
 10
140.02199999999999
 20
123.72199999999999
 30
0.0
 11
140.02199999999999
 21
123.7
 31
0.0
  0
LINE
  5
19B
  8
0
 62
     7
 10
140.02199999999999
 20
123.7
 30
0.0
 11
140.023
 21
123.34699999999999
 31
0.0
  0
LINE
  5
19C
  8
0
 62
     7
 10
140.023
 20
123.34699999999999
 30
0.0
 11
140.02199999999999
 21
123.258
 31
0.0
  0
LINE
  5
19D
  8
0
 62
     7
 10
139.773
 20
140.0389999999999
 30
0.0
 11
139.773
 21
139.655
 31
0.0
  0
LINE
  5
19E
  8
0
 62
     7
 10
140.023
 20
139.221
 30
0.0
 11
140.023
 21
104.22199999999999
 31
0.0
  0
LINE
  5
19F
  8
0
 62
     7
 10
140.023
 20
139.221
 30
0.0
 11
159.02199999999999
 21
139.221
 31
0.0
  0
ARC
  5
1A0
  8
0
 62
     7
 10
140.85015799999999
 20
132.45060899999999
 30
0.0
 40
1.55766
 50
122.089664
 51
207.896421
  0
ARC
  5
1A1
  8
0
 62
     7
 10
140.77442500000001
 20
132.47358799999989
 30
0.0
 40
1.502513999999999
 50
210.02253300000001
 51
239.977497
  0
ARC
  5
1A2
  8
0
 62
     7
 10
154.166695
 20
131.95771499999989
 30
0.0
 40
14.144727
 50
179.43440699999999
 51
180.00661400000001
  0
LINE
  5
1A3
  8
0
 62
     7
 10
140.023
 20
132.09700000000001
 30
0.0
 11
140.02199999999999
 21
132.374
 31
0.0
  0
ARC
  5
1A4
  8
0
 62
     7
 10
-125.460444
 20
132.43323599999999
 30
0.0
 40
265.48241899999999
 50
359.98713700000002
 51
0.012863
  0
LINE
  5
1A5
  8
0
 62
     7
 10
140.02199999999999
 20
132.49299999999999
 30
0.0
 11
140.023
 21
132.846
 31
0.0
  0
ARC
  5
1A6
  8
0
 62
     7
 10
149.18607299999999
 20
132.965046
 30
0.0
 40
9.1641849999999998
 50
179.76016799999999
 51
180.742424
  0
LINE
  5
1A7
  8
0
 62
     7
 10
140.02199999999999
 20
132.471
 30
0.0
 11
140.02199999999999
 21
132.44999999999999
 31
0.0
  0
LINE
  5
1A8
  8
0
 62
     7
 10
140.02199999999999
 20
132.44999999999999
 30
0.0
 11
140.023
 21
132.09700000000001
 31
0.0
  0
LINE
  5
1A9
  8
0
 62
     7
 10
140.023
 20
132.09700000000001
 30
0.0
 11
140.02199999999999
 21
132.00800000000001
 31
0.0
  0
ARC
  5
1AA
  8
0
 62
     7
 10
140.54218700000001
 20
104.240959
 30
0.0
 40
0.519887
 50
182.124369
 51
267.79668700000002
  0
LINE
  5
1AB
  8
0
 62
     7
 10
140.023
 20
140.47200000000001
 30
0.0
 11
159.02199999999999
 21
140.47200000000001
 31
0.0
  0
ARC
  5
1AC
  8
0
 62
     7
 10
140.541155
 20
103.470918
 30
0.0
 40
0.231163
 50
0.275586
 51
6.265388999999999
  0
ARC
  5
1AD
  8
0
 62
     7
 10
140.61562900000001
 20
103.486372
 30
0.0
 40
0.155615
 50
3.6011239999999991
 51
15.71866
  0
ARC
  5
1AE
  8
0
 62
     7
 10
140.546851
 20
103.480761
 30
0.0
 40
0.223733
 50
12.327985999999999
 51
29.994529
  0
ARC
  5
1AF
  8
0
 62
     7
 10
140.540921
 20
103.486017
 30
0.0
 40
0.226366
 50
28.09163100000001
 51
46.094035999999988
  0
ARC
  5
1B0
  8
0
 62
     7
 10
140.523336
 20
103.474182
 30
0.0
 40
0.247127
 50
45.059607
 51
60.731912000000001
  0
ARC
  5
1B1
  8
0
 62
     7
 10
140.51305500000001
 20
103.450158
 30
0.0
 40
0.273125
 50
61.314430000000002
 51
76.688117000000005
  0
ARC
  5
1B2
  8
0
 62
     7
 10
140.53476499999999
 20
103.537689
 30
0.0
 40
0.18295
 50
76.992559
 51
85.515097999999995
  0
ARC
  5
1B3
  8
0
 62
     7
 10
140.512034
 20
103.26054999999999
 30
0.0
 40
0.4610180000000001
 50
85.392050999999995
 51
88.736581999999984
  0
LINE
  5
1B4
  8
0
 62
     7
 10
158.52199999999999
 20
103.721
 30
0.0
 11
140.52199999999999
 21
103.721
 31
0.0
  0
ARC
  5
1B5
  8
0
 62
     7
 10
158.761349
 20
140.032329
 30
0.0
 40
0.511284
 50
0.71139
 51
59.287376000000009
  0
ARC
  5
1B6
  8
0
 62
     7
 10
140.28318100000001
 20
140.032679
 30
0.0
 40
0.510674
 50
120.6742
 51
179.32699400000001
  0
ARC
  5
1B7
  8
0
 62
     7
 10
140.284088
 20
139.661238
 30
0.0
 40
0.511586
 50
180.710914
 51
239.268168
  0
ARC
  5
1B8
  8
0
 62
     7
 10
158.76194799999999
 20
139.660719
 30
0.0
 40
0.51068
 50
300.67485199999999
 51
359.34610500000002
  0
LINE
  5
1B9
  8
0
 62
     7
 10
90.852000000000004
 20
165.09700000000001
 30
0.0
 11
93.126199999999997
 21
163.34700000000001
 31
0.0
  0
LINE
  5
1BA
  8
0
 62
     7
 10
90.590199999999996
 20
170.79499999999999
 30
0.0
 11
93.638499999999993
 21
175.149
 31
0.0
  0
ARC
  5
1BB
  8
0
 62
     7
 10
57.102212000000002
 20
170.0743929999999
 30
0.0
 40
1.261695999999999
 50
0.149637
 51
34.827725999999998
  0
LINE
  5
1BC
  8
0
 62
     7
 10
93.864500000000007
 20
175.86600000000001
 30
0.0
 11
93.864500000000007
 21
177.22200000000001
 31
0.0
  0
LINE
  5
1BD
  8
0
 62
     7
 10
93.613699999999994
 20
140.47200000000001
 30
0.0
 11
93.613699999999994
 21
162.35599999999999
 31
0.0
  0
LINE
  5
1BE
  8
0
 62
     7
 10
90.364199999999997
 20
166.08799999999999
 30
0.0
 11
90.364199999999997
 21
170.078
 31
0.0
  0
ARC
  5
1BF
  8
0
 62
     7
 10
91.617781000000008
 20
170.076955
 30
0.0
 40
1.2535609999999999
 50
145.05612500000001
 51
179.96647300000001
  0
LINE
  5
1C0
  8
0
 62
     7
 10
58.363900000000001
 20
170.078
 30
0.0
 11
58.363900000000001
 21
166.08799999999999
 31
0.0
  0
LINE
  5
1C1
  8
0
 62
     7
 10
54.863700000000001
 20
177.22200000000001
 30
0.0
 11
54.863700000000001
 21
175.86600000000001
 31
0.0
  0
LINE
  5
1C2
  8
0
 62
     7
 10
93.864500000000007
 20
177.22200000000001
 30
0.0
 11
54.863700000000001
 21
177.22200000000001
 31
0.0
  0
ARC
  5
1C3
  8
0
 62
     7
 10
93.845124999999996
 20
177.74103500000001
 30
0.0
 40
0.5192230000000001
 50
272.13400799999999
 51
357.90550300000001
  0
LINE
  5
1C4
  8
0
 62
     7
 10
54.863700000000001
 20
178.47200000000001
 30
0.0
 11
93.864500000000007
 21
178.47200000000001
 31
0.0
  0
ARC
  5
1C5
  8
0
 62
     7
 10
93.844471999999996
 20
177.95255800000001
 30
0.0
 40
0.519887
 50
2.124349
 51
87.796666999999985
  0
ARC
  5
1C6
  8
0
 62
     7
 10
54.882645999999987
 20
177.741398
 30
0.0
 40
0.519573
 50
182.1331439999999
 51
267.90635900000001
  0
LINE
  5
1C7
  8
0
 62
     7
 10
94.36399999999999
 20
177.72200000000001
 30
0.0
 11
94.36399999999999
 21
177.97200000000001
 31
0.0
  0
LINE
  5
1C8
  8
0
 62
     7
 10
55.089700000000001
 20
175.149
 30
0.0
 11
58.137900000000002
 21
170.79499999999999
 31
0.0
  0
ARC
  5
1C9
  8
0
 62
     7
 10
54.863664999999997
 20
177.97182900000001
 30
0.0
 40
0.5002310000000002
 50
90.0
 51
179.99996999999999
  0
LINE
  5
1CA
  8
0
 62
     7
 10
54.363399999999999
 20
177.97200000000001
 30
0.0
 11
54.363399999999999
 21
177.72200000000001
 31
0.0
  0
ARC
  5
1CB
  8
0
 62
     7
 10
92.578653000000003
 20
175.88328000000001
 30
0.0
 40
1.289380999999999
 50
325.28048899999999
 51
342.239441
  0
ARC
  5
1CC
  8
0
 62
     7
 10
92.567483999999993
 20
175.873153
 30
0.0
 40
1.2969939999999991
 50
342.815988
 51
359.691689
  0
ARC
  5
1CD
  8
0
 62
     7
 10
56.115439000000002
 20
175.86650399999999
 30
0.0
 40
1.2518670000000001
 50
197.50451899999999
 51
214.97559100000001
  0
ARC
  5
1CE
  8
0
 62
     7
 10
56.117117
 20
175.866457
 30
0.0
 40
1.253452
 50
180.01296600000001
 51
197.47939599999989
  0
ARC
  5
1CF
  8
0
 62
     7
 10
140.272773
 20
177.97182900000001
 30
0.0
 40
0.5002310000000002
 50
90.0
 51
179.99996999999999
  0
LINE
  5
1D0
  8
0
 62
     7
 10
140.273
 20
178.47200000000001
 30
0.0
 11
158.77199999999999
 21
178.47200000000001
 31
0.0
  0
LINE
  5
1D1
  8
0
 62
     7
 10
155.77199999999999
 20
165.37
 30
0.0
 11
143.27199999999999
 21
165.37
 31
0.0
  0
ARC
  5
1D2
  8
0
 62
     7
 10
141.49522300000001
 20
163.791146
 30
0.0
 40
0.973028
 50
145.94470699999999
 51
179.844044
  0
ARC
  5
1D3
  8
0
 62
     7
 10
141.89998199999999
 20
163.55722499999999
 30
0.0
 40
1.439738
 50
130.99918
 51
147.25249099999999
  0
ARC
  5
1D4
  8
0
 62
     7
 10
142.37036499999999
 20
163.05352600000001
 30
0.0
 40
2.1286249999999991
 50
118.608343
 51
131.66016999999999
  0
ARC
  5
1D5
  8
0
 62
     7
 10
142.88540900000001
 20
162.16455199999999
 30
0.0
 40
3.155791999999999
 50
104.221755
 51
119.08955899999999
  0
ARC
  5
1D6
  8
0
 62
     7
 10
143.23790199999999
 20
160.98508699999999
 30
0.0
 40
4.3860150000000004
 50
89.553352999999987
 51
104.90007
  0
LINE
  5
1D7
  8
0
 62
     7
 10
158.52199999999999
 20
166.08799999999999
 30
0.0
 11
140.52199999999999
 21
166.08799999999999
 31
0.0
  0
ARC
  5
1D8
  8
0
 62
     7
 10
155.77237099999999
 20
160.73204699999999
 30
0.0
 40
4.6382320000000004
 50
74.723427000000001
 51
90.000190999999987
  0
ARC
  5
1D9
  8
0
 62
     7
 10
156.080827
 20
161.97521
 30
0.0
 40
3.357858999999999
 50
59.938444999999987
 51
74.211691000000016
  0
ARC
  5
1DA
  8
0
 62
     7
 10
156.688086
 20
163.08357100000001
 30
0.0
 40
2.094600999999999
 50
42.337290000000003
 51
59.127739000000012
  0
ARC
  5
1DB
  8
0
 62
     7
 10
157.29503299999999
 20
163.67278300000001
 30
0.0
 40
1.249406
 50
17.723692
 51
41.109778999999989
  0
ARC
  5
1DC
  8
0
 62
     7
 10
157.58293
 20
163.79171199999999
 30
0.0
 40
0.939319
 50
0.106006
 51
16.159517000000001
  0
LINE
  5
1DD
  8
0
 62
     7
 10
155.77199999999999
 20
170.79499999999999
 30
0.0
 11
143.27199999999999
 21
170.79499999999999
 31
0.0
  0
ARC
  5
1DE
  8
0
 62
     7
 10
141.49522300000001
 20
172.37409500000001
 30
0.0
 40
0.973028
 50
180.155956
 51
214.05529300000009
  0
ARC
  5
1DF
  8
0
 62
     7
 10
141.89998199999999
 20
172.60801599999999
 30
0.0
 40
1.439738
 50
212.74750900000001
 51
229.00082
  0
ARC
  5
1E0
  8
0
 62
     7
 10
142.37036499999999
 20
173.111715
 30
0.0
 40
2.1286249999999991
 50
228.33983000000001
 51
241.39165700000001
  0
ARC
  5
1E1
  8
0
 62
     7
 10
142.88540900000001
 20
174.00068899999999
 30
0.0
 40
3.155791999999999
 50
240.91044099999999
 51
255.778245
  0
ARC
  5
1E2
  8
0
 62
     7
 10
143.23790199999999
 20
175.18015399999999
 30
0.0
 40
4.3860150000000004
 50
255.09993
 51
270.4466470000001
  0
LINE
  5
1E3
  8
0
 62
     7
 10
158.52199999999999
 20
170.078
 30
0.0
 11
140.52199999999999
 21
170.078
 31
0.0
  0
ARC
  5
1E4
  8
0
 62
     7
 10
155.77237099999999
 20
175.43319299999999
 30
0.0
 40
4.6382320000000004
 50
269.99980900000003
 51
285.27657299999998
  0
ARC
  5
1E5
  8
0
 62
     7
 10
156.080827
 20
174.190031
 30
0.0
 40
3.357858999999999
 50
285.78830899999991
 51
300.061555
  0
ARC
  5
1E6
  8
0
 62
     7
 10
156.688086
 20
173.08166900000001
 30
0.0
 40
2.094600999999999
 50
300.87226099999998
 51
317.66271
  0
ARC
  5
1E7
  8
0
 62
     7
 10
157.29503299999999
 20
172.492458
 30
0.0
 40
1.249406
 50
318.890221
 51
342.27630799999997
  0
ARC
  5
1E8
  8
0
 62
     7
 10
157.58293
 20
172.37352899999999
 30
0.0
 40
0.939319
 50
343.84048300000001
 51
359.89399400000002
  0
LINE
  5
1E9
  8
0
 62
     7
 10
158.52199999999999
 20
140.47200000000001
 30
0.0
 11
158.52199999999999
 21
177.22200000000001
 31
0.0
  0
ARC
  5
1EA
  8
0
 62
     7
 10
155.77590599999999
 20
191.22070600000001
 30
0.0
 40
15.354532000000001
 50
269.986761
 51
273.34652799999998
  0
ARC
  5
1EB
  8
0
 62
     7
 10
155.97879399999999
 20
187.61019099999999
 30
0.0
 40
11.738334
 50
273.38665200000003
 51
277.37017800000001
  0
ARC
  5
1EC
  8
0
 62
     7
 10
156.24579499999999
 20
184.829252
 30
0.0
 40
8.9465919999999972
 50
277.959
 51
279.33822300000003
  0
ARC
  5
1ED
  8
0
 62
     7
 10
156.933886
 20
180.54481899999999
 30
0.0
 40
4.6073149999999989
 50
279.54003399999999
 51
284.70778300000001
  0
ARC
  5
1EE
  8
0
 62
     7
 10
157.60947300000001
 20
177.91995299999999
 30
0.0
 40
1.8969779999999989
 50
285.09966700000001
 51
291.60533500000003
  0
ARC
  5
1EF
  8
0
 62
     7
 10
157.931724
 20
177.069827
 30
0.0
 40
0.988014
 50
292.38336500000003
 51
297.28720299999998
  0
ARC
  5
1F0
  8
0
 62
     7
 10
158.15705700000001
 20
176.63346200000001
 30
0.0
 40
0.496904
 50
297.26342299999999
 51
307.04822200000001
  0
ARC
  5
1F1
  8
0
 62
     7
 10
158.31695400000001
 20
176.42290499999999
 30
0.0
 40
0.232518
 50
306.86078300000003
 51
321.60402299999998
  0
ARC
  5
1F2
  8
0
 62
     7
 10
158.41744800000001
 20
176.344448
 30
0.0
 40
0.105032
 50
321.098726
 51
356.18843099999998
  0
LINE
  5
1F3
  8
0
 62
     7
 10
158.77199999999999
 20
177.22200000000001
 30
0.0
 11
140.273
 21
177.22200000000001
 31
0.0
  0
ARC
  5
1F4
  8
0
 62
     7
 10
158.75306800000001
 20
177.74171200000001
 30
0.0
 40
0.519898
 50
272.12699300000003
 51
357.83354300000002
  0
ARC
  5
1F5
  8
0
 62
     7
 10
140.291754
 20
177.741398
 30
0.0
 40
0.519573
 50
182.1331439999999
 51
267.90635900000001
  0
LINE
  5
1F6
  8
0
 62
     7
 10
140.52199999999999
 20
177.22200000000001
 30
0.0
 11
140.52199999999999
 21
140.47200000000001
 31
0.0
  0
ARC
  5
1F7
  8
0
 62
     7
 10
140.61267900000001
 20
176.33905999999999
 30
0.0
 40
0.090494
 50
181.00912
 51
220.79699400000001
  0
ARC
  5
1F8
  8
0
 62
     7
 10
140.71577199999999
 20
176.41169199999999
 30
0.0
 40
0.216349
 50
217.518147
 51
231.41532599999991
  0
ARC
  5
1F9
  8
0
 62
     7
 10
140.85297700000001
 20
176.581344
 30
0.0
 40
0.434537
 50
231.22493299999999
 51
240.93927400000001
  0
ARC
  5
1FA
  8
0
 62
     7
 10
141.05027100000001
 20
176.933414
 30
0.0
 40
0.838118
 50
240.84062
 51
248.013169
  0
ARC
  5
1FB
  8
0
 62
     7
 10
141.27578800000001
 20
177.482394
 30
0.0
 40
1.431605999999999
 50
247.86988099999999
 51
251.87643800000001
  0
ARC
  5
1FC
  8
0
 62
     7
 10
141.593006
 20
178.447158
 30
0.0
 40
2.447184
 50
251.84428
 51
255.912837
  0
ARC
  5
1FD
  8
0
 62
     7
 10
142.023866
 20
180.15938700000001
 30
0.0
 40
4.2127910000000002
 50
255.89720700000001
 51
260.76321200000001
  0
ARC
  5
1FE
  8
0
 62
     7
 10
142.489329
 20
182.79108600000001
 30
0.0
 40
6.8851779999999989
 50
260.45531399999999
 51
262.24750399999999
  0
ARC
  5
1FF
  8
0
 62
     7
 10
142.87373400000001
 20
185.559865
 30
0.0
 40
9.6805070000000004
 50
262.20370800000001
 51
267.03042399999998
  0
ARC
  5
200
  8
0
 62
     7
 10
143.26001099999999
 20
190.92753500000001
 30
0.0
 40
15.061366
 50
266.62078300000002
 51
270.04596700000002
  0
ARC
  5
201
  8
0
 62
     7
 10
157.98311699999999
 20
176.34089599999999
 30
0.0
 40
0.539142
 50
334.24958299999997
 51
359.635515
  0
ARC
  5
202
  8
0
 62
     7
 10
157.7511669999999
 20
176.44000600000001
 30
0.0
 40
0.7912
 50
314.727349
 51
335.08258599999999
  0
ARC
  5
203
  8
0
 62
     7
 10
157.41601799999989
 20
176.74669800000001
 30
0.0
 40
1.2451490000000001
 50
305.26524899999998
 51
315.75273800000002
  0
ARC
  5
204
  8
0
 62
     7
 10
156.91262399999999
 20
177.43297100000001
 30
0.0
 40
2.0961750000000001
 50
291.98886499999998
 51
305.66943100000009
  0
ARC
  5
205
  8
0
 62
     7
 10
156.443758
 20
178.44007999999999
 30
0.0
 40
3.206097999999999
 50
288.94362899999999
 51
293.01953900000001
  0
ARC
  5
206
  8
0
 62
     7
 10
156.07673199999999
 20
179.521209
 30
0.0
 40
4.3478240000000001
 50
277.87211200000002
 51
288.89318900000001
  0
ARC
  5
207
  8
0
 62
     7
 10
155.78772000000001
 20
181.155789
 30
0.0
 40
6.0069080000000001
 50
269.85345599999999
 51
278.46743500000002
  0
ARC
  5
208
  8
0
 62
     7
 10
143.268708
 20
181.320492
 30
0.0
 40
6.1715919999999986
 50
261.6477220000001
 51
270.03142700000001
  0
ARC
  5
209
  8
0
 62
     7
 10
143.102756
 20
180.083314
 30
0.0
 40
4.9234549999999997
 50
251.74572000000001
 51
261.46711599999998
  0
ARC
  5
20A
  8
0
 62
     7
 10
142.66699299999999
 20
178.611178
 30
0.0
 40
3.3892370000000001
 50
247.09064599999999
 51
250.94622599999991
  0
ARC
  5
20B
  8
0
 62
     7
 10
142.30770899999999
 20
177.758791
 30
0.0
 40
2.464224999999999
 50
235.937264
 51
247.070448
  0
ARC
  5
20C
  8
0
 62
     7
 10
141.7251959999999
 20
176.860488
 30
0.0
 40
1.3939349999999999
 50
224.822419
 51
235.09164799999999
  0
ARC
  5
20D
  8
0
 62
     7
 10
141.36733599999999
 20
176.49132700000001
 30
0.0
 40
0.8799319999999999
 50
205.39722499999999
 51
224.19832400000001
  0
ARC
  5
20E
  8
0
 62
     7
 10
141.097857
 20
176.349445
 30
0.0
 40
0.5757820000000001
 50
181.19216599999999
 51
204.144079
  0
ARC
  5
20F
  8
0
 62
     7
 10
158.77236300000001
 20
177.97182900000001
 30
0.0
 40
0.5002310000000002
 50
0.00001
 51
89.999980000000008
  0
LINE
  5
210
  8
0
 62
     7
 10
159.273
 20
177.72200000000001
 30
0.0
 11
159.273
 21
177.97200000000001
 31
0.0
  0
LINE
  5
211
  8
0
 62
     7
 10
139.773
 20
177.97200000000001
 30
0.0
 11
139.773
 21
177.72200000000001
 31
0.0
  0
LINE
  5
212
  8
0
 62
     7
 10
155.77199999999999
 20
175.86600000000001
 30
0.0
 11
143.27199999999999
 21
175.86600000000001
 31
0.0
  0
LINE
  5
213
  8
0
 62
     7
 10
143.27199999999999
 20
175.149
 30
0.0
 11
155.77199999999999
 21
175.149
 31
0.0
  0
LINE
  5
214
  8
0
 62
     7
 10
86.86399999999999
 20
85.370000000000005
 30
0.0
 11
86.86399999999999
 21
76.7607
 31
0.0
  0
LINE
  5
215
  8
0
 62
     7
 10
93.114099999999993
 20
219.114
 30
0.0
 11
104.94
 21
219.114
 31
0.0
  0
LINE
  5
216
  8
0
 62
     7
 10
93.114099999999993
 20
200.114
 30
0.0
 11
104.94
 21
200.114
 31
0.0
  0
LINE
  5
217
  8
0
 62
     7
 10
103.777
 20
201.88200000000001
 30
0.0
 11
104.251
 21
200.114
 31
0.0
  0
LINE
  5
218
  8
0
 62
     7
 10
104.251
 20
200.114
 30
0.0
 11
104.72499999999999
 21
201.88200000000001
 31
0.0
  0
LINE
  5
219
  8
0
 62
     7
 10
104.72499999999999
 20
201.88200000000001
 30
0.0
 11
103.777
 21
201.88200000000001
 31
0.0
  0
LINE
  5
21A
  8
0
 62
     7
 10
104.71299999999999
 20
217.346
 30
0.0
 11
104.23999999999999
 21
219.114
 31
0.0
  0
LINE
  5
21B
  8
0
 62
     7
 10
104.23999999999999
 20
219.114
 30
0.0
 11
103.76600000000001
 21
217.346
 31
0.0
  0
LINE
  5
21C
  8
0
 62
     7
 10
103.76600000000001
 20
217.346
 30
0.0
 11
104.71299999999999
 21
217.346
 31
0.0
  0
LINE
  5
21D
  8
0
 62
     7
 10
104.245
 20
200.13499999999999
 30
0.0
 11
104.245
 21
219.09200000000001
 31
0.0
  0
LINE
  5
21E
  8
0
 62
     7
 10
94.36399999999999
 20
201.01400000000001
 30
0.0
 11
94.36399999999999
 21
189.79900000000001
 31
0.0
  0
LINE
  5
21F
  8
0
 62
     7
 10
54.363399999999999
 20
201.01400000000001
 30
0.0
 11
54.363399999999999
 21
189.79900000000001
 31
0.0
  0
LINE
  5
220
  8
0
 62
     7
 10
56.132199999999997
 20
190.9609999999999
 30
0.0
 11
54.363399999999999
 21
190.488
 31
0.0
  0
LINE
  5
221
  8
0
 62
     7
 10
54.363399999999999
 20
190.488
 30
0.0
 11
56.132199999999997
 21
190.01400000000001
 31
0.0
  0
LINE
  5
222
  8
0
 62
     7
 10
56.132199999999997
 20
190.01400000000001
 30
0.0
 11
56.132199999999997
 21
190.9609999999999
 31
0.0
  0
LINE
  5
223
  8
0
 62
     7
 10
92.596000000000004
 20
190.02500000000001
 30
0.0
 11
94.36399999999999
 21
190.499
 31
0.0
  0
LINE
  5
224
  8
0
 62
     7
 10
94.36399999999999
 20
190.499
 30
0.0
 11
92.596000000000004
 21
190.97300000000001
 31
0.0
  0
LINE
  5
225
  8
0
 62
     7
 10
92.596000000000004
 20
190.97300000000001
 30
0.0
 11
92.596000000000004
 21
190.02500000000001
 31
0.0
  0
LINE
  5
226
  8
0
 62
     7
 10
54.384799999999998
 20
190.49299999999999
 30
0.0
 11
94.342600000000004
 21
190.49299999999999
 31
0.0
  0
LINE
  5
227
  8
0
 62
     7
 10
94.36399999999999
 20
100.355
 30
0.0
 11
94.36399999999999
 21
71.260199999999998
 31
0.0
  0
LINE
  5
228
  8
0
 62
     7
 10
54.363399999999999
 20
100.355
 30
0.0
 11
54.363399999999999
 21
71.260199999999998
 31
0.0
  0
LINE
  5
229
  8
0
 62
     7
 10
61.863500000000002
 20
85.3583
 30
0.0
 11
61.863500000000002
 21
76.748900000000006
 31
0.0
  0
LINE
  5
22A
  8
0
 62
     7
 10
56.132199999999997
 20
72.422600000000003
 30
0.0
 11
54.363399999999999
 21
71.949200000000005
 31
0.0
  0
LINE
  5
22B
  8
0
 62
     7
 10
54.363399999999999
 20
71.949200000000005
 30
0.0
 11
56.132199999999997
 21
71.475200000000001
 31
0.0
  0
LINE
  5
22C
  8
0
 62
     7
 10
56.132199999999997
 20
71.475200000000001
 30
0.0
 11
56.132199999999997
 21
72.422600000000003
 31
0.0
  0
LINE
  5
22D
  8
0
 62
     7
 10
92.596000000000004
 20
71.486900000000006
 30
0.0
 11
94.36399999999999
 21
71.9602
 31
0.0
  0
LINE
  5
22E
  8
0
 62
     7
 10
94.36399999999999
 20
71.9602
 30
0.0
 11
92.596000000000004
 21
72.434299999999993
 31
0.0
  0
LINE
  5
22F
  8
0
 62
     7
 10
92.596000000000004
 20
72.434299999999993
 30
0.0
 11
92.596000000000004
 21
71.486900000000006
 31
0.0
  0
LINE
  5
230
  8
0
 62
     7
 10
54.384799999999998
 20
71.954700000000003
 30
0.0
 11
94.342600000000004
 21
71.954700000000003
 31
0.0
  0
LINE
  5
231
  8
0
 62
     7
 10
63.632199999999997
 20
77.923000000000002
 30
0.0
 11
61.863500000000002
 21
77.448999999999998
 31
0.0
  0
LINE
  5
232
  8
0
 62
     7
 10
61.863500000000002
 20
77.448999999999998
 30
0.0
 11
63.632199999999997
 21
76.9756
 31
0.0
  0
LINE
  5
233
  8
0
 62
     7
 10
63.632199999999997
 20
76.9756
 30
0.0
 11
63.632199999999997
 21
77.923000000000002
 31
0.0
  0
LINE
  5
234
  8
0
 62
     7
 10
85.095900000000015
 20
76.987300000000005
 30
0.0
 11
86.86399999999999
 21
77.460700000000003
 31
0.0
  0
LINE
  5
235
  8
0
 62
     7
 10
86.86399999999999
 20
77.460700000000003
 30
0.0
 11
85.095900000000015
 21
77.934799999999996
 31
0.0
  0
LINE
  5
236
  8
0
 62
     7
 10
85.095900000000015
 20
77.934799999999996
 30
0.0
 11
85.095900000000015
 21
76.987300000000005
 31
0.0
  0
LINE
  5
237
  8
0
 62
     7
 10
61.884799999999998
 20
77.455200000000005
 30
0.0
 11
86.842600000000004
 21
77.455200000000005
 31
0.0
  0
LINE
  5
238
  8
0
 62
     7
 10
159.02199999999999
 20
100.355
 30
0.0
 11
159.02199999999999
 21
76.7607
 31
0.0
  0
LINE
  5
239
  8
0
 62
     7
 10
140.023
 20
100.355
 30
0.0
 11
140.023
 21
76.748900000000006
 31
0.0
  0
LINE
  5
23A
  8
0
 62
     7
 10
141.791
 20
77.923000000000002
 30
0.0
 11
140.023
 21
77.448999999999998
 31
0.0
  0
LINE
  5
23B
  8
0
 62
     7
 10
140.023
 20
77.448999999999998
 30
0.0
 11
141.791
 21
76.9756
 31
0.0
  0
LINE
  5
23C
  8
0
 62
     7
 10
141.791
 20
76.9756
 30
0.0
 11
141.791
 21
77.923000000000002
 31
0.0
  0
LINE
  5
23D
  8
0
 62
     7
 10
157.25399999999999
 20
76.987300000000005
 30
0.0
 11
159.02199999999999
 21
77.460700000000003
 31
0.0
  0
LINE
  5
23E
  8
0
 62
     7
 10
159.02199999999999
 20
77.460700000000003
 30
0.0
 11
157.25399999999999
 21
77.934799999999996
 31
0.0
  0
LINE
  5
23F
  8
0
 62
     7
 10
157.25399999999999
 20
77.934799999999996
 30
0.0
 11
157.25399999999999
 21
76.987300000000005
 31
0.0
  0
LINE
  5
240
  8
0
 62
     7
 10
140.04400000000001
 20
77.455200000000005
 30
0.0
 11
159.001
 21
77.455200000000005
 31
0.0
  0
LINE
  5
241
  8
0
 62
     7
 10
85.614099999999993
 20
125.88200000000001
 30
0.0
 11
85.614099999999993
 21
119.051
 31
0.0
  0
LINE
  5
242
  8
0
 62
     7
 10
95.063999999999993
 20
178.47200000000001
 30
0.0
 11
115.94499999999999
 21
178.47200000000001
 31
0.0
  0
LINE
  5
243
  8
0
 62
     7
 10
96.752000000000024
 20
131.72200000000001
 30
0.0
 11
104.426
 21
131.72200000000001
 31
0.0
  0
LINE
  5
244
  8
0
 62
     7
 10
95.063999999999993
 20
140.47200000000001
 30
0.0
 11
110.456
 21
140.47200000000001
 31
0.0
  0
LINE
  5
245
  8
0
 62
     7
 10
93.014200000000002
 20
88.721399999999988
 30
0.0
 11
115.956
 21
88.721399999999988
 31
0.0
  0
LINE
  5
246
  8
0
 62
     7
 10
43.771799999999999
 20
88.721399999999988
 30
0.0
 11
55.713200000000001
 21
88.721399999999988
 31
0.0
  0
LINE
  5
247
  8
0
 62
     7
 10
43.771799999999999
 20
131.72200000000001
 30
0.0
 11
59.9163
 21
131.72200000000001
 31
0.0
  0
LINE
  5
248
  8
0
 62
     7
 10
63.113300000000002
 20
125.88200000000001
 30
0.0
 11
63.113300000000002
 21
119.051
 31
0.0
  0
LINE
  5
249
  8
0
 62
     7
 10
64.882099999999994
 20
120.224
 30
0.0
 11
63.113300000000002
 21
119.751
 31
0.0
  0
LINE
  5
24A
  8
0
 62
     7
 10
63.113300000000002
 20
119.751
 30
0.0
 11
64.882099999999994
 21
119.277
 31
0.0
  0
LINE
  5
24B
  8
0
 62
     7
 10
64.882099999999994
 20
119.277
 30
0.0
 11
64.882099999999994
 21
120.224
 31
0.0
  0
LINE
  5
24C
  8
0
 62
     7
 10
83.846100000000007
 20
119.289
 30
0.0
 11
85.614099999999993
 21
119.762
 31
0.0
  0
LINE
  5
24D
  8
0
 62
     7
 10
85.614099999999993
 20
119.762
 30
0.0
 11
83.846100000000007
 21
120.236
 31
0.0
  0
LINE
  5
24E
  8
0
 62
     7
 10
83.846100000000007
 20
120.236
 30
0.0
 11
83.846100000000007
 21
119.289
 31
0.0
  0
LINE
  5
24F
  8
0
 62
     7
 10
63.134700000000002
 20
119.756
 30
0.0
 11
85.592699999999994
 21
119.756
 31
0.0
  0
LINE
  5
250
  8
0
 62
     7
 10
153.273
 20
125.532
 30
0.0
 11
153.273
 21
118.70099999999999
 31
0.0
  0
LINE
  5
251
  8
0
 62
     7
 10
145.773
 20
125.532
 30
0.0
 11
145.773
 21
118.70099999999999
 31
0.0
  0
LINE
  5
252
  8
0
 62
     7
 10
147.541
 20
119.874
 30
0.0
 11
145.773
 21
119.401
 31
0.0
  0
LINE
  5
253
  8
0
 62
     7
 10
145.773
 20
119.401
 30
0.0
 11
147.541
 21
118.92700000000001
 31
0.0
  0
LINE
  5
254
  8
0
 62
     7
 10
147.541
 20
118.92700000000001
 30
0.0
 11
147.541
 21
119.874
 31
0.0
  0
LINE
  5
255
  8
0
 62
     7
 10
151.505
 20
118.93899999999999
 30
0.0
 11
153.273
 21
119.41200000000001
 31
0.0
  0
LINE
  5
256
  8
0
 62
     7
 10
153.273
 20
119.41200000000001
 30
0.0
 11
151.505
 21
119.886
 31
0.0
  0
LINE
  5
257
  8
0
 62
     7
 10
151.505
 20
119.886
 30
0.0
 11
151.505
 21
118.93899999999999
 31
0.0
  0
LINE
  5
258
  8
0
 62
     7
 10
145.7939999999999
 20
119.40600000000001
 30
0.0
 11
153.251
 21
119.40600000000001
 31
0.0
  0
TEXT
  5
259
  8
_________2
 62
     7
 10
39.364090666666669
 20
13.603400000000001
 30
0.0
 40
3.6545800000000002
  1
篠崎
 41
0.5
 72
     1
 11
41.313200000000002
 21
13.603400000000001
 31
0.0
  0
TEXT
  5
25A
  8
_________2
 62
     7
 10
109.179
 20
24.226099999999999
 30
0.0
 40
3.9357000000000002
  1
水受けトレイ
 41
0.5
  0
LINE
  5
25B
  8
_________2
 62
     7
 10
205.30099999999999
 20
127.411
 30
0.0
 11
183.55099999999999
 21
127.411
 31
0.0
  0
LINE
  5
25C
  8
_________2
 62
     7
 10
100.3
 20
-4.0910799999999998
 30
0.0
 11
100.3
 21
-21.071000000000002
 31
0.0
  0
LINE
  5
25D
  8
_________2
 62
     7
 10
100.3
 20
275.93099999999998
 30
0.0
 11
100.3
 21
258.911
 31
0.0
  0
LINE
  5
25E
  8
_________2
 62
     7
 10
17.049199999999999
 20
127.411
 30
0.0
 11
-4.7012099999999988
 21
127.411
 31
0.0
  0
LINE
  5
25F
  8
_________2
 62
     7
 10
76.740700000000004
 20
29.8047
 30
0.0
 11
74.554400000000001
 21
29.8047
 31
0.0
  0
LINE
  5
260
  8
_________2
 62
     7
 10
77.2333
 20
29.8047
 30
0.0
 11
76.981099999999984
 21
29.8047
 31
0.0
  0
LINE
  5
261
  8
_________2
 62
     7
 10
77.725999999999999
 20
29.8047
 30
0.0
 11
80.650899999999993
 21
29.8047
 31
0.0
  0
LINE
  5
262
  8
_________2
 62
     7
 10
77.2333
 20
29.8047
 30
0.0
 11
77.485500000000002
 21
29.8047
 31
0.0
  0
LINE
  5
263
  8
_________2
 62
     7
 10
70.837100000000007
 20
29.8047
 30
0.0
 11
68.650199999999998
 21
29.8047
 31
0.0
  0
LINE
  5
264
  8
_________2
 62
     7
 10
71.329099999999997
 20
29.8047
 30
0.0
 11
71.077600000000004
 21
29.8047
 31
0.0
  0
LINE
  5
265
  8
_________2
 62
     7
 10
71.329099999999997
 20
30.2974
 30
0.0
 11
71.329099999999997
 21
32.484400000000001
 31
0.0
  0
LINE
  5
266
  8
_________2
 62
     7
 10
71.329099999999997
 20
29.8047
 30
0.0
 11
71.329099999999997
 21
30.057300000000001
 31
0.0
  0
LINE
  5
267
  8
_________2
 62
     7
 10
71.821700000000007
 20
29.8047
 30
0.0
 11
74.008700000000005
 21
29.8047
 31
0.0
  0
LINE
  5
268
  8
_________2
 62
     7
 10
71.329099999999997
 20
29.8047
 30
0.0
 11
71.581299999999985
 21
29.8047
 31
0.0
  0
LINE
  5
269
  8
_________2
 62
     7
 10
71.329099999999997
 20
29.312799999999999
 30
0.0
 11
71.329099999999997
 21
27.126200000000001
 31
0.0
  0
LINE
  5
26A
  8
_________2
 62
     7
 10
71.329099999999997
 20
29.8047
 30
0.0
 11
71.329099999999997
 21
29.5532
 31
0.0
  0
LINE
  5
26B
  8
_________2
 62
     7
 10
75.040199999999999
 20
28.5852
 30
0.0
 11
80.218199999999996
 21
27.720400000000001
 31
0.0
  0
LINE
  5
26C
  8
_________2
 62
     7
 10
75.040199999999999
 20
31.024699999999999
 30
0.0
 11
80.218199999999996
 21
31.8901
 31
0.0
  0
LINE
  5
26D
  8
_________2
 62
     7
 10
80.218199999999996
 20
27.720400000000001
 30
0.0
 11
80.218199999999996
 21
31.8901
 31
0.0
  0
LINE
  5
26E
  8
_________2
 62
     7
 10
75.040199999999999
 20
28.5852
 30
0.0
 11
75.040199999999999
 21
31.024699999999999
 31
0.0
  0
ARC
  5
26F
  8
_________2
 62
     7
 10
71.282501999999994
 20
29.757801000000001
 30
0.0
 40
1.267714
 50
2.1220840000000001
 51
87.894083999999992
  0
ARC
  5
270
  8
_________2
 62
     7
 10
71.375640000000004
 20
29.758545999999999
 30
0.0
 40
1.2669680000000001
 50
92.105782999999988
 51
177.91037
  0
ARC
  5
271
  8
_________2
 62
     7
 10
71.376013999999998
 20
29.851671
 30
0.0
 40
1.2673680000000001
 50
182.12203600000001
 51
267.877993
  0
ARC
  5
272
  8
_________2
 62
     7
 10
71.282195999999999
 20
29.852347999999999
 30
0.0
 40
1.2680439999999991
 50
272.11916400000001
 51
357.84848499999998
  0
ARC
  5
273
  8
_________2
 62
     7
 10
71.248716999999985
 20
29.724731999999999
 30
0.0
 40
2.1668310000000002
 50
2.1161439999999989
 51
87.874379000000005
  0
ARC
  5
274
  8
_________2
 62
     7
 10
71.408756000000011
 20
29.726146
 30
0.0
 40
2.165392999999999
 50
92.108508999999998
 51
177.91986499999999
  0
ARC
  5
275
  8
_________2
 62
     7
 10
71.409094999999994
 20
29.884751999999999
 30
0.0
 40
2.1657829999999998
 50
182.117133
 51
267.88289700000001
  0
ARC
  5
276
  8
_________2
 62
     7
 10
71.249115000000003
 20
29.885429999999999
 30
0.0
 40
2.1664590000000001
 50
272.11546800000002
 51
357.86560400000002
  0
TEXT
  5
277
  8
_________2
 62
     7
 10
104.605
 20
1.6794899999999999
 30
0.0
 40
3.0923400000000001
  1
図番
 41
0.5
  0
LINE
  5
278
  8
_________2
 62
     7
 10
103.55
 20
5.9087199999999989
 30
0.0
 11
183.55099999999999
 21
5.9087199999999989
 31
0.0
  0
TEXT
  5
279
  8
_________2
 62
     7
 10
104.605
 20
11.6793
 30
0.0
 40
3.0923400000000001
  1
品番
 41
0.5
  0
TEXT
  5
27A
  8
_________2
 62
     7
 10
104.605
 20
31.8184
 30
0.0
 40
3.0923400000000001
  1
名称
 41
0.5
  0
TEXT
  5
27B
  8
_________2
 62
     7
 10
91.844758333333345
 20
26.822299999999998
 30
0.0
 40
3.6545800000000002
  1
mm
 41
0.5
 72
     1
 11
93.367500000000007
 21
26.822299999999998
 31
0.0
  0
TEXT
  5
27C
  8
_________2
 62
     7
 10
85.642899999999983
 20
31.8184
 30
0.0
 40
3.0923400000000001
  1
単位
 41
0.5
  0
TEXT
  5
27D
  8
_________2
 62
     7
 10
85.642899999999983
 20
19.410799999999998
 30
0.0
 40
3.0923400000000001
  1
尺度
 41
0.5
  0
TEXT
  5
27E
  8
_________2
 62
     7
 10
90.548458666666676
 20
13.2182
 30
0.0
 40
3.6545800000000002
  1
1 ： 4
 41
0.5
 72
     1
 11
93.959400000000016
 21
13.2182
 31
0.0
  0
TEXT
  5
27F
  8
_________2
 62
     7
 10
134.20271249999999
 20
9.1082000000000001
 30
0.0
 40
3.9357000000000002
  1
HG52054675
 41
0.5
 72
     1
 11
143.55000000000001
 21
9.1082000000000001
 31
0.0
  0
TEXT
  5
280
  8
_________2
 62
     7
 10
134.20271249999999
 20
-0.8926299999999999
 30
0.0
 40
3.9357000000000002
  1
HG52054675
 41
0.5
 72
     1
 11
143.55000000000001
 21
-0.8926299999999999
 31
0.0
  0
TEXT
  5
281
  8
_________2
 62
     7
 10
20.790090666666661
 20
13.603400000000001
 30
0.0
 40
3.6545800000000002
  1
近藤
 41
0.5
 72
     1
 11
22.7392
 21
13.603400000000001
 31
0.0
  0
TEXT
  5
282
  8
_________2
 62
     7
 10
67.785399999999996
 20
13.2182
 30
0.0
 40
3.6545800000000002
  1
16.10.07
 41
0.5
  0
TEXT
  5
283
  8
_________2
 62
     7
 10
66.592699999999994
 20
19.410799999999998
 30
0.0
 40
3.0923400000000001
  1
日付
 41
0.5
  0
TEXT
  5
284
  8
_________2
 62
     7
 10
29.638999999999999
 20
19.410799999999998
 30
0.0
 40
3.0923400000000001
  1
検図
 41
0.5
  0
TEXT
  5
285
  8
_________2
 62
     7
 10
18.020700000000001
 20
5.21143
 30
0.0
 40
3.0923400000000001
  1
備考
 41
0.5
  0
TEXT
  5
286
  8
_________2
 62
     7
 10
18.020700000000001
 20
19.410799999999998
 30
0.0
 40
3.0923400000000001
  1
製図
 41
0.5
  0
TEXT
  5
287
  8
_________2
 62
     7
 10
23.788165333333339
 20
27.936800000000002
 30
0.0
 40
4.4979399999999989
  1
セラトレーディング株式会社
 41
0.5
 72
     1
 11
41.180199999999999
 21
27.936800000000002
 31
0.0
  0
LINE
  5
288
  8
_________2
 62
     7
 10
183.55099999999999
 20
-4.0910799999999998
 30
0.0
 11
17.049199999999999
 21
-4.0910799999999998
 31
0.0
  0
LINE
  5
289
  8
_________2
 62
     7
 10
17.049199999999999
 20
-4.0910799999999998
 30
0.0
 11
17.049199999999999
 21
258.911
 31
0.0
  0
LINE
  5
28A
  8
_________2
 62
     7
 10
17.049199999999999
 20
258.911
 30
0.0
 11
183.55099999999999
 21
258.911
 31
0.0
  0
LINE
  5
28B
  8
_________2
 62
     7
 10
183.55099999999999
 20
258.911
 30
0.0
 11
183.55099999999999
 21
-4.0910799999999998
 31
0.0
  0
LINE
  5
28C
  8
_________2
 62
     7
 10
65.549599999999998
 20
9.4092999999999982
 30
0.0
 11
65.549599999999998
 21
35.909100000000002
 31
0.0
  0
LINE
  5
28D
  8
_________2
 62
     7
 10
84.549400000000006
 20
9.4092999999999982
 30
0.0
 11
84.549400000000006
 21
35.909100000000002
 31
0.0
  0
LINE
  5
28E
  8
_________2
 62
     7
 10
103.55
 20
-4.0910799999999998
 30
0.0
 11
103.55
 21
35.909100000000002
 31
0.0
  0
LINE
  5
28F
  8
_________2
 62
     7
 10
28.548999999999999
 20
9.4092999999999982
 30
0.0
 11
28.548999999999999
 21
23.409199999999998
 31
0.0
  0
LINE
  5
290
  8
_________2
 62
     7
 10
17.049199999999999
 20
9.4092999999999982
 30
0.0
 11
103.55
 21
9.4092999999999982
 31
0.0
  0
LINE
  5
291
  8
_________2
 62
     7
 10
17.049199999999999
 20
23.409199999999998
 30
0.0
 11
103.55
 21
23.409199999999998
 31
0.0
  0
LINE
  5
292
  8
_________2
 62
     7
 10
103.55
 20
15.9085
 30
0.0
 11
183.55099999999999
 21
15.9085
 31
0.0
  0
LINE
  5
293
  8
_________2
 62
     7
 10
17.049199999999999
 20
35.909100000000002
 30
0.0
 11
183.55099999999999
 21
35.909100000000002
 31
0.0
  0
ENDSEC
  0
EOF
