  0
SECTION
  2
HEADER
  9
$ACADVER
  1
AC1009
  9
$LUNITS
 70
2
  9
$LUPREC
 70
4
  9
$LTSCALE
 40
1.0
  9
$EXTMIN
 10
16.0764
 20
-7.7766
 30
0
  9
$EXTMAX
 10
206.0763
 20
269.2235
 30
0
  0
ENDSEC
  0
SECTION
  2
TABLES
  0
TABLE
  2
LTYPE
 70
256
  0
LTYPE
  2
AIGENLINE001
 70
64
  3
generate AI->DXF Converter
 72
65
 73
4
 40
821.5278
 49
352.7778
 49
-156.25
 49
156.25
 49
-156.25
  0
LTYPE
  2
AIGENLINE002
 70
64
  3
generate AI->DXF Converter
 72
65
 73
6
 40
1134.0278
 49
352.7778
 49
-156.25
 49
156.25
 49
-156.25
 49
156.25
 49
-156.25
  0
ENDTAB
  0
TABLE
  2
LAYER
 70
7
  0
LAYER
  2
LAYER_1
 70
64
 62
7
  6
CONTINUOUS
  0
LAYER
  2
LAYER_2
 70
64
 62
7
  6
CONTINUOUS
  0
LAYER
  2
LAYER_3
 70
64
 62
7
  6
CONTINUOUS
  0
LAYER
  2
LAYER_4
 70
64
 62
7
  6
CONTINUOUS
  0
LAYER
  2
LAYER_5
 70
64
 62
7
  6
CONTINUOUS
  0
LAYER
  2
LAYER_6
 70
64
 62
7
  6
CONTINUOUS
  0
LAYER
  2
LAYER_7
 70
64
 62
7
  6
CONTINUOUS
  0
ENDTAB
  0
TABLE
  2
STYLE
 70
6
  0
STYLE
  2
STANDARD
 70
0
 40
0
 50
0
 71
0
 41
0
 42
0
  3
TXT
  4
BIGFONT
  0
ENDTAB
  0
ENDSEC
  0
SECTION
  2
BLOCKS
  0
BLOCK
  8
LAYER_7
  2
AIGNBL07040006
 70
64
 10
0
 20
0
 30
0
  3
AIGNBL07040006
  0
POLYLINE
  8
LAYER_7
 40
0.05
 41
0.05
 66
1
 10
0
 20
0
 30
0
 70
1
  0
VERTEX
  8
LAYER_7
 10
129.5759
 20
-1.9017
  0
VERTEX
  8
LAYER_7
 10
129.1615
 20
-2.9063
  0
VERTEX
  8
LAYER_7
 10
128.6292
 20
-2.9063
  0
VERTEX
  8
LAYER_7
 10
129.9848
 20
0.2856
  0
VERTEX
  8
LAYER_7
 10
130.6063
 20
0.2856
  0
VERTEX
  8
LAYER_7
 10
131.9682
 20
-2.9063
  0
VERTEX
  8
LAYER_7
 10
131.417
 20
-2.9063
  0
VERTEX
  8
LAYER_7
 10
130.9908
 20
-1.9017
  0
SEQEND
  0
POLYLINE
  8
LAYER_7
 40
0.05
 41
0.05
 66
1
 10
0
 20
0
 30
0
 70
1
  0
VERTEX
  8
LAYER_7
 10
130.8843
 20
-1.5806
  0
VERTEX
  8
LAYER_7
 10
130.4937
 20
-0.6611
 42
-0.02231634433
  0
VERTEX
  8
LAYER_7
 10
130.2863
 20
-0.0789
  0
VERTEX
  8
LAYER_7
 10
130.2746
 20
-0.0789
  0
VERTEX
  8
LAYER_7
 10
130.073
 20
-0.6573
  0
VERTEX
  8
LAYER_7
 10
129.6827
 20
-1.5806
  0
SEQEND
  0
ENDBLK
  0
BLOCK
  8
LAYER_7
  2
AIGNBL07040007
 70
64
 10
0
 20
0
 30
0
  3
AIGNBL07040007
  0
POLYLINE
  8
LAYER_7
 40
0.05
 41
0.05
 66
1
 10
0
 20
0
 30
0
 70
1
  0
VERTEX
  8
LAYER_7
 10
135.6682
 20
-3.3752
 42
-0.01547641901
  0
VERTEX
  8
LAYER_7
 10
134.1406
 20
-3.0055
 42
0.09489436555
  0
VERTEX
  8
LAYER_7
 10
133.8978
 20
-2.9586
 42
-0.100373793
  0
VERTEX
  8
LAYER_7
 10
133.0335
 20
-2.7616
 42
-0.1097040442
  0
VERTEX
  8
LAYER_7
 10
132.4708
 20
-2.3298
 42
-0.1713304141
  0
VERTEX
  8
LAYER_7
 10
132.1403
 20
-1.3917
 42
-0.006481434724
  0
VERTEX
  8
LAYER_7
 10
132.1397
 20
-1.3439
 42
-0.1157034776
  0
VERTEX
  8
LAYER_7
 10
132.3143
 20
-0.5737
 42
-0.1679073219
  0
VERTEX
  8
LAYER_7
 10
133.0508
 20
0.1353
 42
-0.1003512093
  0
VERTEX
  8
LAYER_7
 10
133.8492
 20
0.3333
 42
-0.01509702754
  0
VERTEX
  8
LAYER_7
 10
133.9987
 20
0.3376
 42
-0.1039813645
  0
VERTEX
  8
LAYER_7
 10
134.8741
 20
0.1618
 42
-0.1145898629
  0
VERTEX
  8
LAYER_7
 10
135.4471
 20
-0.2739
 42
-0.1701856296
  0
VERTEX
  8
LAYER_7
 10
135.7859
 20
-1.2334
 42
-0.006054360336
  0
VERTEX
  8
LAYER_7
 10
135.7864
 20
-1.2774
 42
-0.1147423235
  0
VERTEX
  8
LAYER_7
 10
135.6161
 20
-2.0449
 42
-0.1769022546
  0
VERTEX
  8
LAYER_7
 10
134.889
 20
-2.7221
 42
-0.03554750027
  0
VERTEX
  8
LAYER_7
 10
134.6498
 20
-2.8071
  0
VERTEX
  8
LAYER_7
 10
134.6498
 20
-2.826
 42
0.01550615466
  0
VERTEX
  8
LAYER_7
 10
135.8163
 20
-3.0296
  0
SEQEND
  0
POLYLINE
  8
LAYER_7
 40
0.05
 41
0.05
 66
1
 10
0
 20
0
 30
0
 70
1
  0
VERTEX
  8
LAYER_7
 10
135.242
 20
-1.2957
 42
0.1259362341
  0
VERTEX
  8
LAYER_7
 10
135.0661
 20
-0.6047
 42
0.276679865
  0
VERTEX
  8
LAYER_7
 10
133.9805
 20
0.0014
 42
0.1289955121
  0
VERTEX
  8
LAYER_7
 10
133.2944
 20
-0.169
 42
0.1986420642
  0
VERTEX
  8
LAYER_7
 10
132.7484
 20
-0.8931
 42
0.0720917222
  0
VERTEX
  8
LAYER_7
 10
132.6903
 20
-1.3336
 42
0.1266906031
  0
VERTEX
  8
LAYER_7
 10
132.8535
 20
-1.9998
 42
0.2778283058
  0
VERTEX
  8
LAYER_7
 10
133.957
 20
-2.6228
 42
0.1289619697
  0
VERTEX
  8
LAYER_7
 10
134.6333
 20
-2.4541
 42
0.197407087
  0
VERTEX
  8
LAYER_7
 10
135.1812
 20
-1.7353
 42
0.07132386385
  0
SEQEND
  0
ENDBLK
  0
BLOCK
  8
LAYER_7
  2
AIGNBL07040008
 70
64
 10
0
 20
0
 30
0
  3
AIGNBL07040008
  0
POLYLINE
  8
LAYER_7
 40
0.05
 41
0.05
 66
1
 10
0
 20
0
 30
0
 70
1
  0
VERTEX
  8
LAYER_7
 10
136.9115
 20
0.2856
  0
VERTEX
  8
LAYER_7
 10
136.9115
 20
-1.604
 42
0.138981145
  0
VERTEX
  8
LAYER_7
 10
137.0775
 20
-2.2603
 42
0.2426831429
  0
VERTEX
  8
LAYER_7
 10
137.7307
 20
-2.6183
 42
0.02279944991
  0
VERTEX
  8
LAYER_7
 10
137.841
 20
-2.6228
 42
0.1446978164
  0
VERTEX
  8
LAYER_7
 10
138.4458
 20
-2.4624
 42
0.1656419574
  0
VERTEX
  8
LAYER_7
 10
138.7434
 20
-2.0609
 42
0.08654413867
  0
VERTEX
  8
LAYER_7
 10
138.8119
 20
-1.604
  0
VERTEX
  8
LAYER_7
 10
138.8119
 20
0.2856
  0
VERTEX
  8
LAYER_7
 10
139.3328
 20
0.2856
  0
VERTEX
  8
LAYER_7
 10
139.3328
 20
-1.5758
 42
-0.1213960252
  0
VERTEX
  8
LAYER_7
 10
139.1651
 20
-2.3157
 42
-0.2016266738
  0
VERTEX
  8
LAYER_7
 10
138.4576
 20
-2.87
 42
-0.07892314617
  0
VERTEX
  8
LAYER_7
 10
137.8231
 20
-2.9586
 42
-0.1140673463
  0
VERTEX
  8
LAYER_7
 10
137.0107
 20
-2.7878
 42
-0.2086854916
  0
VERTEX
  8
LAYER_7
 10
136.4579
 20
-2.1056
 42
-0.07376116688
  0
VERTEX
  8
LAYER_7
 10
136.3906
 20
-1.5944
  0
VERTEX
  8
LAYER_7
 10
136.3906
 20
0.2856
  0
SEQEND
  0
ENDBLK
  0
BLOCK
  8
LAYER_7
  2
AIGNBL07040009
 70
64
 10
0
 20
0
 30
0
  3
AIGNBL07040009
  0
POLYLINE
  8
LAYER_7
 40
0.05
 41
0.05
 66
1
 10
0
 20
0
 30
0
 70
1
  0
VERTEX
  8
LAYER_7
 10
140.8131
 20
-1.9017
  0
VERTEX
  8
LAYER_7
 10
140.3983
 20
-2.9063
  0
VERTEX
  8
LAYER_7
 10
139.8661
 20
-2.9063
  0
VERTEX
  8
LAYER_7
 10
141.2217
 20
0.2856
  0
VERTEX
  8
LAYER_7
 10
141.8428
 20
0.2856
  0
VERTEX
  8
LAYER_7
 10
143.2047
 20
-2.9063
  0
VERTEX
  8
LAYER_7
 10
142.6542
 20
-2.9063
  0
VERTEX
  8
LAYER_7
 10
142.228
 20
-1.9017
  0
SEQEND
  0
POLYLINE
  8
LAYER_7
 40
0.05
 41
0.05
 66
1
 10
0
 20
0
 30
0
 70
1
  0
VERTEX
  8
LAYER_7
 10
142.1212
 20
-1.5806
  0
VERTEX
  8
LAYER_7
 10
141.7302
 20
-0.6611
 42
-0.02125651819
  0
VERTEX
  8
LAYER_7
 10
141.5228
 20
-0.0789
  0
VERTEX
  8
LAYER_7
 10
141.5111
 20
-0.0789
 42
-0.02103918769
  0
VERTEX
  8
LAYER_7
 10
141.3099
 20
-0.6573
  0
VERTEX
  8
LAYER_7
 10
140.9192
 20
-1.5806
  0
SEQEND
  0
ENDBLK
  0
BLOCK
  8
LAYER_7
  2
AIGNBL0704000A
 70
64
 10
0
 20
0
 30
0
  3
AIGNBL0704000A
  0
POLYLINE
  8
LAYER_7
 40
0.05
 41
0.05
 66
1
 10
0
 20
0
 30
0
 70
1
  0
VERTEX
  8
LAYER_7
 10
144.0866
 20
0.2477
 42
-0.03323004622
  0
VERTEX
  8
LAYER_7
 10
145.0757
 20
0.3097
 42
-0.09650604132
  0
VERTEX
  8
LAYER_7
 10
146.0056
 20
0.1514
 42
-0.05239648876
  0
VERTEX
  8
LAYER_7
 10
146.1943
 20
0.0444
 42
-0.2475475663
  0
VERTEX
  8
LAYER_7
 10
146.5433
 20
-0.6236
 42
-0.1633493674
  0
VERTEX
  8
LAYER_7
 10
146.3723
 20
-1.1652
 42
-0.05697336531
  0
VERTEX
  8
LAYER_7
 10
146.2357
 20
-1.3053
 42
-0.1301814771
  0
VERTEX
  8
LAYER_7
 10
145.5827
 20
-1.6002
 42
-0.05286501804
  0
VERTEX
  8
LAYER_7
 10
145.0161
 20
-1.6561
 42
-0.0589106892
  0
VERTEX
  8
LAYER_7
 10
144.602
 20
-1.6275
  0
VERTEX
  8
LAYER_7
 10
144.602
 20
-2.9063
  0
VERTEX
  8
LAYER_7
 10
144.0866
 20
-2.9063
  0
SEQEND
  0
POLYLINE
  8
LAYER_7
 40
0.05
 41
0.05
 66
1
 10
0
 20
0
 30
0
 70
1
  0
VERTEX
  8
LAYER_7
 10
144.602
 20
-1.2912
 42
0.04848394292
  0
VERTEX
  8
LAYER_7
 10
145.0278
 20
-1.3246
 42
0.1267241775
  0
VERTEX
  8
LAYER_7
 10
145.737
 20
-1.1646
 42
0.1801713856
  0
VERTEX
  8
LAYER_7
 10
146.0018
 20
-0.8343
 42
0.07354410889
  0
VERTEX
  8
LAYER_7
 10
146.029
 20
-0.6425
 42
0.3108550011
  0
VERTEX
  8
LAYER_7
 10
145.6717
 20
-0.1192
 42
0.1110538748
  0
VERTEX
  8
LAYER_7
 10
145.0878
 20
-0.0176
 42
0.05507706355
  0
VERTEX
  8
LAYER_7
 10
144.602
 20
-0.0506
  0
SEQEND
  0
ENDBLK
  0
BLOCK
  8
LAYER_7
  2
AIGNBL0704000B
 70
64
 10
0
 20
0
 30
0
  3
AIGNBL0704000B
  0
POLYLINE
  8
LAYER_7
 40
0.05
 41
0.05
 66
1
 10
0
 20
0
 30
0
 70
1
  0
VERTEX
  8
LAYER_7
 10
147.859
 20
0.03
 42
-0.3245339907
  0
VERTEX
  8
LAYER_7
 10
147.6969
 20
-0.1954
 42
-0.09620347437
  0
VERTEX
  8
LAYER_7
 10
147.5269
 20
-0.226
 42
-0.2676237393
  0
VERTEX
  8
LAYER_7
 10
147.2363
 20
-0.0702
 42
-0.1146413536
  0
VERTEX
  8
LAYER_7
 10
147.2131
 20
0.03
 42
-0.3124013774
  0
VERTEX
  8
LAYER_7
 10
147.3861
 20
0.2622
 42
-0.09436570029
  0
VERTEX
  8
LAYER_7
 10
147.5386
 20
0.2901
 42
-0.2690720095
  0
VERTEX
  8
LAYER_7
 10
147.8351
 20
0.1355
 42
-0.1137202002
  0
SEQEND
  0
POLYLINE
  8
LAYER_7
 40
0.05
 41
0.05
 66
1
 10
0
 20
0
 30
0
 70
1
  0
VERTEX
  8
LAYER_7
 10
147.2778
 20
-2.9063
  0
VERTEX
  8
LAYER_7
 10
147.2778
 20
-0.6143
  0
VERTEX
  8
LAYER_7
 10
147.7987
 20
-0.6143
  0
VERTEX
  8
LAYER_7
 10
147.7987
 20
-2.9063
  0
SEQEND
  0
ENDBLK
  0
BLOCK
  8
LAYER_7
  2
AIGNBL0704000C
 70
64
 10
0
 20
0
 30
0
  3
AIGNBL0704000C
  0
POLYLINE
  8
LAYER_7
 40
0.05
 41
0.05
 66
1
 10
0
 20
0
 30
0
 70
1
  0
VERTEX
  8
LAYER_7
 10
149.3852
 20
-1.9017
  0
VERTEX
  8
LAYER_7
 10
148.9714
 20
-2.9063
  0
VERTEX
  8
LAYER_7
 10
148.4381
 20
-2.9063
  0
VERTEX
  8
LAYER_7
 10
149.7941
 20
0.2856
  0
VERTEX
  8
LAYER_7
 10
150.416
 20
0.2856
  0
VERTEX
  8
LAYER_7
 10
151.7778
 20
-2.9063
  0
VERTEX
  8
LAYER_7
 10
151.2269
 20
-2.9063
  0
VERTEX
  8
LAYER_7
 10
150.8008
 20
-1.9017
  0
SEQEND
  0
POLYLINE
  8
LAYER_7
 40
0.05
 41
0.05
 66
1
 10
0
 20
0
 30
0
 70
1
  0
VERTEX
  8
LAYER_7
 10
150.694
 20
-1.5806
  0
VERTEX
  8
LAYER_7
 10
150.3033
 20
-0.6611
 42
-0.02374663041
  0
VERTEX
  8
LAYER_7
 10
150.0966
 20
-0.0789
  0
VERTEX
  8
LAYER_7
 10
150.0842
 20
-0.0789
  0
VERTEX
  8
LAYER_7
 10
149.883
 20
-0.6573
  0
VERTEX
  8
LAYER_7
 10
149.4923
 20
-1.5806
  0
SEQEND
  0
ENDBLK
  0
BLOCK
  8
LAYER_2
  2
AIGNBL02030007
 70
64
 10
0
 20
0
 30
0
  3
AIGNBL02030007
  0
POLYLINE
  8
LAYER_2
 40
0.2469
 41
0.2469
 66
1
 10
0
 20
0
 30
0
  0
VERTEX
  8
LAYER_2
 10
116.416
 20
65.0765
  0
VERTEX
  8
LAYER_2
 10
116.1659
 20
63.5765
  0
SEQEND
  0
ENDBLK
  0
BLOCK
  8
LAYER_2
  2
AIGNBL02030008
 70
64
 10
0
 20
0
 30
0
  3
AIGNBL02030008
  0
POLYLINE
  8
LAYER_2
 40
0.2469
 41
0.2469
 66
1
 10
0
 20
0
 30
0
  0
VERTEX
  8
LAYER_2
 10
116.1659
 20
63.5765
  0
VERTEX
  8
LAYER_2
 10
115.9157
 20
65.0765
  0
SEQEND
  0
ENDBLK
  0
BLOCK
  8
LAYER_2
  2
AIGNBL02030009
 70
64
 10
0
 20
0
 30
0
  3
AIGNBL02030009
  0
POLYLINE
  8
LAYER_2
 40
0.2469
 41
0.2469
 66
1
 10
0
 20
0
 30
0
  0
VERTEX
  8
LAYER_2
 10
116.1659
 20
63.5765
  0
VERTEX
  8
LAYER_2
 10
116.1659
 20
65.0765
  0
SEQEND
  0
ENDBLK
  0
BLOCK
  8
LAYER_2
  2
AIGNBL0203000B
 70
64
 10
0
 20
0
 30
0
  3
AIGNBL0203000B
  0
POLYLINE
  8
LAYER_2
 40
0.2469
 41
0.2469
 66
1
 10
0
 20
0
 30
0
  0
VERTEX
  8
LAYER_2
 10
115.9157
 20
135.8594
  0
VERTEX
  8
LAYER_2
 10
116.1659
 20
137.3594
  0
SEQEND
  0
ENDBLK
  0
BLOCK
  8
LAYER_2
  2
AIGNBL0203000C
 70
64
 10
0
 20
0
 30
0
  3
AIGNBL0203000C
  0
POLYLINE
  8
LAYER_2
 40
0.2469
 41
0.2469
 66
1
 10
0
 20
0
 30
0
  0
VERTEX
  8
LAYER_2
 10
116.1659
 20
137.3594
  0
VERTEX
  8
LAYER_2
 10
116.416
 20
135.8594
  0
SEQEND
  0
ENDBLK
  0
BLOCK
  8
LAYER_2
  2
AIGNBL0203000D
 70
64
 10
0
 20
0
 30
0
  3
AIGNBL0203000D
  0
POLYLINE
  8
LAYER_2
 40
0.2469
 41
0.2469
 66
1
 10
0
 20
0
 30
0
  0
VERTEX
  8
LAYER_2
 10
116.1659
 20
137.3594
  0
VERTEX
  8
LAYER_2
 10
116.1659
 20
135.8594
  0
SEQEND
  0
ENDBLK
  0
BLOCK
  8
LAYER_2
  2
AIGNBL02030018
 70
64
 10
0
 20
0
 30
0
  3
AIGNBL02030018
  0
POLYLINE
  8
LAYER_2
 40
0.2469
 41
0.2469
 66
1
 10
0
 20
0
 30
0
  0
VERTEX
  8
LAYER_2
 10
81.7592
 20
140.7594
  0
VERTEX
  8
LAYER_2
 10
80.2592
 20
141.0095
  0
SEQEND
  0
ENDBLK
  0
BLOCK
  8
LAYER_2
  2
AIGNBL02030019
 70
64
 10
0
 20
0
 30
0
  3
AIGNBL02030019
  0
POLYLINE
  8
LAYER_2
 40
0.2469
 41
0.2469
 66
1
 10
0
 20
0
 30
0
  0
VERTEX
  8
LAYER_2
 10
80.2592
 20
141.0095
  0
VERTEX
  8
LAYER_2
 10
81.7592
 20
141.2594
  0
SEQEND
  0
ENDBLK
  0
BLOCK
  8
LAYER_2
  2
AIGNBL0203001A
 70
64
 10
0
 20
0
 30
0
  3
AIGNBL0203001A
  0
POLYLINE
  8
LAYER_2
 40
0.2469
 41
0.2469
 66
1
 10
0
 20
0
 30
0
  0
VERTEX
  8
LAYER_2
 10
80.2592
 20
141.0095
  0
VERTEX
  8
LAYER_2
 10
81.7592
 20
141.0095
  0
SEQEND
  0
ENDBLK
  0
BLOCK
  8
LAYER_2
  2
AIGNBL0203001C
 70
64
 10
0
 20
0
 30
0
  3
AIGNBL0203001C
  0
POLYLINE
  8
LAYER_2
 40
0.2469
 41
0.2469
 66
1
 10
0
 20
0
 30
0
  0
VERTEX
  8
LAYER_2
 10
87.7592
 20
141.2594
  0
VERTEX
  8
LAYER_2
 10
89.2592
 20
141.0095
  0
SEQEND
  0
ENDBLK
  0
BLOCK
  8
LAYER_2
  2
AIGNBL0203001D
 70
64
 10
0
 20
0
 30
0
  3
AIGNBL0203001D
  0
POLYLINE
  8
LAYER_2
 40
0.2469
 41
0.2469
 66
1
 10
0
 20
0
 30
0
  0
VERTEX
  8
LAYER_2
 10
89.2592
 20
141.0095
  0
VERTEX
  8
LAYER_2
 10
87.7592
 20
140.7594
  0
SEQEND
  0
ENDBLK
  0
BLOCK
  8
LAYER_2
  2
AIGNBL0203001E
 70
64
 10
0
 20
0
 30
0
  3
AIGNBL0203001E
  0
POLYLINE
  8
LAYER_2
 40
0.2469
 41
0.2469
 66
1
 10
0
 20
0
 30
0
  0
VERTEX
  8
LAYER_2
 10
89.2592
 20
141.0095
  0
VERTEX
  8
LAYER_2
 10
87.7592
 20
141.0095
  0
SEQEND
  0
ENDBLK
  0
BLOCK
  8
LAYER_2
  2
AIGNBL0203002A
 70
64
 10
0
 20
0
 30
0
  3
AIGNBL0203002A
  0
POLYLINE
  8
LAYER_2
 40
0.2469
 41
0.2469
 66
1
 10
0
 20
0
 30
0
  0
VERTEX
  8
LAYER_2
 10
170.5722
 20
132.395
  0
VERTEX
  8
LAYER_2
 10
172.0722
 20
132.1449
  0
SEQEND
  0
ENDBLK
  0
BLOCK
  8
LAYER_2
  2
AIGNBL0203002B
 70
64
 10
0
 20
0
 30
0
  3
AIGNBL0203002B
  0
POLYLINE
  8
LAYER_2
 40
0.2469
 41
0.2469
 66
1
 10
0
 20
0
 30
0
  0
VERTEX
  8
LAYER_2
 10
172.0722
 20
132.1449
  0
VERTEX
  8
LAYER_2
 10
170.5722
 20
131.8951
  0
SEQEND
  0
ENDBLK
  0
BLOCK
  8
LAYER_2
  2
AIGNBL0203002C
 70
64
 10
0
 20
0
 30
0
  3
AIGNBL0203002C
  0
POLYLINE
  8
LAYER_2
 40
0.2469
 41
0.2469
 66
1
 10
0
 20
0
 30
0
  0
VERTEX
  8
LAYER_2
 10
172.0722
 20
132.1449
  0
VERTEX
  8
LAYER_2
 10
170.5722
 20
132.1449
  0
SEQEND
  0
ENDBLK
  0
BLOCK
  8
LAYER_2
  2
AIGNBL0203002E
 70
64
 10
0
 20
0
 30
0
  3
AIGNBL0203002E
  0
POLYLINE
  8
LAYER_2
 40
0.2469
 41
0.2469
 66
1
 10
0
 20
0
 30
0
  0
VERTEX
  8
LAYER_2
 10
152.5936
 20
131.8951
  0
VERTEX
  8
LAYER_2
 10
151.0936
 20
132.1449
  0
SEQEND
  0
ENDBLK
  0
BLOCK
  8
LAYER_2
  2
AIGNBL0203002F
 70
64
 10
0
 20
0
 30
0
  3
AIGNBL0203002F
  0
POLYLINE
  8
LAYER_2
 40
0.2469
 41
0.2469
 66
1
 10
0
 20
0
 30
0
  0
VERTEX
  8
LAYER_2
 10
151.0936
 20
132.1449
  0
VERTEX
  8
LAYER_2
 10
152.5936
 20
132.395
  0
SEQEND
  0
ENDBLK
  0
BLOCK
  8
LAYER_2
  2
AIGNBL02030030
 70
64
 10
0
 20
0
 30
0
  3
AIGNBL02030030
  0
POLYLINE
  8
LAYER_2
 40
0.2469
 41
0.2469
 66
1
 10
0
 20
0
 30
0
  0
VERTEX
  8
LAYER_2
 10
151.0936
 20
132.1449
  0
VERTEX
  8
LAYER_2
 10
152.5936
 20
132.1449
  0
SEQEND
  0
ENDBLK
  0
BLOCK
  8
LAYER_2
  2
AIGNBL0203003A
 70
64
 10
0
 20
0
 30
0
  3
AIGNBL0203003A
  0
POLYLINE
  8
LAYER_2
 40
0.2469
 41
0.2469
 66
1
 10
0
 20
0
 30
0
  0
VERTEX
  8
LAYER_2
 10
143.4965
 20
138.8594
  0
VERTEX
  8
LAYER_2
 10
143.2464
 20
137.3594
  0
SEQEND
  0
ENDBLK
  0
BLOCK
  8
LAYER_2
  2
AIGNBL0203003B
 70
64
 10
0
 20
0
 30
0
  3
AIGNBL0203003B
  0
POLYLINE
  8
LAYER_2
 40
0.2469
 41
0.2469
 66
1
 10
0
 20
0
 30
0
  0
VERTEX
  8
LAYER_2
 10
143.2464
 20
137.3594
  0
VERTEX
  8
LAYER_2
 10
142.9963
 20
138.8594
  0
SEQEND
  0
ENDBLK
  0
BLOCK
  8
LAYER_2
  2
AIGNBL0203003C
 70
64
 10
0
 20
0
 30
0
  3
AIGNBL0203003C
  0
POLYLINE
  8
LAYER_2
 40
0.2469
 41
0.2469
 66
1
 10
0
 20
0
 30
0
  0
VERTEX
  8
LAYER_2
 10
143.2464
 20
137.3594
  0
VERTEX
  8
LAYER_2
 10
143.2464
 20
138.8594
  0
SEQEND
  0
ENDBLK
  0
BLOCK
  8
LAYER_2
  2
AIGNBL0203003E
 70
64
 10
0
 20
0
 30
0
  3
AIGNBL0203003E
  0
POLYLINE
  8
LAYER_2
 40
0.2469
 41
0.2469
 66
1
 10
0
 20
0
 30
0
  0
VERTEX
  8
LAYER_2
 10
142.9963
 20
143.7854
  0
VERTEX
  8
LAYER_2
 10
143.2464
 20
145.2854
  0
SEQEND
  0
ENDBLK
  0
BLOCK
  8
LAYER_2
  2
AIGNBL0203003F
 70
64
 10
0
 20
0
 30
0
  3
AIGNBL0203003F
  0
POLYLINE
  8
LAYER_2
 40
0.2469
 41
0.2469
 66
1
 10
0
 20
0
 30
0
  0
VERTEX
  8
LAYER_2
 10
143.2464
 20
145.2854
  0
VERTEX
  8
LAYER_2
 10
143.4965
 20
143.7854
  0
SEQEND
  0
ENDBLK
  0
BLOCK
  8
LAYER_2
  2
AIGNBL02030040
 70
64
 10
0
 20
0
 30
0
  3
AIGNBL02030040
  0
POLYLINE
  8
LAYER_2
 40
0.2469
 41
0.2469
 66
1
 10
0
 20
0
 30
0
  0
VERTEX
  8
LAYER_2
 10
143.2464
 20
145.2854
  0
VERTEX
  8
LAYER_2
 10
143.2464
 20
143.7854
  0
SEQEND
  0
ENDBLK
  0
BLOCK
  8
LAYER_2
  2
AIGNBL0203004C
 70
64
 10
0
 20
0
 30
0
  3
AIGNBL0203004C
  0
POLYLINE
  8
LAYER_2
 40
0.2469
 41
0.2469
 66
1
 10
0
 20
0
 30
0
  0
VERTEX
  8
LAYER_2
 10
156.84
 20
180.5742
  0
VERTEX
  8
LAYER_2
 10
155.34
 20
180.8241
  0
SEQEND
  0
ENDBLK
  0
BLOCK
  8
LAYER_2
  2
AIGNBL0203004D
 70
64
 10
0
 20
0
 30
0
  3
AIGNBL0203004D
  0
POLYLINE
  8
LAYER_2
 40
0.2469
 41
0.2469
 66
1
 10
0
 20
0
 30
0
  0
VERTEX
  8
LAYER_2
 10
155.34
 20
180.8241
  0
VERTEX
  8
LAYER_2
 10
156.84
 20
181.0742
  0
SEQEND
  0
ENDBLK
  0
BLOCK
  8
LAYER_2
  2
AIGNBL0203004E
 70
64
 10
0
 20
0
 30
0
  3
AIGNBL0203004E
  0
POLYLINE
  8
LAYER_2
 40
0.2469
 41
0.2469
 66
1
 10
0
 20
0
 30
0
  0
VERTEX
  8
LAYER_2
 10
155.34
 20
180.8241
  0
VERTEX
  8
LAYER_2
 10
156.84
 20
180.8241
  0
SEQEND
  0
ENDBLK
  0
BLOCK
  8
LAYER_2
  2
AIGNBL02030050
 70
64
 10
0
 20
0
 30
0
  3
AIGNBL02030050
  0
POLYLINE
  8
LAYER_2
 40
0.2469
 41
0.2469
 66
1
 10
0
 20
0
 30
0
  0
VERTEX
  8
LAYER_2
 10
170.5722
 20
181.0742
  0
VERTEX
  8
LAYER_2
 10
172.0722
 20
180.8241
  0
SEQEND
  0
ENDBLK
  0
BLOCK
  8
LAYER_2
  2
AIGNBL02030051
 70
64
 10
0
 20
0
 30
0
  3
AIGNBL02030051
  0
POLYLINE
  8
LAYER_2
 40
0.2469
 41
0.2469
 66
1
 10
0
 20
0
 30
0
  0
VERTEX
  8
LAYER_2
 10
172.0722
 20
180.8241
  0
VERTEX
  8
LAYER_2
 10
170.5722
 20
180.5742
  0
SEQEND
  0
ENDBLK
  0
BLOCK
  8
LAYER_2
  2
AIGNBL02030052
 70
64
 10
0
 20
0
 30
0
  3
AIGNBL02030052
  0
POLYLINE
  8
LAYER_2
 40
0.2469
 41
0.2469
 66
1
 10
0
 20
0
 30
0
  0
VERTEX
  8
LAYER_2
 10
172.0722
 20
180.8241
  0
VERTEX
  8
LAYER_2
 10
170.5722
 20
180.8241
  0
SEQEND
  0
ENDBLK
  0
BLOCK
  8
LAYER_2
  2
AIGNBL0203005C
 70
64
 10
0
 20
0
 30
0
  3
AIGNBL0203005C
  0
POLYLINE
  8
LAYER_2
 40
0.2469
 41
0.2469
 66
1
 10
0
 20
0
 30
0
  0
VERTEX
  8
LAYER_2
 10
173.5722
 20
180.5742
  0
VERTEX
  8
LAYER_2
 10
172.0722
 20
180.8241
  0
SEQEND
  0
ENDBLK
  0
BLOCK
  8
LAYER_2
  2
AIGNBL0203005D
 70
64
 10
0
 20
0
 30
0
  3
AIGNBL0203005D
  0
POLYLINE
  8
LAYER_2
 40
0.2469
 41
0.2469
 66
1
 10
0
 20
0
 30
0
  0
VERTEX
  8
LAYER_2
 10
172.0722
 20
180.8241
  0
VERTEX
  8
LAYER_2
 10
173.5722
 20
181.0742
  0
SEQEND
  0
ENDBLK
  0
BLOCK
  8
LAYER_2
  2
AIGNBL0203005E
 70
64
 10
0
 20
0
 30
0
  3
AIGNBL0203005E
  0
POLYLINE
  8
LAYER_2
 40
0.2469
 41
0.2469
 66
1
 10
0
 20
0
 30
0
  0
VERTEX
  8
LAYER_2
 10
172.0722
 20
180.8241
  0
VERTEX
  8
LAYER_2
 10
173.5722
 20
180.8241
  0
SEQEND
  0
ENDBLK
  0
BLOCK
  8
LAYER_2
  2
AIGNBL02030060
 70
64
 10
0
 20
0
 30
0
  3
AIGNBL02030060
  0
POLYLINE
  8
LAYER_2
 40
0.2469
 41
0.2469
 66
1
 10
0
 20
0
 30
0
  0
VERTEX
  8
LAYER_2
 10
177.9006
 20
181.0742
  0
VERTEX
  8
LAYER_2
 10
179.4006
 20
180.8241
  0
SEQEND
  0
ENDBLK
  0
BLOCK
  8
LAYER_2
  2
AIGNBL02030061
 70
64
 10
0
 20
0
 30
0
  3
AIGNBL02030061
  0
POLYLINE
  8
LAYER_2
 40
0.2469
 41
0.2469
 66
1
 10
0
 20
0
 30
0
  0
VERTEX
  8
LAYER_2
 10
179.4006
 20
180.8241
  0
VERTEX
  8
LAYER_2
 10
177.9006
 20
180.5742
  0
SEQEND
  0
ENDBLK
  0
BLOCK
  8
LAYER_2
  2
AIGNBL02030062
 70
64
 10
0
 20
0
 30
0
  3
AIGNBL02030062
  0
POLYLINE
  8
LAYER_2
 40
0.2469
 41
0.2469
 66
1
 10
0
 20
0
 30
0
  0
VERTEX
  8
LAYER_2
 10
179.4006
 20
180.8241
  0
VERTEX
  8
LAYER_2
 10
177.9006
 20
180.8241
  0
SEQEND
  0
ENDBLK
  0
BLOCK
  8
LAYER_2
  2
AIGNBL0203006C
 70
64
 10
0
 20
0
 30
0
  3
AIGNBL0203006C
  0
POLYLINE
  8
LAYER_2
 40
0.2469
 41
0.2469
 66
1
 10
0
 20
0
 30
0
  0
VERTEX
  8
LAYER_2
 10
124.9963
 20
171.8734
  0
VERTEX
  8
LAYER_2
 10
125.2464
 20
173.3734
  0
SEQEND
  0
ENDBLK
  0
BLOCK
  8
LAYER_2
  2
AIGNBL0203006D
 70
64
 10
0
 20
0
 30
0
  3
AIGNBL0203006D
  0
POLYLINE
  8
LAYER_2
 40
0.2469
 41
0.2469
 66
1
 10
0
 20
0
 30
0
  0
VERTEX
  8
LAYER_2
 10
125.2464
 20
173.3734
  0
VERTEX
  8
LAYER_2
 10
125.4966
 20
171.8734
  0
SEQEND
  0
ENDBLK
  0
BLOCK
  8
LAYER_2
  2
AIGNBL0203006E
 70
64
 10
0
 20
0
 30
0
  3
AIGNBL0203006E
  0
POLYLINE
  8
LAYER_2
 40
0.2469
 41
0.2469
 66
1
 10
0
 20
0
 30
0
  0
VERTEX
  8
LAYER_2
 10
125.2464
 20
173.3734
  0
VERTEX
  8
LAYER_2
 10
125.2464
 20
171.8734
  0
SEQEND
  0
ENDBLK
  0
BLOCK
  8
LAYER_2
  2
AIGNBL02030070
 70
64
 10
0
 20
0
 30
0
  3
AIGNBL02030070
  0
POLYLINE
  8
LAYER_2
 40
0.2469
 41
0.2469
 66
1
 10
0
 20
0
 30
0
  0
VERTEX
  8
LAYER_2
 10
125.4966
 20
138.8594
  0
VERTEX
  8
LAYER_2
 10
125.2464
 20
137.3594
  0
SEQEND
  0
ENDBLK
  0
BLOCK
  8
LAYER_2
  2
AIGNBL02030071
 70
64
 10
0
 20
0
 30
0
  3
AIGNBL02030071
  0
POLYLINE
  8
LAYER_2
 40
0.2469
 41
0.2469
 66
1
 10
0
 20
0
 30
0
  0
VERTEX
  8
LAYER_2
 10
125.2464
 20
137.3594
  0
VERTEX
  8
LAYER_2
 10
124.9963
 20
138.8594
  0
SEQEND
  0
ENDBLK
  0
BLOCK
  8
LAYER_2
  2
AIGNBL02030072
 70
64
 10
0
 20
0
 30
0
  3
AIGNBL02030072
  0
POLYLINE
  8
LAYER_2
 40
0.2469
 41
0.2469
 66
1
 10
0
 20
0
 30
0
  0
VERTEX
  8
LAYER_2
 10
125.2464
 20
137.3594
  0
VERTEX
  8
LAYER_2
 10
125.2464
 20
138.8594
  0
SEQEND
  0
ENDBLK
  0
BLOCK
  8
LAYER_2
  2
AIGNBL0203007C
 70
64
 10
0
 20
0
 30
0
  3
AIGNBL0203007C
  0
POLYLINE
  8
LAYER_2
 40
0.2469
 41
0.2469
 66
1
 10
0
 20
0
 30
0
  0
VERTEX
  8
LAYER_2
 10
136.9963
 20
153.4645
  0
VERTEX
  8
LAYER_2
 10
137.2464
 20
154.9645
  0
SEQEND
  0
ENDBLK
  0
BLOCK
  8
LAYER_2
  2
AIGNBL0203007D
 70
64
 10
0
 20
0
 30
0
  3
AIGNBL0203007D
  0
POLYLINE
  8
LAYER_2
 40
0.2469
 41
0.2469
 66
1
 10
0
 20
0
 30
0
  0
VERTEX
  8
LAYER_2
 10
137.2464
 20
154.9645
  0
VERTEX
  8
LAYER_2
 10
137.4965
 20
153.4645
  0
SEQEND
  0
ENDBLK
  0
BLOCK
  8
LAYER_2
  2
AIGNBL0203007E
 70
64
 10
0
 20
0
 30
0
  3
AIGNBL0203007E
  0
POLYLINE
  8
LAYER_2
 40
0.2469
 41
0.2469
 66
1
 10
0
 20
0
 30
0
  0
VERTEX
  8
LAYER_2
 10
137.2464
 20
154.9645
  0
VERTEX
  8
LAYER_2
 10
137.2464
 20
153.4645
  0
SEQEND
  0
ENDBLK
  0
BLOCK
  8
LAYER_2
  2
AIGNBL02030080
 70
64
 10
0
 20
0
 30
0
  3
AIGNBL02030080
  0
POLYLINE
  8
LAYER_2
 40
0.2469
 41
0.2469
 66
1
 10
0
 20
0
 30
0
  0
VERTEX
  8
LAYER_2
 10
137.4965
 20
138.8594
  0
VERTEX
  8
LAYER_2
 10
137.2464
 20
137.3594
  0
SEQEND
  0
ENDBLK
  0
BLOCK
  8
LAYER_2
  2
AIGNBL02030081
 70
64
 10
0
 20
0
 30
0
  3
AIGNBL02030081
  0
POLYLINE
  8
LAYER_2
 40
0.2469
 41
0.2469
 66
1
 10
0
 20
0
 30
0
  0
VERTEX
  8
LAYER_2
 10
137.2464
 20
137.3594
  0
VERTEX
  8
LAYER_2
 10
136.9963
 20
138.8594
  0
SEQEND
  0
ENDBLK
  0
BLOCK
  8
LAYER_2
  2
AIGNBL02030082
 70
64
 10
0
 20
0
 30
0
  3
AIGNBL02030082
  0
POLYLINE
  8
LAYER_2
 40
0.2469
 41
0.2469
 66
1
 10
0
 20
0
 30
0
  0
VERTEX
  8
LAYER_2
 10
137.2464
 20
137.3594
  0
VERTEX
  8
LAYER_2
 10
137.2464
 20
138.8594
  0
SEQEND
  0
ENDBLK
  0
BLOCK
  8
LAYER_2
  2
AIGNBL0203008C
 70
64
 10
0
 20
0
 30
0
  3
AIGNBL0203008C
  0
POLYLINE
  8
LAYER_2
 40
0.2469
 41
0.2469
 66
1
 10
0
 20
0
 30
0
  0
VERTEX
  8
LAYER_2
 10
130.9963
 20
164.7996
  0
VERTEX
  8
LAYER_2
 10
131.2464
 20
166.2996
  0
SEQEND
  0
ENDBLK
  0
BLOCK
  8
LAYER_2
  2
AIGNBL0203008D
 70
64
 10
0
 20
0
 30
0
  3
AIGNBL0203008D
  0
POLYLINE
  8
LAYER_2
 40
0.2469
 41
0.2469
 66
1
 10
0
 20
0
 30
0
  0
VERTEX
  8
LAYER_2
 10
131.2464
 20
166.2996
  0
VERTEX
  8
LAYER_2
 10
131.4965
 20
164.7996
  0
SEQEND
  0
ENDBLK
  0
BLOCK
  8
LAYER_2
  2
AIGNBL0203008E
 70
64
 10
0
 20
0
 30
0
  3
AIGNBL0203008E
  0
POLYLINE
  8
LAYER_2
 40
0.2469
 41
0.2469
 66
1
 10
0
 20
0
 30
0
  0
VERTEX
  8
LAYER_2
 10
131.2464
 20
166.2996
  0
VERTEX
  8
LAYER_2
 10
131.2464
 20
164.7996
  0
SEQEND
  0
ENDBLK
  0
BLOCK
  8
LAYER_2
  2
AIGNBL02030090
 70
64
 10
0
 20
0
 30
0
  3
AIGNBL02030090
  0
POLYLINE
  8
LAYER_2
 40
0.2469
 41
0.2469
 66
1
 10
0
 20
0
 30
0
  0
VERTEX
  8
LAYER_2
 10
131.4965
 20
138.8594
  0
VERTEX
  8
LAYER_2
 10
131.2464
 20
137.3594
  0
SEQEND
  0
ENDBLK
  0
BLOCK
  8
LAYER_2
  2
AIGNBL02030091
 70
64
 10
0
 20
0
 30
0
  3
AIGNBL02030091
  0
POLYLINE
  8
LAYER_2
 40
0.2469
 41
0.2469
 66
1
 10
0
 20
0
 30
0
  0
VERTEX
  8
LAYER_2
 10
131.2464
 20
137.3594
  0
VERTEX
  8
LAYER_2
 10
130.9963
 20
138.8594
  0
SEQEND
  0
ENDBLK
  0
BLOCK
  8
LAYER_2
  2
AIGNBL02030092
 70
64
 10
0
 20
0
 30
0
  3
AIGNBL02030092
  0
POLYLINE
  8
LAYER_2
 40
0.2469
 41
0.2469
 66
1
 10
0
 20
0
 30
0
  0
VERTEX
  8
LAYER_2
 10
131.2464
 20
137.3594
  0
VERTEX
  8
LAYER_2
 10
131.2464
 20
138.8594
  0
SEQEND
  0
ENDBLK
  0
BLOCK
  8
LAYER_2
  2
AIGNBL0203009C
 70
64
 10
0
 20
0
 30
0
  3
AIGNBL0203009C
  0
POLYLINE
  8
LAYER_2
 40
0.2469
 41
0.2469
 66
1
 10
0
 20
0
 30
0
  0
VERTEX
  8
LAYER_2
 10
151.0282
 20
122.5228
  0
VERTEX
  8
LAYER_2
 10
149.5282
 20
122.7729
  0
SEQEND
  0
ENDBLK
  0
BLOCK
  8
LAYER_2
  2
AIGNBL0203009D
 70
64
 10
0
 20
0
 30
0
  3
AIGNBL0203009D
  0
POLYLINE
  8
LAYER_2
 40
0.2469
 41
0.2469
 66
1
 10
0
 20
0
 30
0
  0
VERTEX
  8
LAYER_2
 10
149.5282
 20
122.7729
  0
VERTEX
  8
LAYER_2
 10
151.0282
 20
123.0226
  0
SEQEND
  0
ENDBLK
  0
BLOCK
  8
LAYER_2
  2
AIGNBL0203009E
 70
64
 10
0
 20
0
 30
0
  3
AIGNBL0203009E
  0
POLYLINE
  8
LAYER_2
 40
0.2469
 41
0.2469
 66
1
 10
0
 20
0
 30
0
  0
VERTEX
  8
LAYER_2
 10
149.5282
 20
122.7729
  0
VERTEX
  8
LAYER_2
 10
151.0282
 20
122.7729
  0
SEQEND
  0
ENDBLK
  0
BLOCK
  8
LAYER_2
  2
AIGNBL020300A0
 70
64
 10
0
 20
0
 30
0
  3
AIGNBL020300A0
  0
POLYLINE
  8
LAYER_2
 40
0.2469
 41
0.2469
 66
1
 10
0
 20
0
 30
0
  0
VERTEX
  8
LAYER_2
 10
170.5722
 20
123.0226
  0
VERTEX
  8
LAYER_2
 10
172.0722
 20
122.7729
  0
SEQEND
  0
ENDBLK
  0
BLOCK
  8
LAYER_2
  2
AIGNBL020300A1
 70
64
 10
0
 20
0
 30
0
  3
AIGNBL020300A1
  0
POLYLINE
  8
LAYER_2
 40
0.2469
 41
0.2469
 66
1
 10
0
 20
0
 30
0
  0
VERTEX
  8
LAYER_2
 10
172.0722
 20
122.7729
  0
VERTEX
  8
LAYER_2
 10
170.5722
 20
122.5228
  0
SEQEND
  0
ENDBLK
  0
BLOCK
  8
LAYER_2
  2
AIGNBL020300A2
 70
64
 10
0
 20
0
 30
0
  3
AIGNBL020300A2
  0
POLYLINE
  8
LAYER_2
 40
0.2469
 41
0.2469
 66
1
 10
0
 20
0
 30
0
  0
VERTEX
  8
LAYER_2
 10
172.0722
 20
122.7729
  0
VERTEX
  8
LAYER_2
 10
170.5722
 20
122.7729
  0
SEQEND
  0
ENDBLK
  0
BLOCK
  8
LAYER_2
  2
AIGNBL020300AE
 70
64
 10
0
 20
0
 30
0
  3
AIGNBL020300AE
  0
POLYLINE
  8
LAYER_2
 40
0.2469
 41
0.2469
 66
1
 10
0
 20
0
 30
0
  0
VERTEX
  8
LAYER_2
 10
64.1957
 20
205.631
  0
VERTEX
  8
LAYER_2
 10
63.388
 20
206.9195
  0
SEQEND
  0
ENDBLK
  0
BLOCK
  8
LAYER_2
  2
AIGNBL020300AF
 70
64
 10
0
 20
0
 30
0
  3
AIGNBL020300AF
  0
POLYLINE
  8
LAYER_2
 40
0.2469
 41
0.2469
 66
1
 10
0
 20
0
 30
0
  0
VERTEX
  8
LAYER_2
 10
63.388
 20
206.9195
  0
VERTEX
  8
LAYER_2
 10
64.5699
 20
205.9626
  0
SEQEND
  0
ENDBLK
  0
BLOCK
  8
LAYER_2
  2
AIGNBL020300B0
 70
64
 10
0
 20
0
 30
0
  3
AIGNBL020300B0
  0
POLYLINE
  8
LAYER_2
 40
0.2469
 41
0.2469
 66
1
 10
0
 20
0
 30
0
  0
VERTEX
  8
LAYER_2
 10
63.388
 20
206.9195
  0
VERTEX
  8
LAYER_2
 10
64.3828
 20
205.7967
  0
SEQEND
  0
ENDBLK
  0
BLOCK
  8
LAYER_2
  2
AIGNBL020300B2
 70
64
 10
0
 20
0
 30
0
  3
AIGNBL020300B2
  0
POLYLINE
  8
LAYER_2
 40
0.2469
 41
0.2469
 66
1
 10
0
 20
0
 30
0
  0
VERTEX
  8
LAYER_2
 10
104.9471
 20
205.9626
  0
VERTEX
  8
LAYER_2
 10
106.1288
 20
206.9195
  0
SEQEND
  0
ENDBLK
  0
BLOCK
  8
LAYER_2
  2
AIGNBL020300B3
 70
64
 10
0
 20
0
 30
0
  3
AIGNBL020300B3
  0
POLYLINE
  8
LAYER_2
 40
0.2469
 41
0.2469
 66
1
 10
0
 20
0
 30
0
  0
VERTEX
  8
LAYER_2
 10
106.1288
 20
206.9195
  0
VERTEX
  8
LAYER_2
 10
105.3212
 20
205.631
  0
SEQEND
  0
ENDBLK
  0
BLOCK
  8
LAYER_2
  2
AIGNBL020300B4
 70
64
 10
0
 20
0
 30
0
  3
AIGNBL020300B4
  0
POLYLINE
  8
LAYER_2
 40
0.2469
 41
0.2469
 66
1
 10
0
 20
0
 30
0
  0
VERTEX
  8
LAYER_2
 10
106.1288
 20
206.9195
  0
VERTEX
  8
LAYER_2
 10
105.1342
 20
205.7967
  0
SEQEND
  0
ENDBLK
  0
BLOCK
  8
LAYER_2
  2
AIGNBL020300C0
 70
64
 10
0
 20
0
 30
0
  3
AIGNBL020300C0
  0
POLYLINE
  8
LAYER_2
 40
0.2469
 41
0.2469
 66
1
 10
0
 20
0
 30
0
  0
VERTEX
  8
LAYER_2
 10
182.6521
 20
135.8594
  0
VERTEX
  8
LAYER_2
 10
182.9015
 20
137.3594
  0
SEQEND
  0
ENDBLK
  0
BLOCK
  8
LAYER_2
  2
AIGNBL020300C1
 70
64
 10
0
 20
0
 30
0
  3
AIGNBL020300C1
  0
POLYLINE
  8
LAYER_2
 40
0.2469
 41
0.2469
 66
1
 10
0
 20
0
 30
0
  0
VERTEX
  8
LAYER_2
 10
182.9015
 20
137.3594
  0
VERTEX
  8
LAYER_2
 10
183.1516
 20
135.8594
  0
SEQEND
  0
ENDBLK
  0
BLOCK
  8
LAYER_2
  2
AIGNBL020300C2
 70
64
 10
0
 20
0
 30
0
  3
AIGNBL020300C2
  0
POLYLINE
  8
LAYER_2
 40
0.2469
 41
0.2469
 66
1
 10
0
 20
0
 30
0
  0
VERTEX
  8
LAYER_2
 10
182.9015
 20
137.3594
  0
VERTEX
  8
LAYER_2
 10
182.9015
 20
135.8594
  0
SEQEND
  0
ENDBLK
  0
BLOCK
  8
LAYER_2
  2
AIGNBL020300C4
 70
64
 10
0
 20
0
 30
0
  3
AIGNBL020300C4
  0
POLYLINE
  8
LAYER_2
 40
0.2469
 41
0.2469
 66
1
 10
0
 20
0
 30
0
  0
VERTEX
  8
LAYER_2
 10
183.1516
 20
130.4596
  0
VERTEX
  8
LAYER_2
 10
182.9015
 20
128.9596
  0
SEQEND
  0
ENDBLK
  0
BLOCK
  8
LAYER_2
  2
AIGNBL020300C5
 70
64
 10
0
 20
0
 30
0
  3
AIGNBL020300C5
  0
POLYLINE
  8
LAYER_2
 40
0.2469
 41
0.2469
 66
1
 10
0
 20
0
 30
0
  0
VERTEX
  8
LAYER_2
 10
182.9015
 20
128.9596
  0
VERTEX
  8
LAYER_2
 10
182.6521
 20
130.4596
  0
SEQEND
  0
ENDBLK
  0
BLOCK
  8
LAYER_2
  2
AIGNBL020300C6
 70
64
 10
0
 20
0
 30
0
  3
AIGNBL020300C6
  0
POLYLINE
  8
LAYER_2
 40
0.2469
 41
0.2469
 66
1
 10
0
 20
0
 30
0
  0
VERTEX
  8
LAYER_2
 10
182.9015
 20
128.9596
  0
VERTEX
  8
LAYER_2
 10
182.9015
 20
130.4596
  0
SEQEND
  0
ENDBLK
  0
BLOCK
  8
LAYER_2
  2
AIGNBL020300D0
 70
64
 10
0
 20
0
 30
0
  3
AIGNBL020300D0
  0
POLYLINE
  8
LAYER_2
 40
0.2469
 41
0.2469
 66
1
 10
0
 20
0
 30
0
  0
VERTEX
  8
LAYER_2
 10
73.1619
 20
231.8534
  0
VERTEX
  8
LAYER_2
 10
71.6619
 20
232.1033
  0
SEQEND
  0
ENDBLK
  0
BLOCK
  8
LAYER_2
  2
AIGNBL020300D1
 70
64
 10
0
 20
0
 30
0
  3
AIGNBL020300D1
  0
POLYLINE
  8
LAYER_2
 40
0.2469
 41
0.2469
 66
1
 10
0
 20
0
 30
0
  0
VERTEX
  8
LAYER_2
 10
71.6619
 20
232.1033
  0
VERTEX
  8
LAYER_2
 10
73.1619
 20
232.3534
  0
SEQEND
  0
ENDBLK
  0
BLOCK
  8
LAYER_2
  2
AIGNBL020300D2
 70
64
 10
0
 20
0
 30
0
  3
AIGNBL020300D2
  0
POLYLINE
  8
LAYER_2
 40
0.2469
 41
0.2469
 66
1
 10
0
 20
0
 30
0
  0
VERTEX
  8
LAYER_2
 10
71.6619
 20
232.1033
  0
VERTEX
  8
LAYER_2
 10
73.1619
 20
232.1033
  0
SEQEND
  0
ENDBLK
  0
BLOCK
  8
LAYER_2
  2
AIGNBL020300D4
 70
64
 10
0
 20
0
 30
0
  3
AIGNBL020300D4
  0
POLYLINE
  8
LAYER_2
 40
0.2469
 41
0.2469
 66
1
 10
0
 20
0
 30
0
  0
VERTEX
  8
LAYER_2
 10
83.2581
 20
232.3534
  0
VERTEX
  8
LAYER_2
 10
84.7581
 20
232.1033
  0
SEQEND
  0
ENDBLK
  0
BLOCK
  8
LAYER_2
  2
AIGNBL020300D5
 70
64
 10
0
 20
0
 30
0
  3
AIGNBL020300D5
  0
POLYLINE
  8
LAYER_2
 40
0.2469
 41
0.2469
 66
1
 10
0
 20
0
 30
0
  0
VERTEX
  8
LAYER_2
 10
84.7581
 20
232.1033
  0
VERTEX
  8
LAYER_2
 10
83.2581
 20
231.8534
  0
SEQEND
  0
ENDBLK
  0
BLOCK
  8
LAYER_2
  2
AIGNBL020300D6
 70
64
 10
0
 20
0
 30
0
  3
AIGNBL020300D6
  0
POLYLINE
  8
LAYER_2
 40
0.2469
 41
0.2469
 66
1
 10
0
 20
0
 30
0
  0
VERTEX
  8
LAYER_2
 10
84.7581
 20
232.1033
  0
VERTEX
  8
LAYER_2
 10
83.2581
 20
232.1033
  0
SEQEND
  0
ENDBLK
  0
BLOCK
  8
LAYER_2
  2
AIGNBL020300E0
 70
64
 10
0
 20
0
 30
0
  3
AIGNBL020300E0
  0
POLYLINE
  8
LAYER_2
 40
0.2469
 41
0.2469
 66
1
 10
0
 20
0
 30
0
  0
VERTEX
  8
LAYER_2
 10
96.3554
 20
232.3534
  0
VERTEX
  8
LAYER_2
 10
97.8554
 20
232.1033
  0
SEQEND
  0
ENDBLK
  0
BLOCK
  8
LAYER_2
  2
AIGNBL020300E1
 70
64
 10
0
 20
0
 30
0
  3
AIGNBL020300E1
  0
POLYLINE
  8
LAYER_2
 40
0.2469
 41
0.2469
 66
1
 10
0
 20
0
 30
0
  0
VERTEX
  8
LAYER_2
 10
97.8554
 20
232.1033
  0
VERTEX
  8
LAYER_2
 10
96.3554
 20
231.8534
  0
SEQEND
  0
ENDBLK
  0
BLOCK
  8
LAYER_2
  2
AIGNBL020300E2
 70
64
 10
0
 20
0
 30
0
  3
AIGNBL020300E2
  0
POLYLINE
  8
LAYER_2
 40
0.2469
 41
0.2469
 66
1
 10
0
 20
0
 30
0
  0
VERTEX
  8
LAYER_2
 10
97.8554
 20
232.1033
  0
VERTEX
  8
LAYER_2
 10
96.3554
 20
232.1033
  0
SEQEND
  0
ENDBLK
  0
BLOCK
  8
LAYER_2
  2
AIGNBL020300E4
 70
64
 10
0
 20
0
 30
0
  3
AIGNBL020300E4
  0
POLYLINE
  8
LAYER_2
 40
0.2469
 41
0.2469
 66
1
 10
0
 20
0
 30
0
  0
VERTEX
  8
LAYER_2
 10
86.2581
 20
231.8534
  0
VERTEX
  8
LAYER_2
 10
84.7581
 20
232.1033
  0
SEQEND
  0
ENDBLK
  0
BLOCK
  8
LAYER_2
  2
AIGNBL020300E5
 70
64
 10
0
 20
0
 30
0
  3
AIGNBL020300E5
  0
POLYLINE
  8
LAYER_2
 40
0.2469
 41
0.2469
 66
1
 10
0
 20
0
 30
0
  0
VERTEX
  8
LAYER_2
 10
84.7581
 20
232.1033
  0
VERTEX
  8
LAYER_2
 10
86.2581
 20
232.3534
  0
SEQEND
  0
ENDBLK
  0
BLOCK
  8
LAYER_2
  2
AIGNBL020300E6
 70
64
 10
0
 20
0
 30
0
  3
AIGNBL020300E6
  0
POLYLINE
  8
LAYER_2
 40
0.2469
 41
0.2469
 66
1
 10
0
 20
0
 30
0
  0
VERTEX
  8
LAYER_2
 10
84.7581
 20
232.1033
  0
VERTEX
  8
LAYER_2
 10
86.2581
 20
232.1033
  0
SEQEND
  0
ENDBLK
  0
BLOCK
  8
LAYER_7
  2
AIGNBL07030005
 70
64
 10
0
 20
0
 30
0
  3
AIGNBL07030005
  0
INSERT
  8
LAYER_7
  2
AIGNBL07040006
 10
0
 20
0
 30
0
  0
INSERT
  8
LAYER_7
  2
AIGNBL07040007
 10
0
 20
0
 30
0
  0
INSERT
  8
LAYER_7
  2
AIGNBL07040008
 10
0
 20
0
 30
0
  0
INSERT
  8
LAYER_7
  2
AIGNBL07040009
 10
0
 20
0
 30
0
  0
INSERT
  8
LAYER_7
  2
AIGNBL0704000A
 10
0
 20
0
 30
0
  0
INSERT
  8
LAYER_7
  2
AIGNBL0704000B
 10
0
 20
0
 30
0
  0
INSERT
  8
LAYER_7
  2
AIGNBL0704000C
 10
0
 20
0
 30
0
  0
ENDBLK
  0
BLOCK
  8
LAYER_7
  2
AIGNBL0703000E
 70
64
 10
0
 20
0
 30
0
  3
AIGNBL0703000E
  0
POLYLINE
  8
LAYER_7
 40
0.05
 41
0.05
 66
1
 10
0
 20
0
 30
0
 70
1
  0
VERTEX
  8
LAYER_7
 10
128.7222
 20
-4.5162
  0
VERTEX
  8
LAYER_7
 10
129.1914
 20
-4.5162
  0
VERTEX
  8
LAYER_7
 10
129.1914
 20
-4.5958
  0
VERTEX
  8
LAYER_7
 10
128.6333
 20
-4.5958
  0
VERTEX
  8
LAYER_7
 10
128.6333
 20
-3.72
  0
VERTEX
  8
LAYER_7
 10
129.1763
 20
-3.72
  0
VERTEX
  8
LAYER_7
 10
129.1763
 20
-3.7989
  0
VERTEX
  8
LAYER_7
 10
128.7222
 20
-3.7989
  0
VERTEX
  8
LAYER_7
 10
128.7222
 20
-4.0993
  0
VERTEX
  8
LAYER_7
 10
129.1466
 20
-4.0993
  0
VERTEX
  8
LAYER_7
 10
129.1466
 20
-4.1786
  0
VERTEX
  8
LAYER_7
 10
128.7222
 20
-4.1786
  0
SEQEND
  0
ENDBLK
  0
BLOCK
  8
LAYER_7
  2
AIGNBL0703000F
 70
64
 10
0
 20
0
 30
0
  3
AIGNBL0703000F
  0
POLYLINE
  8
LAYER_7
 40
0.05
 41
0.05
 66
1
 10
0
 20
0
 30
0
 70
1
  0
VERTEX
  8
LAYER_7
 10
130.1574
 20
-4.4655
  0
VERTEX
  8
LAYER_7
 10
130.1595
 20
-4.4655
  0
VERTEX
  8
LAYER_7
 10
130.1595
 20
-3.72
  0
VERTEX
  8
LAYER_7
 10
130.2487
 20
-3.72
  0
VERTEX
  8
LAYER_7
 10
130.2487
 20
-4.5958
  0
VERTEX
  8
LAYER_7
 10
130.1378
 20
-4.5958
  0
VERTEX
  8
LAYER_7
 10
129.6283
 20
-3.8423
  0
VERTEX
  8
LAYER_7
 10
129.6252
 20
-3.8423
  0
VERTEX
  8
LAYER_7
 10
129.6252
 20
-4.5958
  0
VERTEX
  8
LAYER_7
 10
129.5366
 20
-4.5958
  0
VERTEX
  8
LAYER_7
 10
129.5366
 20
-3.72
  0
VERTEX
  8
LAYER_7
 10
129.6476
 20
-3.72
  0
SEQEND
  0
ENDBLK
  0
BLOCK
  8
LAYER_7
  2
AIGNBL07030010
 70
64
 10
0
 20
0
 30
0
  3
AIGNBL07030010
  0
POLYLINE
  8
LAYER_7
 40
0.05
 41
0.05
 66
1
 10
0
 20
0
 30
0
 70
1
  0
VERTEX
  8
LAYER_7
 10
130.6497
 20
-4.4159
 42
0.1576719028
  0
VERTEX
  8
LAYER_7
 10
130.6959
 20
-4.5034
 42
0.1888509688
  0
VERTEX
  8
LAYER_7
 10
130.7917
 20
-4.5386
  0
VERTEX
  8
LAYER_7
 10
130.8675
 20
-4.522
  0
VERTEX
  8
LAYER_7
 10
130.915
 20
-4.4769
  0
VERTEX
  8
LAYER_7
 10
130.9395
 20
-4.4118
  0
VERTEX
  8
LAYER_7
 10
130.9467
 20
-4.336
  0
VERTEX
  8
LAYER_7
 10
130.9467
 20
-3.72
  0
VERTEX
  8
LAYER_7
 10
131.0356
 20
-3.72
  0
VERTEX
  8
LAYER_7
 10
131.0356
 20
-4.3432
  0
VERTEX
  8
LAYER_7
 10
131.0259
 20
-4.4345
  0
VERTEX
  8
LAYER_7
 10
130.9908
 20
-4.5238
 42
-0.1134018777
  0
VERTEX
  8
LAYER_7
 10
130.9191
 20
-4.5913
 42
-0.1226010698
  0
VERTEX
  8
LAYER_7
 10
130.8013
 20
-4.6178
 42
-0.1818698991
  0
VERTEX
  8
LAYER_7
 10
130.6449
 20
-4.5668
 42
-0.1775350534
  0
VERTEX
  8
LAYER_7
 10
130.5667
 20
-4.4387
  0
SEQEND
  0
ENDBLK
  0
BLOCK
  8
LAYER_7
  2
AIGNBL07030011
 70
64
 10
0
 20
0
 30
0
  3
AIGNBL07030011
  0
POLYLINE
  8
LAYER_7
 40
0.05
 41
0.05
 66
1
 10
0
 20
0
 30
0
 70
1
  0
VERTEX
  8
LAYER_7
 10
132.2972
 20
-4.1575
 42
-0.1021274882
  0
VERTEX
  8
LAYER_7
 10
132.2624
 20
-4.3419
 42
-0.09952766962
  0
VERTEX
  8
LAYER_7
 10
132.167
 20
-4.4872
 42
-0.09570319659
  0
VERTEX
  8
LAYER_7
 10
132.0219
 20
-4.583
 42
-0.09730113973
  0
VERTEX
  8
LAYER_7
 10
131.8407
 20
-4.6178
 42
-0.1005044879
  0
VERTEX
  8
LAYER_7
 10
131.6595
 20
-4.583
 42
-0.1000956886
  0
VERTEX
  8
LAYER_7
 10
131.5148
 20
-4.4872
 42
-0.09687374103
  0
VERTEX
  8
LAYER_7
 10
131.4187
 20
-4.3419
 42
-0.09598276585
  0
VERTEX
  8
LAYER_7
 10
131.3842
 20
-4.1575
 42
-0.1007319707
  0
VERTEX
  8
LAYER_7
 10
131.4187
 20
-3.9732
 42
-0.09980706139
  0
VERTEX
  8
LAYER_7
 10
131.5148
 20
-3.8278
 42
-0.09759632467
  0
VERTEX
  8
LAYER_7
 10
131.6595
 20
-3.7321
 42
-0.09730113973
  0
VERTEX
  8
LAYER_7
 10
131.8407
 20
-3.6973
 42
-0.1005044879
  0
VERTEX
  8
LAYER_7
 10
132.0219
 20
-3.7321
 42
-0.09857025753
  0
VERTEX
  8
LAYER_7
 10
132.167
 20
-3.8278
 42
-0.09607437688
  0
VERTEX
  8
LAYER_7
 10
132.2624
 20
-3.9732
 42
-0.09699716326
  0
SEQEND
  0
POLYLINE
  8
LAYER_7
 40
0.05
 41
0.05
 66
1
 10
0
 20
0
 30
0
 70
1
  0
VERTEX
  8
LAYER_7
 10
132.2031
 20
-4.1582
 42
0.0856281229
  0
VERTEX
  8
LAYER_7
 10
132.1787
 20
-4.0125
 42
0.09671154951
  0
VERTEX
  8
LAYER_7
 10
132.1067
 20
-3.8909
 42
0.1026314629
  0
VERTEX
  8
LAYER_7
 10
131.9923
 20
-3.8079
 42
0.1067618795
  0
VERTEX
  8
LAYER_7
 10
131.8407
 20
-3.7765
 42
0.1143436986
  0
VERTEX
  8
LAYER_7
 10
131.6891
 20
-3.8079
 42
0.1065055988
  0
VERTEX
  8
LAYER_7
 10
131.5751
 20
-3.8909
 42
0.09706696705
  0
VERTEX
  8
LAYER_7
 10
131.5031
 20
-4.0125
 42
0.08453032616
  0
VERTEX
  8
LAYER_7
 10
131.4783
 20
-4.1582
 42
0.08539697836
  0
VERTEX
  8
LAYER_7
 10
131.5031
 20
-4.304
 42
0.1012181166
  0
VERTEX
  8
LAYER_7
 10
131.5751
 20
-4.4252
 42
0.09889595573
  0
VERTEX
  8
LAYER_7
 10
131.6891
 20
-4.5076
 42
0.105851816
  0
VERTEX
  8
LAYER_7
 10
131.8407
 20
-4.5386
 42
0.1147284683
  0
VERTEX
  8
LAYER_7
 10
131.9923
 20
-4.5076
 42
0.1060927675
  0
VERTEX
  8
LAYER_7
 10
132.1067
 20
-4.4252
 42
0.09368815098
  0
VERTEX
  8
LAYER_7
 10
132.1787
 20
-4.304
 42
0.0834821187
  0
SEQEND
  0
ENDBLK
  0
BLOCK
  8
LAYER_7
  2
AIGNBL07030012
 70
64
 10
0
 20
0
 30
0
  3
AIGNBL07030012
  0
POLYLINE
  8
LAYER_7
 40
0.05
 41
0.05
 66
1
 10
0
 20
0
 30
0
 70
1
  0
VERTEX
  8
LAYER_7
 10
132.9538
 20
-4.5958
  0
VERTEX
  8
LAYER_7
 10
132.8649
 20
-4.5958
  0
VERTEX
  8
LAYER_7
 10
132.8649
 20
-4.2182
  0
VERTEX
  8
LAYER_7
 10
132.5373
 20
-3.72
  0
VERTEX
  8
LAYER_7
 10
132.6486
 20
-3.72
  0
VERTEX
  8
LAYER_7
 10
132.9121
 20
-4.1438
  0
VERTEX
  8
LAYER_7
 10
133.1777
 20
-3.72
  0
VERTEX
  8
LAYER_7
 10
133.2814
 20
-3.72
  0
VERTEX
  8
LAYER_7
 10
132.9538
 20
-4.2182
  0
SEQEND
  0
ENDBLK
  0
BLOCK
  8
LAYER_7
  2
AIGNBL07030013
 70
64
 10
0
 20
0
 30
0
  3
AIGNBL07030013
  0
POLYLINE
  8
LAYER_7
 40
0.05
 41
0.05
 66
1
 10
0
 20
0
 30
0
 70
1
  0
VERTEX
  8
LAYER_7
 10
134.0487
 20
-3.72
  0
VERTEX
  8
LAYER_7
 10
134.3095
 20
-3.72
  0
VERTEX
  8
LAYER_7
 10
134.4097
 20
-3.7303
  0
VERTEX
  8
LAYER_7
 10
134.5003
 20
-3.7662
 42
-0.1147500987
  0
VERTEX
  8
LAYER_7
 10
134.5665
 20
-3.8351
 42
-0.1209575962
  0
VERTEX
  8
LAYER_7
 10
134.5916
 20
-3.9436
 42
-0.179677182
  0
VERTEX
  8
LAYER_7
 10
134.5492
 20
-4.0642
 42
-0.1667916725
  0
VERTEX
  8
LAYER_7
 10
134.4362
 20
-4.1317
  0
VERTEX
  8
LAYER_7
 10
134.4362
 20
-4.1338
 42
-0.1720976719
  0
VERTEX
  8
LAYER_7
 10
134.5775
 20
-4.2003
 42
-0.1997018961
  0
VERTEX
  8
LAYER_7
 10
134.6336
 20
-4.3532
 42
-0.1266512869
  0
VERTEX
  8
LAYER_7
 10
134.6106
 20
-4.4524
 42
-0.1160438033
  0
VERTEX
  8
LAYER_7
 10
134.5458
 20
-4.5293
 42
-0.08593783818
  0
VERTEX
  8
LAYER_7
 10
134.4435
 20
-4.5782
 42
-0.06488316042
  0
VERTEX
  8
LAYER_7
 10
134.3081
 20
-4.5958
  0
VERTEX
  8
LAYER_7
 10
134.0487
 20
-4.5958
  0
SEQEND
  0
POLYLINE
  8
LAYER_7
 40
0.05
 41
0.05
 66
1
 10
0
 20
0
 30
0
 70
1
  0
VERTEX
  8
LAYER_7
 10
134.1375
 20
-4.1031
  0
VERTEX
  8
LAYER_7
 10
134.317
 20
-4.1031
  0
VERTEX
  8
LAYER_7
 10
134.3822
 20
-4.0955
  0
VERTEX
  8
LAYER_7
 10
134.4418
 20
-4.0707
  0
VERTEX
  8
LAYER_7
 10
134.4858
 20
-4.0228
 42
0.1131003852
  0
VERTEX
  8
LAYER_7
 10
134.5024
 20
-3.9498
  0
VERTEX
  8
LAYER_7
 10
134.4858
 20
-3.8788
  0
VERTEX
  8
LAYER_7
 10
134.4407
 20
-3.8309
  0
VERTEX
  8
LAYER_7
 10
134.3739
 20
-3.8044
  0
VERTEX
  8
LAYER_7
 10
134.2922
 20
-3.7965
  0
VERTEX
  8
LAYER_7
 10
134.1375
 20
-3.7965
  0
SEQEND
  0
POLYLINE
  8
LAYER_7
 40
0.05
 41
0.05
 66
1
 10
0
 20
0
 30
0
 70
1
  0
VERTEX
  8
LAYER_7
 10
134.1375
 20
-4.5189
  0
VERTEX
  8
LAYER_7
 10
134.3036
 20
-4.5189
  0
VERTEX
  8
LAYER_7
 10
134.3956
 20
-4.5093
  0
VERTEX
  8
LAYER_7
 10
134.4724
 20
-4.48
  0
VERTEX
  8
LAYER_7
 10
134.5244
 20
-4.4266
 42
0.1281406861
  0
VERTEX
  8
LAYER_7
 10
134.5444
 20
-4.3481
 42
0.2512555223
  0
VERTEX
  8
LAYER_7
 10
134.4858
 20
-4.2189
 42
0.1507360226
  0
VERTEX
  8
LAYER_7
 10
134.3194
 20
-4.1761
  0
VERTEX
  8
LAYER_7
 10
134.1375
 20
-4.1761
  0
SEQEND
  0
ENDBLK
  0
BLOCK
  8
LAYER_7
  2
AIGNBL07030014
 70
64
 10
0
 20
0
 30
0
  3
AIGNBL07030014
  0
POLYLINE
  8
LAYER_7
 40
0.05
 41
0.05
 66
1
 10
0
 20
0
 30
0
 70
1
  0
VERTEX
  8
LAYER_7
 10
134.9999
 20
-4.5958
  0
VERTEX
  8
LAYER_7
 10
134.902
 20
-4.5958
  0
VERTEX
  8
LAYER_7
 10
135.2806
 20
-3.72
  0
VERTEX
  8
LAYER_7
 10
135.3674
 20
-3.72
  0
VERTEX
  8
LAYER_7
 10
135.7433
 20
-4.5958
  0
VERTEX
  8
LAYER_7
 10
135.6441
 20
-4.5958
  0
VERTEX
  8
LAYER_7
 10
135.5476
 20
-4.3656
  0
VERTEX
  8
LAYER_7
 10
135.0949
 20
-4.3656
  0
SEQEND
  0
POLYLINE
  8
LAYER_7
 40
0.05
 41
0.05
 66
1
 10
0
 20
0
 30
0
 70
1
  0
VERTEX
  8
LAYER_7
 10
135.128
 20
-4.2836
  0
VERTEX
  8
LAYER_7
 10
135.5142
 20
-4.2836
  0
VERTEX
  8
LAYER_7
 10
135.3213
 20
-3.8185
  0
SEQEND
  0
ENDBLK
  0
BLOCK
  8
LAYER_7
  2
AIGNBL07030015
 70
64
 10
0
 20
0
 30
0
  3
AIGNBL07030015
  0
POLYLINE
  8
LAYER_7
 40
0.05
 41
0.05
 66
1
 10
0
 20
0
 30
0
 70
1
  0
VERTEX
  8
LAYER_7
 10
136.3235
 20
-4.5958
  0
VERTEX
  8
LAYER_7
 10
136.2342
 20
-4.5958
  0
VERTEX
  8
LAYER_7
 10
136.2342
 20
-3.7989
  0
VERTEX
  8
LAYER_7
 10
135.9407
 20
-3.7989
  0
VERTEX
  8
LAYER_7
 10
135.9407
 20
-3.72
  0
VERTEX
  8
LAYER_7
 10
136.6163
 20
-3.72
  0
VERTEX
  8
LAYER_7
 10
136.6163
 20
-3.7989
  0
VERTEX
  8
LAYER_7
 10
136.3235
 20
-3.7989
  0
SEQEND
  0
ENDBLK
  0
BLOCK
  8
LAYER_7
  2
AIGNBL07030016
 70
64
 10
0
 20
0
 30
0
  3
AIGNBL07030016
  0
POLYLINE
  8
LAYER_7
 40
0.05
 41
0.05
 66
1
 10
0
 20
0
 30
0
 70
1
  0
VERTEX
  8
LAYER_7
 10
136.9181
 20
-3.72
  0
VERTEX
  8
LAYER_7
 10
137.007
 20
-3.72
  0
VERTEX
  8
LAYER_7
 10
137.007
 20
-4.0993
  0
VERTEX
  8
LAYER_7
 10
137.4848
 20
-4.0993
  0
VERTEX
  8
LAYER_7
 10
137.4848
 20
-3.72
  0
VERTEX
  8
LAYER_7
 10
137.5737
 20
-3.72
  0
VERTEX
  8
LAYER_7
 10
137.5737
 20
-4.5958
  0
VERTEX
  8
LAYER_7
 10
137.4848
 20
-4.5958
  0
VERTEX
  8
LAYER_7
 10
137.4848
 20
-4.181
  0
VERTEX
  8
LAYER_7
 10
137.007
 20
-4.181
  0
VERTEX
  8
LAYER_7
 10
137.007
 20
-4.5958
  0
VERTEX
  8
LAYER_7
 10
136.9181
 20
-4.5958
  0
SEQEND
  0
ENDBLK
  0
BLOCK
  8
LAYER_7
  2
AIGNBL07030017
 70
64
 10
0
 20
0
 30
0
  3
AIGNBL07030017
  0
POLYLINE
  8
LAYER_7
 40
0.05
 41
0.05
 66
1
 10
0
 20
0
 30
0
 70
1
  0
VERTEX
  8
LAYER_7
 10
138.0656
 20
-4.5958
  0
VERTEX
  8
LAYER_7
 10
137.9768
 20
-4.5958
  0
VERTEX
  8
LAYER_7
 10
137.9768
 20
-3.72
  0
VERTEX
  8
LAYER_7
 10
138.2341
 20
-3.72
  0
VERTEX
  8
LAYER_7
 10
138.3533
 20
-3.7321
  0
VERTEX
  8
LAYER_7
 10
138.4487
 20
-3.7724
 42
-0.1287326038
  0
VERTEX
  8
LAYER_7
 10
138.5111
 20
-3.8447
 42
-0.1051781119
  0
VERTEX
  8
LAYER_7
 10
138.5331
 20
-3.9536
  0
VERTEX
  8
LAYER_7
 10
138.5163
 20
-4.0414
  0
VERTEX
  8
LAYER_7
 10
138.4694
 20
-4.11
  0
VERTEX
  8
LAYER_7
 10
138.3988
 20
-4.1565
  0
VERTEX
  8
LAYER_7
 10
138.3096
 20
-4.1786
  0
VERTEX
  8
LAYER_7
 10
138.5655
 20
-4.5958
  0
VERTEX
  8
LAYER_7
 10
138.4567
 20
-4.5958
  0
VERTEX
  8
LAYER_7
 10
138.2145
 20
-4.1861
  0
VERTEX
  8
LAYER_7
 10
138.0656
 20
-4.1861
  0
SEQEND
  0
POLYLINE
  8
LAYER_7
 40
0.05
 41
0.05
 66
1
 10
0
 20
0
 30
0
 70
1
  0
VERTEX
  8
LAYER_7
 10
138.0656
 20
-4.1093
  0
VERTEX
  8
LAYER_7
 10
138.2207
 20
-4.1093
 42
0.1560036385
  0
VERTEX
  8
LAYER_7
 10
138.3864
 20
-4.0707
 42
0.256718439
  0
VERTEX
  8
LAYER_7
 10
138.4446
 20
-3.9536
  0
VERTEX
  8
LAYER_7
 10
138.4281
 20
-3.8809
  0
VERTEX
  8
LAYER_7
 10
138.3836
 20
-3.8323
  0
VERTEX
  8
LAYER_7
 10
138.3147
 20
-3.8051
  0
VERTEX
  8
LAYER_7
 10
138.2245
 20
-3.7965
  0
VERTEX
  8
LAYER_7
 10
138.0656
 20
-3.7965
  0
SEQEND
  0
ENDBLK
  0
BLOCK
  8
LAYER_7
  2
AIGNBL07030018
 70
64
 10
0
 20
0
 30
0
  3
AIGNBL07030018
  0
POLYLINE
  8
LAYER_7
 40
0.05
 41
0.05
 66
1
 10
0
 20
0
 30
0
 70
1
  0
VERTEX
  8
LAYER_7
 10
139.7541
 20
-4.1575
 42
-0.09900850835
  0
VERTEX
  8
LAYER_7
 10
139.7196
 20
-4.3419
 42
-0.1000740523
  0
VERTEX
  8
LAYER_7
 10
139.6235
 20
-4.4872
 42
-0.09817592867
  0
VERTEX
  8
LAYER_7
 10
139.4792
 20
-4.583
 42
-0.09703887645
  0
VERTEX
  8
LAYER_7
 10
139.2976
 20
-4.6178
 42
-0.1005044879
  0
VERTEX
  8
LAYER_7
 10
139.1164
 20
-4.583
 42
-0.1014225475
  0
VERTEX
  8
LAYER_7
 10
138.9721
 20
-4.4872
 42
-0.1004968111
  0
VERTEX
  8
LAYER_7
 10
138.8763
 20
-4.3419
 42
-0.09598276585
  0
VERTEX
  8
LAYER_7
 10
138.8418
 20
-4.1575
 42
-0.1007319707
  0
VERTEX
  8
LAYER_7
 10
138.8763
 20
-3.9732
 42
-0.1012197328
  0
VERTEX
  8
LAYER_7
 10
138.9721
 20
-3.8278
 42
-0.09799567145
  0
VERTEX
  8
LAYER_7
 10
139.1164
 20
-3.7321
 42
-0.09730113973
  0
VERTEX
  8
LAYER_7
 10
139.2976
 20
-3.6973
 42
-0.1004491736
  0
VERTEX
  8
LAYER_7
 10
139.4792
 20
-3.7321
 42
-0.1027665873
  0
VERTEX
  8
LAYER_7
 10
139.6235
 20
-3.8278
 42
-0.09593168267
  0
VERTEX
  8
LAYER_7
 10
139.7196
 20
-3.9732
 42
-0.09519358797
  0
SEQEND
  0
POLYLINE
  8
LAYER_7
 40
0.05
 41
0.05
 66
1
 10
0
 20
0
 30
0
 70
1
  0
VERTEX
  8
LAYER_7
 10
139.66
 20
-4.1582
 42
0.09064614394
  0
VERTEX
  8
LAYER_7
 10
139.6352
 20
-4.0125
 42
0.09846723294
  0
VERTEX
  8
LAYER_7
 10
139.5636
 20
-3.8909
 42
0.1021717911
  0
VERTEX
  8
LAYER_7
 10
139.4492
 20
-3.8079
 42
0.1068382496
  0
VERTEX
  8
LAYER_7
 10
139.2976
 20
-3.7765
 42
0.1151780108
  0
VERTEX
  8
LAYER_7
 10
139.1464
 20
-3.8079
 42
0.1058591997
  0
VERTEX
  8
LAYER_7
 10
139.0317
 20
-3.8909
 42
0.09552005071
  0
VERTEX
  8
LAYER_7
 10
138.96
 20
-4.0125
 42
0.08419268652
  0
VERTEX
  8
LAYER_7
 10
138.9355
 20
-4.1582
 42
0.08886818036
  0
VERTEX
  8
LAYER_7
 10
138.96
 20
-4.304
 42
0.09765150327
  0
VERTEX
  8
LAYER_7
 10
139.0317
 20
-4.4252
 42
0.09894762084
  0
VERTEX
  8
LAYER_7
 10
139.1464
 20
-4.5076
 42
0.1060048418
  0
VERTEX
  8
LAYER_7
 10
139.2976
 20
-4.5386
 42
0.1155402185
  0
VERTEX
  8
LAYER_7
 10
139.4492
 20
-4.5076
 42
0.1034816397
  0
VERTEX
  8
LAYER_7
 10
139.5636
 20
-4.4252
 42
0.09853996684
  0
VERTEX
  8
LAYER_7
 10
139.6352
 20
-4.304
 42
0.08559935114
  0
SEQEND
  0
ENDBLK
  0
BLOCK
  8
LAYER_7
  2
AIGNBL07030019
 70
64
 10
0
 20
0
 30
0
  3
AIGNBL07030019
  0
POLYLINE
  8
LAYER_7
 40
0.05
 41
0.05
 66
1
 10
0
 20
0
 30
0
 70
1
  0
VERTEX
  8
LAYER_7
 10
140.9764
 20
-4.1575
 42
-0.1003658645
  0
VERTEX
  8
LAYER_7
 10
140.9416
 20
-4.3419
 42
-0.09796464032
  0
VERTEX
  8
LAYER_7
 10
140.8462
 20
-4.4872
 42
-0.09626167578
  0
VERTEX
  8
LAYER_7
 10
140.7011
 20
-4.583
 42
-0.09730113973
  0
VERTEX
  8
LAYER_7
 10
140.5199
 20
-4.6178
 42
-0.1010483144
  0
VERTEX
  8
LAYER_7
 10
140.3387
 20
-4.583
 42
-0.1015483086
  0
VERTEX
  8
LAYER_7
 10
140.194
 20
-4.4872
 42
-0.09687374103
  0
VERTEX
  8
LAYER_7
 10
140.0979
 20
-4.3419
 42
-0.09586276905
  0
VERTEX
  8
LAYER_7
 10
140.0635
 20
-4.1575
 42
-0.1009359332
  0
VERTEX
  8
LAYER_7
 10
140.0979
 20
-3.9732
 42
-0.09980706139
  0
VERTEX
  8
LAYER_7
 10
140.194
 20
-3.8278
 42
-0.09831412768
  0
VERTEX
  8
LAYER_7
 10
140.3387
 20
-3.7321
 42
-0.09743363976
  0
VERTEX
  8
LAYER_7
 10
140.5199
 20
-3.6973
 42
-0.1005044879
  0
VERTEX
  8
LAYER_7
 10
140.7011
 20
-3.7321
 42
-0.09857025753
  0
VERTEX
  8
LAYER_7
 10
140.8462
 20
-3.8278
 42
-0.09549044941
  0
VERTEX
  8
LAYER_7
 10
140.9416
 20
-3.9732
 42
-0.09626911005
  0
SEQEND
  0
POLYLINE
  8
LAYER_7
 40
0.05
 41
0.05
 66
1
 10
0
 20
0
 30
0
 70
1
  0
VERTEX
  8
LAYER_7
 10
140.8824
 20
-4.1582
 42
0.08716589771
  0
VERTEX
  8
LAYER_7
 10
140.8576
 20
-4.0125
 42
0.0974662867
  0
VERTEX
  8
LAYER_7
 10
140.7859
 20
-3.8909
 42
0.1021717911
  0
VERTEX
  8
LAYER_7
 10
140.6715
 20
-3.8079
 42
0.1064686014
  0
VERTEX
  8
LAYER_7
 10
140.5199
 20
-3.7765
 42
0.1153411493
  0
VERTEX
  8
LAYER_7
 10
140.3683
 20
-3.8079
 42
0.105328119
  0
VERTEX
  8
LAYER_7
 10
140.254
 20
-3.8909
 42
0.09840570806
  0
VERTEX
  8
LAYER_7
 10
140.1823
 20
-4.0125
 42
0.0849084194
  0
VERTEX
  8
LAYER_7
 10
140.1575
 20
-4.1582
 42
0.08802482071
  0
VERTEX
  8
LAYER_7
 10
140.1823
 20
-4.304
 42
0.1001537592
  0
VERTEX
  8
LAYER_7
 10
140.254
 20
-4.4252
 42
0.09914809706
  0
VERTEX
  8
LAYER_7
 10
140.3683
 20
-4.5076
 42
0.1058799299
  0
VERTEX
  8
LAYER_7
 10
140.5199
 20
-4.5386
 42
0.1144668818
  0
VERTEX
  8
LAYER_7
 10
140.6715
 20
-4.5076
 42
0.1034816397
  0
VERTEX
  8
LAYER_7
 10
140.7859
 20
-4.4252
 42
0.0931574303
  0
VERTEX
  8
LAYER_7
 10
140.8576
 20
-4.304
 42
0.08489455374
  0
SEQEND
  0
ENDBLK
  0
BLOCK
  8
LAYER_7
  2
AIGNBL0703001A
 70
64
 10
0
 20
0
 30
0
  3
AIGNBL0703001A
  0
POLYLINE
  8
LAYER_7
 40
0.05
 41
0.05
 66
1
 10
0
 20
0
 30
0
 70
1
  0
VERTEX
  8
LAYER_7
 10
141.7653
 20
-4.4445
  0
VERTEX
  8
LAYER_7
 10
141.7667
 20
-4.4445
  0
VERTEX
  8
LAYER_7
 10
142.0595
 20
-3.72
  0
VERTEX
  8
LAYER_7
 10
142.196
 20
-3.72
  0
VERTEX
  8
LAYER_7
 10
142.196
 20
-4.5958
  0
VERTEX
  8
LAYER_7
 10
142.1067
 20
-4.5958
  0
VERTEX
  8
LAYER_7
 10
142.1067
 20
-3.8351
  0
VERTEX
  8
LAYER_7
 10
142.1043
 20
-3.8351
  0
VERTEX
  8
LAYER_7
 10
141.7877
 20
-4.5958
  0
VERTEX
  8
LAYER_7
 10
141.7409
 20
-4.5958
  0
VERTEX
  8
LAYER_7
 10
141.4239
 20
-3.8351
  0
VERTEX
  8
LAYER_7
 10
141.4215
 20
-3.8351
  0
VERTEX
  8
LAYER_7
 10
141.4215
 20
-4.5958
  0
VERTEX
  8
LAYER_7
 10
141.3326
 20
-4.5958
  0
VERTEX
  8
LAYER_7
 10
141.3326
 20
-3.72
  0
VERTEX
  8
LAYER_7
 10
141.4687
 20
-3.72
  0
SEQEND
  0
ENDBLK
  0
BLOCK
  8
LAYER_7
  2
AIGNBL0703001B
 70
64
 10
0
 20
0
 30
0
  3
AIGNBL0703001B
  0
POLYLINE
  8
LAYER_7
 40
0.05
 41
0.05
 66
1
 10
0
 20
0
 30
0
 70
1
  0
VERTEX
  8
LAYER_7
 10
143.1678
 20
-4.5162
  0
VERTEX
  8
LAYER_7
 10
143.6367
 20
-4.5162
  0
VERTEX
  8
LAYER_7
 10
143.6367
 20
-4.5958
  0
VERTEX
  8
LAYER_7
 10
143.0786
 20
-4.5958
  0
VERTEX
  8
LAYER_7
 10
143.0786
 20
-3.72
  0
VERTEX
  8
LAYER_7
 10
143.6219
 20
-3.72
  0
VERTEX
  8
LAYER_7
 10
143.6219
 20
-3.7989
  0
VERTEX
  8
LAYER_7
 10
143.1678
 20
-3.7989
  0
VERTEX
  8
LAYER_7
 10
143.1678
 20
-4.0993
  0
VERTEX
  8
LAYER_7
 10
143.5919
 20
-4.0993
  0
VERTEX
  8
LAYER_7
 10
143.5919
 20
-4.1786
  0
VERTEX
  8
LAYER_7
 10
143.1678
 20
-4.1786
  0
SEQEND
  0
ENDBLK
  0
BLOCK
  8
LAYER_7
  2
AIGNBL0703001C
 70
64
 10
0
 20
0
 30
0
  3
AIGNBL0703001C
  0
POLYLINE
  8
LAYER_7
 40
0.05
 41
0.05
 66
1
 10
0
 20
0
 30
0
 70
1
  0
VERTEX
  8
LAYER_7
 10
144.2685
 20
-4.0735
  0
VERTEX
  8
LAYER_7
 10
144.5076
 20
-3.72
  0
VERTEX
  8
LAYER_7
 10
144.6134
 20
-3.72
  0
VERTEX
  8
LAYER_7
 10
144.3233
 20
-4.1365
  0
VERTEX
  8
LAYER_7
 10
144.6447
 20
-4.5958
  0
VERTEX
  8
LAYER_7
 10
144.5335
 20
-4.5958
  0
VERTEX
  8
LAYER_7
 10
144.2661
 20
-4.2009
  0
VERTEX
  8
LAYER_7
 10
144.0002
 20
-4.5958
  0
VERTEX
  8
LAYER_7
 10
143.8889
 20
-4.5958
  0
VERTEX
  8
LAYER_7
 10
144.2107
 20
-4.1355
  0
VERTEX
  8
LAYER_7
 10
143.9175
 20
-3.72
  0
VERTEX
  8
LAYER_7
 10
144.0288
 20
-3.72
  0
SEQEND
  0
ENDBLK
  0
BLOCK
  8
LAYER_7
  2
AIGNBL0703001D
 70
64
 10
0
 20
0
 30
0
  3
AIGNBL0703001D
  0
POLYLINE
  8
LAYER_7
 40
0.05
 41
0.05
 66
1
 10
0
 20
0
 30
0
 70
1
  0
VERTEX
  8
LAYER_7
 10
144.9551
 20
-3.72
  0
VERTEX
  8
LAYER_7
 10
145.2029
 20
-3.72
  0
VERTEX
  8
LAYER_7
 10
145.3241
 20
-3.7338
  0
VERTEX
  8
LAYER_7
 10
145.4171
 20
-3.7775
 42
-0.1196760771
  0
VERTEX
  8
LAYER_7
 10
145.4774
 20
-3.8502
 42
-0.1008071579
  0
VERTEX
  8
LAYER_7
 10
145.4981
 20
-3.9536
 42
-0.1234224821
  0
VERTEX
  8
LAYER_7
 10
145.4767
 20
-4.0569
 42
-0.1135718983
  0
VERTEX
  8
LAYER_7
 10
145.4161
 20
-4.13
 42
-0.08414869483
  0
VERTEX
  8
LAYER_7
 10
145.3221
 20
-4.1737
  0
VERTEX
  8
LAYER_7
 10
145.2001
 20
-4.1885
  0
VERTEX
  8
LAYER_7
 10
145.0444
 20
-4.1885
  0
VERTEX
  8
LAYER_7
 10
145.0444
 20
-4.5958
  0
VERTEX
  8
LAYER_7
 10
144.9551
 20
-4.5958
  0
SEQEND
  0
POLYLINE
  8
LAYER_7
 40
0.05
 41
0.05
 66
1
 10
0
 20
0
 30
0
 70
1
  0
VERTEX
  8
LAYER_7
 10
145.0444
 20
-4.1131
  0
VERTEX
  8
LAYER_7
 10
145.1949
 20
-4.1131
 42
0.1719973382
  0
VERTEX
  8
LAYER_7
 10
145.3548
 20
-4.0724
 42
0.2424570955
  0
VERTEX
  8
LAYER_7
 10
145.4092
 20
-3.9536
 42
0.2603006677
  0
VERTEX
  8
LAYER_7
 10
145.3531
 20
-3.834
 42
0.1395217604
  0
VERTEX
  8
LAYER_7
 10
145.1949
 20
-3.7965
  0
VERTEX
  8
LAYER_7
 10
145.0444
 20
-3.7965
  0
SEQEND
  0
ENDBLK
  0
BLOCK
  8
LAYER_7
  2
AIGNBL0703001E
 70
64
 10
0
 20
0
 30
0
  3
AIGNBL0703001E
  0
POLYLINE
  8
LAYER_7
 40
0.05
 41
0.05
 66
1
 10
0
 20
0
 30
0
 70
1
  0
VERTEX
  8
LAYER_7
 10
145.9322
 20
-4.5162
  0
VERTEX
  8
LAYER_7
 10
146.4011
 20
-4.5162
  0
VERTEX
  8
LAYER_7
 10
146.4011
 20
-4.5958
  0
VERTEX
  8
LAYER_7
 10
145.8433
 20
-4.5958
  0
VERTEX
  8
LAYER_7
 10
145.8433
 20
-3.72
  0
VERTEX
  8
LAYER_7
 10
146.3862
 20
-3.72
  0
VERTEX
  8
LAYER_7
 10
146.3862
 20
-3.7989
  0
VERTEX
  8
LAYER_7
 10
145.9322
 20
-3.7989
  0
VERTEX
  8
LAYER_7
 10
145.9322
 20
-4.0993
  0
VERTEX
  8
LAYER_7
 10
146.3566
 20
-4.0993
  0
VERTEX
  8
LAYER_7
 10
146.3566
 20
-4.1786
  0
VERTEX
  8
LAYER_7
 10
145.9322
 20
-4.1786
  0
SEQEND
  0
ENDBLK
  0
BLOCK
  8
LAYER_7
  2
AIGNBL0703001F
 70
64
 10
0
 20
0
 30
0
  3
AIGNBL0703001F
  0
POLYLINE
  8
LAYER_7
 40
0.05
 41
0.05
 66
1
 10
0
 20
0
 30
0
 70
1
  0
VERTEX
  8
LAYER_7
 10
146.8351
 20
-4.5958
  0
VERTEX
  8
LAYER_7
 10
146.7463
 20
-4.5958
  0
VERTEX
  8
LAYER_7
 10
146.7463
 20
-3.72
  0
VERTEX
  8
LAYER_7
 10
147.0036
 20
-3.72
  0
VERTEX
  8
LAYER_7
 10
147.1228
 20
-3.7321
  0
VERTEX
  8
LAYER_7
 10
147.2182
 20
-3.7724
 42
-0.1251490281
  0
VERTEX
  8
LAYER_7
 10
147.2806
 20
-3.8447
 42
-0.1051781119
  0
VERTEX
  8
LAYER_7
 10
147.3026
 20
-3.9536
  0
VERTEX
  8
LAYER_7
 10
147.2858
 20
-4.0414
  0
VERTEX
  8
LAYER_7
 10
147.2386
 20
-4.11
  0
VERTEX
  8
LAYER_7
 10
147.1679
 20
-4.1565
  0
VERTEX
  8
LAYER_7
 10
147.0791
 20
-4.1786
  0
VERTEX
  8
LAYER_7
 10
147.335
 20
-4.5958
  0
VERTEX
  8
LAYER_7
 10
147.2262
 20
-4.5958
  0
VERTEX
  8
LAYER_7
 10
146.9836
 20
-4.1861
  0
VERTEX
  8
LAYER_7
 10
146.8351
 20
-4.1861
  0
SEQEND
  0
POLYLINE
  8
LAYER_7
 40
0.05
 41
0.05
 66
1
 10
0
 20
0
 30
0
 70
1
  0
VERTEX
  8
LAYER_7
 10
146.8351
 20
-4.1093
  0
VERTEX
  8
LAYER_7
 10
146.9898
 20
-4.1093
 42
0.1569755974
  0
VERTEX
  8
LAYER_7
 10
147.1559
 20
-4.0707
 42
0.2567768408
  0
VERTEX
  8
LAYER_7
 10
147.2138
 20
-3.9536
  0
VERTEX
  8
LAYER_7
 10
147.1979
 20
-3.8809
  0
VERTEX
  8
LAYER_7
 10
147.1531
 20
-3.8323
  0
VERTEX
  8
LAYER_7
 10
147.0839
 20
-3.8051
  0
VERTEX
  8
LAYER_7
 10
146.9936
 20
-3.7965
  0
VERTEX
  8
LAYER_7
 10
146.8351
 20
-3.7965
  0
SEQEND
  0
ENDBLK
  0
BLOCK
  8
LAYER_7
  2
AIGNBL07030020
 70
64
 10
0
 20
0
 30
0
  3
AIGNBL07030020
  0
POLYLINE
  8
LAYER_7
 40
0.05
 41
0.05
 66
1
 10
0
 20
0
 30
0
 70
1
  0
VERTEX
  8
LAYER_7
 10
147.7467
 20
-4.5958
  0
VERTEX
  8
LAYER_7
 10
147.6582
 20
-4.5958
  0
VERTEX
  8
LAYER_7
 10
147.6582
 20
-3.72
  0
VERTEX
  8
LAYER_7
 10
147.7467
 20
-3.72
  0
SEQEND
  0
ENDBLK
  0
BLOCK
  8
LAYER_7
  2
AIGNBL07030021
 70
64
 10
0
 20
0
 30
0
  3
AIGNBL07030021
  0
POLYLINE
  8
LAYER_7
 40
0.05
 41
0.05
 66
1
 10
0
 20
0
 30
0
 70
1
  0
VERTEX
  8
LAYER_7
 10
148.239
 20
-4.5162
  0
VERTEX
  8
LAYER_7
 10
148.7079
 20
-4.5162
  0
VERTEX
  8
LAYER_7
 10
148.7079
 20
-4.5958
  0
VERTEX
  8
LAYER_7
 10
148.1501
 20
-4.5958
  0
VERTEX
  8
LAYER_7
 10
148.1501
 20
-3.72
  0
VERTEX
  8
LAYER_7
 10
148.6931
 20
-3.72
  0
VERTEX
  8
LAYER_7
 10
148.6931
 20
-3.7989
  0
VERTEX
  8
LAYER_7
 10
148.239
 20
-3.7989
  0
VERTEX
  8
LAYER_7
 10
148.239
 20
-4.0993
  0
VERTEX
  8
LAYER_7
 10
148.6634
 20
-4.0993
  0
VERTEX
  8
LAYER_7
 10
148.6634
 20
-4.1786
  0
VERTEX
  8
LAYER_7
 10
148.239
 20
-4.1786
  0
SEQEND
  0
ENDBLK
  0
BLOCK
  8
LAYER_7
  2
AIGNBL07030022
 70
64
 10
0
 20
0
 30
0
  3
AIGNBL07030022
  0
POLYLINE
  8
LAYER_7
 40
0.05
 41
0.05
 66
1
 10
0
 20
0
 30
0
 70
1
  0
VERTEX
  8
LAYER_7
 10
149.6739
 20
-4.4655
  0
VERTEX
  8
LAYER_7
 10
149.6763
 20
-4.4655
  0
VERTEX
  8
LAYER_7
 10
149.6763
 20
-3.72
  0
VERTEX
  8
LAYER_7
 10
149.7655
 20
-3.72
  0
VERTEX
  8
LAYER_7
 10
149.7655
 20
-4.5958
  0
VERTEX
  8
LAYER_7
 10
149.6543
 20
-4.5958
  0
VERTEX
  8
LAYER_7
 10
149.1447
 20
-3.8423
  0
VERTEX
  8
LAYER_7
 10
149.142
 20
-3.8423
  0
VERTEX
  8
LAYER_7
 10
149.142
 20
-4.5958
  0
VERTEX
  8
LAYER_7
 10
149.0531
 20
-4.5958
  0
VERTEX
  8
LAYER_7
 10
149.0531
 20
-3.72
  0
VERTEX
  8
LAYER_7
 10
149.1644
 20
-3.72
  0
SEQEND
  0
ENDBLK
  0
BLOCK
  8
LAYER_7
  2
AIGNBL07030023
 70
64
 10
0
 20
0
 30
0
  3
AIGNBL07030023
  0
POLYLINE
  8
LAYER_7
 40
0.05
 41
0.05
 66
1
 10
0
 20
0
 30
0
 70
1
  0
VERTEX
  8
LAYER_7
 10
150.9062
 20
-4.4535
  0
VERTEX
  8
LAYER_7
 10
150.8521
 20
-4.5165
  0
VERTEX
  8
LAYER_7
 10
150.7791
 20
-4.5689
  0
VERTEX
  8
LAYER_7
 10
150.6874
 20
-4.6047
  0
VERTEX
  8
LAYER_7
 10
150.5782
 20
-4.6178
 42
-0.1002604889
  0
VERTEX
  8
LAYER_7
 10
150.395
 20
-4.583
 42
-0.103618762
  0
VERTEX
  8
LAYER_7
 10
150.2506
 20
-4.4872
 42
-0.1002861858
  0
VERTEX
  8
LAYER_7
 10
150.1559
 20
-4.3419
 42
-0.09550230428
  0
VERTEX
  8
LAYER_7
 10
150.1218
 20
-4.1575
 42
-0.1026723447
  0
VERTEX
  8
LAYER_7
 10
150.1566
 20
-3.9732
 42
-0.09988408448
  0
VERTEX
  8
LAYER_7
 10
150.252
 20
-3.8278
 42
-0.09706305567
  0
VERTEX
  8
LAYER_7
 10
150.3967
 20
-3.7321
 42
-0.09710431873
  0
VERTEX
  8
LAYER_7
 10
150.5782
 20
-3.6973
  0
VERTEX
  8
LAYER_7
 10
150.6726
 20
-3.7076
  0
VERTEX
  8
LAYER_7
 10
150.7601
 20
-3.7359
  0
VERTEX
  8
LAYER_7
 10
150.8342
 20
-3.7796
  0
VERTEX
  8
LAYER_7
 10
150.89
 20
-3.8371
  0
VERTEX
  8
LAYER_7
 10
150.8159
 20
-3.8919
  0
VERTEX
  8
LAYER_7
 10
150.7791
 20
-3.8495
  0
VERTEX
  8
LAYER_7
 10
150.7253
 20
-3.8123
  0
VERTEX
  8
LAYER_7
 10
150.6578
 20
-3.7865
  0
VERTEX
  8
LAYER_7
 10
150.5793
 20
-3.7765
 42
0.1136496813
  0
VERTEX
  8
LAYER_7
 10
150.4266
 20
-3.8075
 42
0.1041503417
  0
VERTEX
  8
LAYER_7
 10
150.3123
 20
-3.8905
 42
0.09633029683
  0
VERTEX
  8
LAYER_7
 10
150.2403
 20
-4.0122
 42
0.08390004266
  0
VERTEX
  8
LAYER_7
 10
150.2158
 20
-4.1575
 42
0.09237333632
  0
VERTEX
  8
LAYER_7
 10
150.2413
 20
-4.3029
 42
0.09906074874
  0
VERTEX
  8
LAYER_7
 10
150.3137
 20
-4.4245
 42
0.1041975764
  0
VERTEX
  8
LAYER_7
 10
150.428
 20
-4.5076
 42
0.1062091033
  0
VERTEX
  8
LAYER_7
 10
150.5793
 20
-4.5386
 42
0.1114210768
  0
VERTEX
  8
LAYER_7
 10
150.7226
 20
-4.5076
 42
0.1364138409
  0
VERTEX
  8
LAYER_7
 10
150.8366
 20
-4.4087
  0
SEQEND
  0
ENDBLK
  0
BLOCK
  8
LAYER_7
  2
AIGNBL07030024
 70
64
 10
0
 20
0
 30
0
  3
AIGNBL07030024
  0
POLYLINE
  8
LAYER_7
 40
0.05
 41
0.05
 66
1
 10
0
 20
0
 30
0
 70
1
  0
VERTEX
  8
LAYER_7
 10
151.3189
 20
-4.5162
  0
VERTEX
  8
LAYER_7
 10
151.7878
 20
-4.5162
  0
VERTEX
  8
LAYER_7
 10
151.7878
 20
-4.5958
  0
VERTEX
  8
LAYER_7
 10
151.23
 20
-4.5958
  0
VERTEX
  8
LAYER_7
 10
151.23
 20
-3.72
  0
VERTEX
  8
LAYER_7
 10
151.773
 20
-3.72
  0
VERTEX
  8
LAYER_7
 10
151.773
 20
-3.7989
  0
VERTEX
  8
LAYER_7
 10
151.3189
 20
-3.7989
  0
VERTEX
  8
LAYER_7
 10
151.3189
 20
-4.0993
  0
VERTEX
  8
LAYER_7
 10
151.7434
 20
-4.0993
  0
VERTEX
  8
LAYER_7
 10
151.7434
 20
-4.1786
  0
VERTEX
  8
LAYER_7
 10
151.3189
 20
-4.1786
  0
SEQEND
  0
ENDBLK
  0
BLOCK
  8
LAYER_2
  2
AIGNBL02020003
 70
64
 10
0
 20
0
 30
0
  3
AIGNBL02020003
  0
POLYLINE
  8
LAYER_2
 40
0.2469
 41
0.2469
 66
1
 10
0
 20
0
 30
0
  0
VERTEX
  8
LAYER_2
 10
106.7788
 20
63.5765
  0
VERTEX
  8
LAYER_2
 10
118.1661
 20
63.5765
  0
SEQEND
  0
ENDBLK
  0
BLOCK
  8
LAYER_2
  2
AIGNBL02020004
 70
64
 10
0
 20
0
 30
0
  3
AIGNBL02020004
  0
POLYLINE
  8
LAYER_2
 40
0.2469
 41
0.2469
 66
1
 10
0
 20
0
 30
0
  0
VERTEX
  8
LAYER_2
 10
84.7592
 20
137.3594
  0
VERTEX
  8
LAYER_2
 10
118.1661
 20
137.3594
  0
SEQEND
  0
ENDBLK
  0
BLOCK
  8
LAYER_2
  2
AIGNBL02020005
 70
64
 10
0
 20
0
 30
0
  3
AIGNBL02020005
  0
POLYLINE
  8
LAYER_2
 40
0.2469
 41
0.2469
 66
1
 10
0
 20
0
 30
0
  0
VERTEX
  8
LAYER_2
 10
116.1659
 20
65.0765
  0
VERTEX
  8
LAYER_2
 10
116.1659
 20
135.8594
  0
SEQEND
  0
ENDBLK
  0
BLOCK
  8
LAYER_2
  2
AIGNBL02020006
 70
64
 10
0
 20
0
 30
0
  3
AIGNBL02020006
  0
INSERT
  8
LAYER_2
  2
AIGNBL02030007
 10
0
 20
0
 30
0
  0
INSERT
  8
LAYER_2
  2
AIGNBL02030008
 10
0
 20
0
 30
0
  0
INSERT
  8
LAYER_2
  2
AIGNBL02030009
 10
0
 20
0
 30
0
  0
ENDBLK
  0
BLOCK
  8
LAYER_2
  2
AIGNBL0202000A
 70
64
 10
0
 20
0
 30
0
  3
AIGNBL0202000A
  0
INSERT
  8
LAYER_2
  2
AIGNBL0203000B
 10
0
 20
0
 30
0
  0
INSERT
  8
LAYER_2
  2
AIGNBL0203000C
 10
0
 20
0
 30
0
  0
INSERT
  8
LAYER_2
  2
AIGNBL0203000D
 10
0
 20
0
 30
0
  0
ENDBLK
  0
BLOCK
  8
LAYER_2
  2
AIGNBL0202000E
 70
64
 10
0
 20
0
 30
0
  3
AIGNBL0202000E
  0
TEXT
  8
LAYER_2
 10
115.5657
 20
93.194
 11
115.5657
 21
93.194
 40
4.4427
 41
0.5
 50
89.99999999
  1
（397）
  0
ENDBLK
  0
BLOCK
  8
LAYER_2
  2
AIGNBL0202000F
 70
64
 10
0
 20
0
 30
0
  3
AIGNBL0202000F
  0
ENDBLK
  0
BLOCK
  8
LAYER_2
  2
AIGNBL02020010
 70
64
 10
0
 20
0
 30
0
  3
AIGNBL02020010
  0
ENDBLK
  0
BLOCK
  8
LAYER_2
  2
AIGNBL02020011
 70
64
 10
0
 20
0
 30
0
  3
AIGNBL02020011
  0
ENDBLK
  0
BLOCK
  8
LAYER_2
  2
AIGNBL02020013
 70
64
 10
0
 20
0
 30
0
  3
AIGNBL02020013
  0
POLYLINE
  8
LAYER_2
 40
0.2469
 41
0.2469
 66
1
 10
0
 20
0
 30
0
  0
VERTEX
  8
LAYER_2
 10
80.2592
 20
137.4197
  0
VERTEX
  8
LAYER_2
 10
80.2592
 20
143.0094
  0
SEQEND
  0
ENDBLK
  0
BLOCK
  8
LAYER_2
  2
AIGNBL02020014
 70
64
 10
0
 20
0
 30
0
  3
AIGNBL02020014
  0
POLYLINE
  8
LAYER_2
 40
0.2469
 41
0.2469
 66
1
 10
0
 20
0
 30
0
  0
VERTEX
  8
LAYER_2
 10
89.2592
 20
137.4197
  0
VERTEX
  8
LAYER_2
 10
89.2592
 20
143.0094
  0
SEQEND
  0
ENDBLK
  0
BLOCK
  8
LAYER_2
  2
AIGNBL02020015
 70
64
 10
0
 20
0
 30
0
  3
AIGNBL02020015
  0
POLYLINE
  8
LAYER_2
 40
0.2469
 41
0.2469
 66
1
 10
0
 20
0
 30
0
  0
VERTEX
  8
LAYER_2
 10
81.7592
 20
141.0095
  0
VERTEX
  8
LAYER_2
 10
87.7592
 20
141.0095
  0
SEQEND
  0
ENDBLK
  0
BLOCK
  8
LAYER_2
  2
AIGNBL02020016
 70
64
 10
0
 20
0
 30
0
  3
AIGNBL02020016
  0
POLYLINE
  8
LAYER_2
 40
0.2469
 41
0.2469
 66
1
 10
0
 20
0
 30
0
  0
VERTEX
  8
LAYER_2
 10
89.2592
 20
141.0095
  0
VERTEX
  8
LAYER_2
 10
98.266
 20
141.0095
  0
SEQEND
  0
ENDBLK
  0
BLOCK
  8
LAYER_2
  2
AIGNBL02020017
 70
64
 10
0
 20
0
 30
0
  3
AIGNBL02020017
  0
INSERT
  8
LAYER_2
  2
AIGNBL02030018
 10
0
 20
0
 30
0
  0
INSERT
  8
LAYER_2
  2
AIGNBL02030019
 10
0
 20
0
 30
0
  0
INSERT
  8
LAYER_2
  2
AIGNBL0203001A
 10
0
 20
0
 30
0
  0
ENDBLK
  0
BLOCK
  8
LAYER_2
  2
AIGNBL0202001B
 70
64
 10
0
 20
0
 30
0
  3
AIGNBL0202001B
  0
INSERT
  8
LAYER_2
  2
AIGNBL0203001C
 10
0
 20
0
 30
0
  0
INSERT
  8
LAYER_2
  2
AIGNBL0203001D
 10
0
 20
0
 30
0
  0
INSERT
  8
LAYER_2
  2
AIGNBL0203001E
 10
0
 20
0
 30
0
  0
ENDBLK
  0
BLOCK
  8
LAYER_2
  2
AIGNBL0202001F
 70
64
 10
0
 20
0
 30
0
  3
AIGNBL0202001F
  0
TEXT
  8
LAYER_2
 10
91.002
 20
141.497
 11
91.002
 21
141.497
 40
4.4427
 41
0.5
  1
45
  0
ENDBLK
  0
BLOCK
  8
LAYER_2
  2
AIGNBL02020020
 70
64
 10
0
 20
0
 30
0
  3
AIGNBL02020020
  0
ENDBLK
  0
BLOCK
  8
LAYER_2
  2
AIGNBL02020021
 70
64
 10
0
 20
0
 30
0
  3
AIGNBL02020021
  0
ENDBLK
  0
BLOCK
  8
LAYER_2
  2
AIGNBL02020022
 70
64
 10
0
 20
0
 30
0
  3
AIGNBL02020022
  0
ENDBLK
  0
BLOCK
  8
LAYER_2
  2
AIGNBL02020026
 70
64
 10
0
 20
0
 30
0
  3
AIGNBL02020026
  0
POLYLINE
  8
LAYER_2
 40
0.2469
 41
0.2469
 66
1
 10
0
 20
0
 30
0
  0
VERTEX
  8
LAYER_2
 10
172.0722
 20
137.3594
  0
VERTEX
  8
LAYER_2
 10
172.0722
 20
130.145
  0
SEQEND
  0
ENDBLK
  0
BLOCK
  8
LAYER_2
  2
AIGNBL02020027
 70
64
 10
0
 20
0
 30
0
  3
AIGNBL02020027
  0
POLYLINE
  8
LAYER_2
 40
0.2469
 41
0.2469
 66
1
 10
0
 20
0
 30
0
  0
VERTEX
  8
LAYER_2
 10
151.0936
 20
145.2854
  0
VERTEX
  8
LAYER_2
 10
151.0936
 20
130.145
  0
SEQEND
  0
ENDBLK
  0
BLOCK
  8
LAYER_2
  2
AIGNBL02020028
 70
64
 10
0
 20
0
 30
0
  3
AIGNBL02020028
  0
POLYLINE
  8
LAYER_2
 40
0.2469
 41
0.2469
 66
1
 10
0
 20
0
 30
0
  0
VERTEX
  8
LAYER_2
 10
170.5722
 20
132.1449
  0
VERTEX
  8
LAYER_2
 10
152.5936
 20
132.1449
  0
SEQEND
  0
ENDBLK
  0
BLOCK
  8
LAYER_2
  2
AIGNBL02020029
 70
64
 10
0
 20
0
 30
0
  3
AIGNBL02020029
  0
INSERT
  8
LAYER_2
  2
AIGNBL0203002A
 10
0
 20
0
 30
0
  0
INSERT
  8
LAYER_2
  2
AIGNBL0203002B
 10
0
 20
0
 30
0
  0
INSERT
  8
LAYER_2
  2
AIGNBL0203002C
 10
0
 20
0
 30
0
  0
ENDBLK
  0
BLOCK
  8
LAYER_2
  2
AIGNBL0202002D
 70
64
 10
0
 20
0
 30
0
  3
AIGNBL0202002D
  0
INSERT
  8
LAYER_2
  2
AIGNBL0203002E
 10
0
 20
0
 30
0
  0
INSERT
  8
LAYER_2
  2
AIGNBL0203002F
 10
0
 20
0
 30
0
  0
INSERT
  8
LAYER_2
  2
AIGNBL02030030
 10
0
 20
0
 30
0
  0
ENDBLK
  0
BLOCK
  8
LAYER_2
  2
AIGNBL02020031
 70
64
 10
0
 20
0
 30
0
  3
AIGNBL02020031
  0
TEXT
  8
LAYER_2
 10
154.3093
 20
132.745
 11
154.3093
 21
132.745
 40
4.4427
 41
0.5
  1
（105）
  0
ENDBLK
  0
BLOCK
  8
LAYER_2
  2
AIGNBL02020032
 70
64
 10
0
 20
0
 30
0
  3
AIGNBL02020032
  0
ENDBLK
  0
BLOCK
  8
LAYER_2
  2
AIGNBL02020033
 70
64
 10
0
 20
0
 30
0
  3
AIGNBL02020033
  0
ENDBLK
  0
BLOCK
  8
LAYER_2
  2
AIGNBL02020034
 70
64
 10
0
 20
0
 30
0
  3
AIGNBL02020034
  0
ENDBLK
  0
BLOCK
  8
LAYER_2
  2
AIGNBL02020036
 70
64
 10
0
 20
0
 30
0
  3
AIGNBL02020036
  0
POLYLINE
  8
LAYER_2
 40
0.2469
 41
0.2469
 66
1
 10
0
 20
0
 30
0
  0
VERTEX
  8
LAYER_2
 10
172.0722
 20
137.3594
  0
VERTEX
  8
LAYER_2
 10
141.2462
 20
137.3594
  0
SEQEND
  0
ENDBLK
  0
BLOCK
  8
LAYER_2
  2
AIGNBL02020037
 70
64
 10
0
 20
0
 30
0
  3
AIGNBL02020037
  0
POLYLINE
  8
LAYER_2
 40
0.2469
 41
0.2469
 66
1
 10
0
 20
0
 30
0
  0
VERTEX
  8
LAYER_2
 10
151.0936
 20
145.2854
  0
VERTEX
  8
LAYER_2
 10
141.2462
 20
145.2854
  0
SEQEND
  0
ENDBLK
  0
BLOCK
  8
LAYER_2
  2
AIGNBL02020038
 70
64
 10
0
 20
0
 30
0
  3
AIGNBL02020038
  0
POLYLINE
  8
LAYER_2
 40
0.2469
 41
0.2469
 66
1
 10
0
 20
0
 30
0
  0
VERTEX
  8
LAYER_2
 10
143.2464
 20
138.8594
  0
VERTEX
  8
LAYER_2
 10
143.2464
 20
143.7854
  0
SEQEND
  0
ENDBLK
  0
BLOCK
  8
LAYER_2
  2
AIGNBL02020039
 70
64
 10
0
 20
0
 30
0
  3
AIGNBL02020039
  0
INSERT
  8
LAYER_2
  2
AIGNBL0203003A
 10
0
 20
0
 30
0
  0
INSERT
  8
LAYER_2
  2
AIGNBL0203003B
 10
0
 20
0
 30
0
  0
INSERT
  8
LAYER_2
  2
AIGNBL0203003C
 10
0
 20
0
 30
0
  0
ENDBLK
  0
BLOCK
  8
LAYER_2
  2
AIGNBL0202003D
 70
64
 10
0
 20
0
 30
0
  3
AIGNBL0202003D
  0
INSERT
  8
LAYER_2
  2
AIGNBL0203003E
 10
0
 20
0
 30
0
  0
INSERT
  8
LAYER_2
  2
AIGNBL0203003F
 10
0
 20
0
 30
0
  0
INSERT
  8
LAYER_2
  2
AIGNBL02030040
 10
0
 20
0
 30
0
  0
ENDBLK
  0
BLOCK
  8
LAYER_2
  2
AIGNBL02020041
 70
64
 10
0
 20
0
 30
0
  3
AIGNBL02020041
  0
TEXT
  8
LAYER_2
 10
142.6462
 20
135.2386
 11
142.6462
 21
135.2386
 40
4.4427
 41
0.5
 50
89.99999999
  1
（40）
  0
ENDBLK
  0
BLOCK
  8
LAYER_2
  2
AIGNBL02020042
 70
64
 10
0
 20
0
 30
0
  3
AIGNBL02020042
  0
ENDBLK
  0
BLOCK
  8
LAYER_2
  2
AIGNBL02020043
 70
64
 10
0
 20
0
 30
0
  3
AIGNBL02020043
  0
ENDBLK
  0
BLOCK
  8
LAYER_2
  2
AIGNBL02020044
 70
64
 10
0
 20
0
 30
0
  3
AIGNBL02020044
  0
ENDBLK
  0
BLOCK
  8
LAYER_2
  2
AIGNBL02020048
 70
64
 10
0
 20
0
 30
0
  3
AIGNBL02020048
  0
POLYLINE
  8
LAYER_2
 40
0.2469
 41
0.2469
 66
1
 10
0
 20
0
 30
0
  0
VERTEX
  8
LAYER_2
 10
155.34
 20
165.2996
  0
VERTEX
  8
LAYER_2
 10
155.34
 20
182.8242
  0
SEQEND
  0
ENDBLK
  0
BLOCK
  8
LAYER_2
  2
AIGNBL02020049
 70
64
 10
0
 20
0
 30
0
  3
AIGNBL02020049
  0
POLYLINE
  8
LAYER_2
 40
0.2469
 41
0.2469
 66
1
 10
0
 20
0
 30
0
  0
VERTEX
  8
LAYER_2
 10
172.0722
 20
168.9833
  0
VERTEX
  8
LAYER_2
 10
172.0722
 20
182.8242
  0
SEQEND
  0
ENDBLK
  0
BLOCK
  8
LAYER_2
  2
AIGNBL0202004A
 70
64
 10
0
 20
0
 30
0
  3
AIGNBL0202004A
  0
POLYLINE
  8
LAYER_2
 40
0.2469
 41
0.2469
 66
1
 10
0
 20
0
 30
0
  0
VERTEX
  8
LAYER_2
 10
156.84
 20
180.8241
  0
VERTEX
  8
LAYER_2
 10
170.5722
 20
180.8241
  0
SEQEND
  0
ENDBLK
  0
BLOCK
  8
LAYER_2
  2
AIGNBL0202004B
 70
64
 10
0
 20
0
 30
0
  3
AIGNBL0202004B
  0
INSERT
  8
LAYER_2
  2
AIGNBL0203004C
 10
0
 20
0
 30
0
  0
INSERT
  8
LAYER_2
  2
AIGNBL0203004D
 10
0
 20
0
 30
0
  0
INSERT
  8
LAYER_2
  2
AIGNBL0203004E
 10
0
 20
0
 30
0
  0
ENDBLK
  0
BLOCK
  8
LAYER_2
  2
AIGNBL0202004F
 70
64
 10
0
 20
0
 30
0
  3
AIGNBL0202004F
  0
INSERT
  8
LAYER_2
  2
AIGNBL02030050
 10
0
 20
0
 30
0
  0
INSERT
  8
LAYER_2
  2
AIGNBL02030051
 10
0
 20
0
 30
0
  0
INSERT
  8
LAYER_2
  2
AIGNBL02030052
 10
0
 20
0
 30
0
  0
ENDBLK
  0
BLOCK
  8
LAYER_2
  2
AIGNBL02020053
 70
64
 10
0
 20
0
 30
0
  3
AIGNBL02020053
  0
TEXT
  8
LAYER_2
 10
157.6221
 20
181.4242
 11
157.6221
 21
181.4242
 40
4.4427
 41
0.5
  1
（84）
  0
ENDBLK
  0
BLOCK
  8
LAYER_2
  2
AIGNBL02020054
 70
64
 10
0
 20
0
 30
0
  3
AIGNBL02020054
  0
ENDBLK
  0
BLOCK
  8
LAYER_2
  2
AIGNBL02020055
 70
64
 10
0
 20
0
 30
0
  3
AIGNBL02020055
  0
ENDBLK
  0
BLOCK
  8
LAYER_2
  2
AIGNBL02020056
 70
64
 10
0
 20
0
 30
0
  3
AIGNBL02020056
  0
ENDBLK
  0
BLOCK
  8
LAYER_2
  2
AIGNBL02020058
 70
64
 10
0
 20
0
 30
0
  3
AIGNBL02020058
  0
POLYLINE
  8
LAYER_2
 40
0.2469
 41
0.2469
 66
1
 10
0
 20
0
 30
0
  0
VERTEX
  8
LAYER_2
 10
172.0722
 20
168.9833
  0
VERTEX
  8
LAYER_2
 10
172.0722
 20
182.8242
  0
SEQEND
  0
ENDBLK
  0
BLOCK
  8
LAYER_2
  2
AIGNBL02020059
 70
64
 10
0
 20
0
 30
0
  3
AIGNBL02020059
  0
POLYLINE
  8
LAYER_2
 40
0.2469
 41
0.2469
 66
1
 10
0
 20
0
 30
0
  0
VERTEX
  8
LAYER_2
 10
179.4006
 20
164.7913
  0
VERTEX
  8
LAYER_2
 10
179.4006
 20
182.8242
  0
SEQEND
  0
ENDBLK
  0
BLOCK
  8
LAYER_2
  2
AIGNBL0202005A
 70
64
 10
0
 20
0
 30
0
  3
AIGNBL0202005A
  0
POLYLINE
  8
LAYER_2
 40
0.2469
 41
0.2469
 66
1
 10
0
 20
0
 30
0
  0
VERTEX
  8
LAYER_2
 10
173.5722
 20
180.8241
  0
VERTEX
  8
LAYER_2
 10
177.9006
 20
180.8241
  0
SEQEND
  0
ENDBLK
  0
BLOCK
  8
LAYER_2
  2
AIGNBL0202005B
 70
64
 10
0
 20
0
 30
0
  3
AIGNBL0202005B
  0
INSERT
  8
LAYER_2
  2
AIGNBL0203005C
 10
0
 20
0
 30
0
  0
INSERT
  8
LAYER_2
  2
AIGNBL0203005D
 10
0
 20
0
 30
0
  0
INSERT
  8
LAYER_2
  2
AIGNBL0203005E
 10
0
 20
0
 30
0
  0
ENDBLK
  0
BLOCK
  8
LAYER_2
  2
AIGNBL0202005F
 70
64
 10
0
 20
0
 30
0
  3
AIGNBL0202005F
  0
INSERT
  8
LAYER_2
  2
AIGNBL02030060
 10
0
 20
0
 30
0
  0
INSERT
  8
LAYER_2
  2
AIGNBL02030061
 10
0
 20
0
 30
0
  0
INSERT
  8
LAYER_2
  2
AIGNBL02030062
 10
0
 20
0
 30
0
  0
ENDBLK
  0
BLOCK
  8
LAYER_2
  2
AIGNBL02020063
 70
64
 10
0
 20
0
 30
0
  3
AIGNBL02020063
  0
TEXT
  8
LAYER_2
 10
169.6523
 20
181.4242
 11
169.6523
 21
181.4242
 40
4.4427
 41
0.5
  1
（37）
  0
ENDBLK
  0
BLOCK
  8
LAYER_2
  2
AIGNBL02020064
 70
64
 10
0
 20
0
 30
0
  3
AIGNBL02020064
  0
ENDBLK
  0
BLOCK
  8
LAYER_2
  2
AIGNBL02020065
 70
64
 10
0
 20
0
 30
0
  3
AIGNBL02020065
  0
ENDBLK
  0
BLOCK
  8
LAYER_2
  2
AIGNBL02020066
 70
64
 10
0
 20
0
 30
0
  3
AIGNBL02020066
  0
ENDBLK
  0
BLOCK
  8
LAYER_2
  2
AIGNBL02020068
 70
64
 10
0
 20
0
 30
0
  3
AIGNBL02020068
  0
POLYLINE
  8
LAYER_2
 40
0.2469
 41
0.2469
 66
1
 10
0
 20
0
 30
0
  0
VERTEX
  8
LAYER_2
 10
160.1398
 20
173.3734
  0
VERTEX
  8
LAYER_2
 10
123.2462
 20
173.3734
  0
SEQEND
  0
ENDBLK
  0
BLOCK
  8
LAYER_2
  2
AIGNBL02020069
 70
64
 10
0
 20
0
 30
0
  3
AIGNBL02020069
  0
POLYLINE
  8
LAYER_2
 40
0.2469
 41
0.2469
 66
1
 10
0
 20
0
 30
0
  0
VERTEX
  8
LAYER_2
 10
172.0722
 20
137.3594
  0
VERTEX
  8
LAYER_2
 10
123.2462
 20
137.3594
  0
SEQEND
  0
ENDBLK
  0
BLOCK
  8
LAYER_2
  2
AIGNBL0202006A
 70
64
 10
0
 20
0
 30
0
  3
AIGNBL0202006A
  0
POLYLINE
  8
LAYER_2
 40
0.2469
 41
0.2469
 66
1
 10
0
 20
0
 30
0
  0
VERTEX
  8
LAYER_2
 10
125.2464
 20
171.8734
  0
VERTEX
  8
LAYER_2
 10
125.2464
 20
138.8594
  0
SEQEND
  0
ENDBLK
  0
BLOCK
  8
LAYER_2
  2
AIGNBL0202006B
 70
64
 10
0
 20
0
 30
0
  3
AIGNBL0202006B
  0
INSERT
  8
LAYER_2
  2
AIGNBL0203006C
 10
0
 20
0
 30
0
  0
INSERT
  8
LAYER_2
  2
AIGNBL0203006D
 10
0
 20
0
 30
0
  0
INSERT
  8
LAYER_2
  2
AIGNBL0203006E
 10
0
 20
0
 30
0
  0
ENDBLK
  0
BLOCK
  8
LAYER_2
  2
AIGNBL0202006F
 70
64
 10
0
 20
0
 30
0
  3
AIGNBL0202006F
  0
INSERT
  8
LAYER_2
  2
AIGNBL02030070
 10
0
 20
0
 30
0
  0
INSERT
  8
LAYER_2
  2
AIGNBL02030071
 10
0
 20
0
 30
0
  0
INSERT
  8
LAYER_2
  2
AIGNBL02030072
 10
0
 20
0
 30
0
  0
ENDBLK
  0
BLOCK
  8
LAYER_2
  2
AIGNBL02020073
 70
64
 10
0
 20
0
 30
0
  3
AIGNBL02020073
  0
TEXT
  8
LAYER_2
 10
124.6463
 20
148.0928
 11
124.6463
 21
148.0928
 40
4.4427
 41
0.5
 50
89.99999999
  1
（180）
  0
ENDBLK
  0
BLOCK
  8
LAYER_2
  2
AIGNBL02020074
 70
64
 10
0
 20
0
 30
0
  3
AIGNBL02020074
  0
ENDBLK
  0
BLOCK
  8
LAYER_2
  2
AIGNBL02020075
 70
64
 10
0
 20
0
 30
0
  3
AIGNBL02020075
  0
ENDBLK
  0
BLOCK
  8
LAYER_2
  2
AIGNBL02020076
 70
64
 10
0
 20
0
 30
0
  3
AIGNBL02020076
  0
ENDBLK
  0
BLOCK
  8
LAYER_2
  2
AIGNBL02020078
 70
64
 10
0
 20
0
 30
0
  3
AIGNBL02020078
  0
POLYLINE
  8
LAYER_2
 40
0.2469
 41
0.2469
 66
1
 10
0
 20
0
 30
0
  0
VERTEX
  8
LAYER_2
 10
159.0463
 20
154.9645
  0
VERTEX
  8
LAYER_2
 10
135.2462
 20
154.9645
  0
SEQEND
  0
ENDBLK
  0
BLOCK
  8
LAYER_2
  2
AIGNBL02020079
 70
64
 10
0
 20
0
 30
0
  3
AIGNBL02020079
  0
POLYLINE
  8
LAYER_2
 40
0.2469
 41
0.2469
 66
1
 10
0
 20
0
 30
0
  0
VERTEX
  8
LAYER_2
 10
172.0722
 20
137.3594
  0
VERTEX
  8
LAYER_2
 10
135.2462
 20
137.3594
  0
SEQEND
  0
ENDBLK
  0
BLOCK
  8
LAYER_2
  2
AIGNBL0202007A
 70
64
 10
0
 20
0
 30
0
  3
AIGNBL0202007A
  0
POLYLINE
  8
LAYER_2
 40
0.2469
 41
0.2469
 66
1
 10
0
 20
0
 30
0
  0
VERTEX
  8
LAYER_2
 10
137.2464
 20
153.4645
  0
VERTEX
  8
LAYER_2
 10
137.2464
 20
138.8594
  0
SEQEND
  0
ENDBLK
  0
BLOCK
  8
LAYER_2
  2
AIGNBL0202007B
 70
64
 10
0
 20
0
 30
0
  3
AIGNBL0202007B
  0
INSERT
  8
LAYER_2
  2
AIGNBL0203007C
 10
0
 20
0
 30
0
  0
INSERT
  8
LAYER_2
  2
AIGNBL0203007D
 10
0
 20
0
 30
0
  0
INSERT
  8
LAYER_2
  2
AIGNBL0203007E
 10
0
 20
0
 30
0
  0
ENDBLK
  0
BLOCK
  8
LAYER_2
  2
AIGNBL0202007F
 70
64
 10
0
 20
0
 30
0
  3
AIGNBL0202007F
  0
INSERT
  8
LAYER_2
  2
AIGNBL02030080
 10
0
 20
0
 30
0
  0
INSERT
  8
LAYER_2
  2
AIGNBL02030081
 10
0
 20
0
 30
0
  0
INSERT
  8
LAYER_2
  2
AIGNBL02030082
 10
0
 20
0
 30
0
  0
ENDBLK
  0
BLOCK
  8
LAYER_2
  2
AIGNBL02020083
 70
64
 10
0
 20
0
 30
0
  3
AIGNBL02020083
  0
TEXT
  8
LAYER_2
 10
136.6463
 20
140.0784
 11
136.6463
 21
140.0784
 40
4.4427
 41
0.5
 50
89.99999999
  1
（88）
  0
ENDBLK
  0
BLOCK
  8
LAYER_2
  2
AIGNBL02020084
 70
64
 10
0
 20
0
 30
0
  3
AIGNBL02020084
  0
ENDBLK
  0
BLOCK
  8
LAYER_2
  2
AIGNBL02020085
 70
64
 10
0
 20
0
 30
0
  3
AIGNBL02020085
  0
ENDBLK
  0
BLOCK
  8
LAYER_2
  2
AIGNBL02020086
 70
64
 10
0
 20
0
 30
0
  3
AIGNBL02020086
  0
ENDBLK
  0
BLOCK
  8
LAYER_2
  2
AIGNBL02020088
 70
64
 10
0
 20
0
 30
0
  3
AIGNBL02020088
  0
POLYLINE
  8
LAYER_2
 40
0.2469
 41
0.2469
 66
1
 10
0
 20
0
 30
0
  0
VERTEX
  8
LAYER_2
 10
155.5405
 20
166.2996
  0
VERTEX
  8
LAYER_2
 10
129.2462
 20
166.2996
  0
SEQEND
  0
ENDBLK
  0
BLOCK
  8
LAYER_2
  2
AIGNBL02020089
 70
64
 10
0
 20
0
 30
0
  3
AIGNBL02020089
  0
POLYLINE
  8
LAYER_2
 40
0.2469
 41
0.2469
 66
1
 10
0
 20
0
 30
0
  0
VERTEX
  8
LAYER_2
 10
172.0722
 20
137.3594
  0
VERTEX
  8
LAYER_2
 10
129.2462
 20
137.3594
  0
SEQEND
  0
ENDBLK
  0
BLOCK
  8
LAYER_2
  2
AIGNBL0202008A
 70
64
 10
0
 20
0
 30
0
  3
AIGNBL0202008A
  0
POLYLINE
  8
LAYER_2
 40
0.2469
 41
0.2469
 66
1
 10
0
 20
0
 30
0
  0
VERTEX
  8
LAYER_2
 10
131.2464
 20
164.7996
  0
VERTEX
  8
LAYER_2
 10
131.2464
 20
138.8594
  0
SEQEND
  0
ENDBLK
  0
BLOCK
  8
LAYER_2
  2
AIGNBL0202008B
 70
64
 10
0
 20
0
 30
0
  3
AIGNBL0202008B
  0
INSERT
  8
LAYER_2
  2
AIGNBL0203008C
 10
0
 20
0
 30
0
  0
INSERT
  8
LAYER_2
  2
AIGNBL0203008D
 10
0
 20
0
 30
0
  0
INSERT
  8
LAYER_2
  2
AIGNBL0203008E
 10
0
 20
0
 30
0
  0
ENDBLK
  0
BLOCK
  8
LAYER_2
  2
AIGNBL0202008F
 70
64
 10
0
 20
0
 30
0
  3
AIGNBL0202008F
  0
INSERT
  8
LAYER_2
  2
AIGNBL02030090
 10
0
 20
0
 30
0
  0
INSERT
  8
LAYER_2
  2
AIGNBL02030091
 10
0
 20
0
 30
0
  0
INSERT
  8
LAYER_2
  2
AIGNBL02030092
 10
0
 20
0
 30
0
  0
ENDBLK
  0
BLOCK
  8
LAYER_2
  2
AIGNBL02020093
 70
64
 10
0
 20
0
 30
0
  3
AIGNBL02020093
  0
TEXT
  8
LAYER_2
 10
130.6463
 20
144.556
 11
130.6463
 21
144.556
 40
4.4427
 41
0.5
 50
89.99999999
  1
（145）
  0
ENDBLK
  0
BLOCK
  8
LAYER_2
  2
AIGNBL02020094
 70
64
 10
0
 20
0
 30
0
  3
AIGNBL02020094
  0
ENDBLK
  0
BLOCK
  8
LAYER_2
  2
AIGNBL02020095
 70
64
 10
0
 20
0
 30
0
  3
AIGNBL02020095
  0
ENDBLK
  0
BLOCK
  8
LAYER_2
  2
AIGNBL02020096
 70
64
 10
0
 20
0
 30
0
  3
AIGNBL02020096
  0
ENDBLK
  0
BLOCK
  8
LAYER_2
  2
AIGNBL02020098
 70
64
 10
0
 20
0
 30
0
  3
AIGNBL02020098
  0
POLYLINE
  8
LAYER_2
 40
0.2469
 41
0.2469
 66
1
 10
0
 20
0
 30
0
  0
VERTEX
  8
LAYER_2
 10
149.5282
 20
146.2567
  0
VERTEX
  8
LAYER_2
 10
149.5282
 20
120.7726
  0
SEQEND
  0
ENDBLK
  0
BLOCK
  8
LAYER_2
  2
AIGNBL02020099
 70
64
 10
0
 20
0
 30
0
  3
AIGNBL02020099
  0
POLYLINE
  8
LAYER_2
 40
0.2469
 41
0.2469
 66
1
 10
0
 20
0
 30
0
  0
VERTEX
  8
LAYER_2
 10
172.0722
 20
137.3594
  0
VERTEX
  8
LAYER_2
 10
172.0722
 20
120.7726
  0
SEQEND
  0
ENDBLK
  0
BLOCK
  8
LAYER_2
  2
AIGNBL0202009A
 70
64
 10
0
 20
0
 30
0
  3
AIGNBL0202009A
  0
POLYLINE
  8
LAYER_2
 40
0.2469
 41
0.2469
 66
1
 10
0
 20
0
 30
0
  0
VERTEX
  8
LAYER_2
 10
151.0282
 20
122.7729
  0
VERTEX
  8
LAYER_2
 10
170.5722
 20
122.7729
  0
SEQEND
  0
ENDBLK
  0
BLOCK
  8
LAYER_2
  2
AIGNBL0202009B
 70
64
 10
0
 20
0
 30
0
  3
AIGNBL0202009B
  0
INSERT
  8
LAYER_2
  2
AIGNBL0203009C
 10
0
 20
0
 30
0
  0
INSERT
  8
LAYER_2
  2
AIGNBL0203009D
 10
0
 20
0
 30
0
  0
INSERT
  8
LAYER_2
  2
AIGNBL0203009E
 10
0
 20
0
 30
0
  0
ENDBLK
  0
BLOCK
  8
LAYER_2
  2
AIGNBL0202009F
 70
64
 10
0
 20
0
 30
0
  3
AIGNBL0202009F
  0
INSERT
  8
LAYER_2
  2
AIGNBL020300A0
 10
0
 20
0
 30
0
  0
INSERT
  8
LAYER_2
  2
AIGNBL020300A1
 10
0
 20
0
 30
0
  0
INSERT
  8
LAYER_2
  2
AIGNBL020300A2
 10
0
 20
0
 30
0
  0
ENDBLK
  0
BLOCK
  8
LAYER_2
  2
AIGNBL020200A3
 70
64
 10
0
 20
0
 30
0
  3
AIGNBL020200A3
  0
TEXT
  8
LAYER_2
 10
153.5265
 20
123.3727
 11
153.5265
 21
123.3727
 40
4.4427
 41
0.5
  1
（113）
  0
ENDBLK
  0
BLOCK
  8
LAYER_2
  2
AIGNBL020200A4
 70
64
 10
0
 20
0
 30
0
  3
AIGNBL020200A4
  0
ENDBLK
  0
BLOCK
  8
LAYER_2
  2
AIGNBL020200A5
 70
64
 10
0
 20
0
 30
0
  3
AIGNBL020200A5
  0
ENDBLK
  0
BLOCK
  8
LAYER_2
  2
AIGNBL020200A6
 70
64
 10
0
 20
0
 30
0
  3
AIGNBL020200A6
  0
ENDBLK
  0
BLOCK
  8
LAYER_2
  2
AIGNBL020200AA
 70
64
 10
0
 20
0
 30
0
  3
AIGNBL020200AA
  0
POLYLINE
  8
LAYER_2
 40
0.2469
 41
0.2469
 66
1
 10
0
 20
0
 30
0
  0
VERTEX
  8
LAYER_2
 10
71.7377
 20
213.9258
  0
VERTEX
  8
LAYER_2
 10
61.856
 20
205.634
  0
SEQEND
  0
ENDBLK
  0
BLOCK
  8
LAYER_2
  2
AIGNBL020200AB
 70
64
 10
0
 20
0
 30
0
  3
AIGNBL020200AB
  0
POLYLINE
  8
LAYER_2
 40
0.2469
 41
0.2469
 66
1
 10
0
 20
0
 30
0
  0
VERTEX
  8
LAYER_2
 10
98.1692
 20
213.5985
  0
VERTEX
  8
LAYER_2
 10
107.6611
 20
205.634
  0
SEQEND
  0
ENDBLK
  0
BLOCK
  8
LAYER_2
  2
AIGNBL020200AC
 70
64
 10
0
 20
0
 30
0
  3
AIGNBL020200AC
  0
POLYLINE
  8
LAYER_2
 40
0.2469
 41
0.2469
 66
1
 10
0
 20
0
 30
0
  0
VERTEX
  8
LAYER_2
 10
64.3828
 20
205.7967
 42
0.4142085153
  0
VERTEX
  8
LAYER_2
 10
103.8133
 20
204.4757
 42
0.01666380964
  0
VERTEX
  8
LAYER_2
 10
105.1342
 20
205.7967
  0
SEQEND
  0
ENDBLK
  0
BLOCK
  8
LAYER_2
  2
AIGNBL020200AD
 70
64
 10
0
 20
0
 30
0
  3
AIGNBL020200AD
  0
INSERT
  8
LAYER_2
  2
AIGNBL020300AE
 10
0
 20
0
 30
0
  0
INSERT
  8
LAYER_2
  2
AIGNBL020300AF
 10
0
 20
0
 30
0
  0
INSERT
  8
LAYER_2
  2
AIGNBL020300B0
 10
0
 20
0
 30
0
  0
ENDBLK
  0
BLOCK
  8
LAYER_2
  2
AIGNBL020200B1
 70
64
 10
0
 20
0
 30
0
  3
AIGNBL020200B1
  0
INSERT
  8
LAYER_2
  2
AIGNBL020300B2
 10
0
 20
0
 30
0
  0
INSERT
  8
LAYER_2
  2
AIGNBL020300B3
 10
0
 20
0
 30
0
  0
INSERT
  8
LAYER_2
  2
AIGNBL020300B4
 10
0
 20
0
 30
0
  0
ENDBLK
  0
BLOCK
  8
LAYER_2
  2
AIGNBL020200B5
 70
64
 10
0
 20
0
 30
0
  3
AIGNBL020200B5
  0
TEXT
  8
LAYER_2
 10
75.8756
 20
191.7929
 11
75.8756
 21
191.7929
 40
4.4427
 41
0.5
  1
レバー　約100°
  0
ENDBLK
  0
BLOCK
  8
LAYER_2
  2
AIGNBL020200B6
 70
64
 10
0
 20
0
 30
0
  3
AIGNBL020200B6
  0
ENDBLK
  0
BLOCK
  8
LAYER_2
  2
AIGNBL020200B7
 70
64
 10
0
 20
0
 30
0
  3
AIGNBL020200B7
  0
ENDBLK
  0
BLOCK
  8
LAYER_2
  2
AIGNBL020200B8
 70
64
 10
0
 20
0
 30
0
  3
AIGNBL020200B8
  0
ENDBLK
  0
BLOCK
  8
LAYER_2
  2
AIGNBL020200B9
 70
64
 10
0
 20
0
 30
0
  3
AIGNBL020200B9
  0
ENDBLK
  0
BLOCK
  8
LAYER_2
  2
AIGNBL020200BA
 70
64
 10
0
 20
0
 30
0
  3
AIGNBL020200BA
  0
ENDBLK
  0
BLOCK
  8
LAYER_2
  2
AIGNBL020200BC
 70
64
 10
0
 20
0
 30
0
  3
AIGNBL020200BC
  0
POLYLINE
  8
LAYER_2
 40
0.2469
 41
0.2469
 66
1
 10
0
 20
0
 30
0
  0
VERTEX
  8
LAYER_2
 10
172.0722
 20
137.3594
  0
VERTEX
  8
LAYER_2
 10
184.9017
 20
137.3594
  0
SEQEND
  0
ENDBLK
  0
BLOCK
  8
LAYER_2
  2
AIGNBL020200BD
 70
64
 10
0
 20
0
 30
0
  3
AIGNBL020200BD
  0
POLYLINE
  8
LAYER_2
 40
0.2469
 41
0.2469
 66
1
 10
0
 20
0
 30
0
  0
VERTEX
  8
LAYER_2
 10
172.0722
 20
128.9596
  0
VERTEX
  8
LAYER_2
 10
184.9017
 20
128.9596
  0
SEQEND
  0
ENDBLK
  0
BLOCK
  8
LAYER_2
  2
AIGNBL020200BE
 70
64
 10
0
 20
0
 30
0
  3
AIGNBL020200BE
  0
POLYLINE
  8
LAYER_2
 40
0.2469
 41
0.2469
 66
1
 10
0
 20
0
 30
0
  0
VERTEX
  8
LAYER_2
 10
182.9015
 20
135.8594
  0
VERTEX
  8
LAYER_2
 10
182.9015
 20
130.4596
  0
SEQEND
  0
ENDBLK
  0
BLOCK
  8
LAYER_2
  2
AIGNBL020200BF
 70
64
 10
0
 20
0
 30
0
  3
AIGNBL020200BF
  0
INSERT
  8
LAYER_2
  2
AIGNBL020300C0
 10
0
 20
0
 30
0
  0
INSERT
  8
LAYER_2
  2
AIGNBL020300C1
 10
0
 20
0
 30
0
  0
INSERT
  8
LAYER_2
  2
AIGNBL020300C2
 10
0
 20
0
 30
0
  0
ENDBLK
  0
BLOCK
  8
LAYER_2
  2
AIGNBL020200C3
 70
64
 10
0
 20
0
 30
0
  3
AIGNBL020200C3
  0
INSERT
  8
LAYER_2
  2
AIGNBL020300C4
 10
0
 20
0
 30
0
  0
INSERT
  8
LAYER_2
  2
AIGNBL020300C5
 10
0
 20
0
 30
0
  0
INSERT
  8
LAYER_2
  2
AIGNBL020300C6
 10
0
 20
0
 30
0
  0
ENDBLK
  0
BLOCK
  8
LAYER_2
  2
AIGNBL020200C7
 70
64
 10
0
 20
0
 30
0
  3
AIGNBL020200C7
  0
TEXT
  8
LAYER_2
 10
182.4144
 20
130.3958
 11
182.4144
 21
130.3958
 40
4.4427
 41
0.5
 50
89.99999999
  1
42
  0
ENDBLK
  0
BLOCK
  8
LAYER_2
  2
AIGNBL020200C8
 70
64
 10
0
 20
0
 30
0
  3
AIGNBL020200C8
  0
ENDBLK
  0
BLOCK
  8
LAYER_2
  2
AIGNBL020200C9
 70
64
 10
0
 20
0
 30
0
  3
AIGNBL020200C9
  0
ENDBLK
  0
BLOCK
  8
LAYER_2
  2
AIGNBL020200CA
 70
64
 10
0
 20
0
 30
0
  3
AIGNBL020200CA
  0
ENDBLK
  0
BLOCK
  8
LAYER_2
  2
AIGNBL020200CC
 70
64
 10
0
 20
0
 30
0
  3
AIGNBL020200CC
  0
POLYLINE
  8
LAYER_2
 40
0.2469
 41
0.2469
 66
1
 10
0
 20
0
 30
0
  0
VERTEX
  8
LAYER_2
 10
71.6619
 20
215.1676
  0
VERTEX
  8
LAYER_2
 10
71.6619
 20
234.1034
  0
SEQEND
  0
ENDBLK
  0
BLOCK
  8
LAYER_2
  2
AIGNBL020200CD
 70
64
 10
0
 20
0
 30
0
  3
AIGNBL020200CD
  0
POLYLINE
  8
LAYER_2
 40
0.2469
 41
0.2469
 66
1
 10
0
 20
0
 30
0
  0
VERTEX
  8
LAYER_2
 10
84.7581
 20
224.8531
  0
VERTEX
  8
LAYER_2
 10
84.7581
 20
234.1034
  0
SEQEND
  0
ENDBLK
  0
BLOCK
  8
LAYER_2
  2
AIGNBL020200CE
 70
64
 10
0
 20
0
 30
0
  3
AIGNBL020200CE
  0
POLYLINE
  8
LAYER_2
 40
0.2469
 41
0.2469
 66
1
 10
0
 20
0
 30
0
  0
VERTEX
  8
LAYER_2
 10
73.1619
 20
232.1033
  0
VERTEX
  8
LAYER_2
 10
83.2581
 20
232.1033
  0
SEQEND
  0
ENDBLK
  0
BLOCK
  8
LAYER_2
  2
AIGNBL020200CF
 70
64
 10
0
 20
0
 30
0
  3
AIGNBL020200CF
  0
INSERT
  8
LAYER_2
  2
AIGNBL020300D0
 10
0
 20
0
 30
0
  0
INSERT
  8
LAYER_2
  2
AIGNBL020300D1
 10
0
 20
0
 30
0
  0
INSERT
  8
LAYER_2
  2
AIGNBL020300D2
 10
0
 20
0
 30
0
  0
ENDBLK
  0
BLOCK
  8
LAYER_2
  2
AIGNBL020200D3
 70
64
 10
0
 20
0
 30
0
  3
AIGNBL020200D3
  0
INSERT
  8
LAYER_2
  2
AIGNBL020300D4
 10
0
 20
0
 30
0
  0
INSERT
  8
LAYER_2
  2
AIGNBL020300D5
 10
0
 20
0
 30
0
  0
INSERT
  8
LAYER_2
  2
AIGNBL020300D6
 10
0
 20
0
 30
0
  0
ENDBLK
  0
BLOCK
  8
LAYER_2
  2
AIGNBL020200D7
 70
64
 10
0
 20
0
 30
0
  3
AIGNBL020200D7
  0
TEXT
  8
LAYER_2
 10
72.126
 20
232.7035
 11
72.126
 21
232.7035
 40
4.4427
 41
0.5
  1
（65）
  0
ENDBLK
  0
BLOCK
  8
LAYER_2
  2
AIGNBL020200D8
 70
64
 10
0
 20
0
 30
0
  3
AIGNBL020200D8
  0
ENDBLK
  0
BLOCK
  8
LAYER_2
  2
AIGNBL020200D9
 70
64
 10
0
 20
0
 30
0
  3
AIGNBL020200D9
  0
ENDBLK
  0
BLOCK
  8
LAYER_2
  2
AIGNBL020200DA
 70
64
 10
0
 20
0
 30
0
  3
AIGNBL020200DA
  0
ENDBLK
  0
BLOCK
  8
LAYER_2
  2
AIGNBL020200DC
 70
64
 10
0
 20
0
 30
0
  3
AIGNBL020200DC
  0
POLYLINE
  8
LAYER_2
 40
0.2469
 41
0.2469
 66
1
 10
0
 20
0
 30
0
  0
VERTEX
  8
LAYER_2
 10
97.8554
 20
215.1672
  0
VERTEX
  8
LAYER_2
 10
97.8554
 20
234.1034
  0
SEQEND
  0
ENDBLK
  0
BLOCK
  8
LAYER_2
  2
AIGNBL020200DD
 70
64
 10
0
 20
0
 30
0
  3
AIGNBL020200DD
  0
POLYLINE
  8
LAYER_2
 40
0.2469
 41
0.2469
 66
1
 10
0
 20
0
 30
0
  0
VERTEX
  8
LAYER_2
 10
84.7581
 20
224.8531
  0
VERTEX
  8
LAYER_2
 10
84.7581
 20
234.1034
  0
SEQEND
  0
ENDBLK
  0
BLOCK
  8
LAYER_2
  2
AIGNBL020200DE
 70
64
 10
0
 20
0
 30
0
  3
AIGNBL020200DE
  0
POLYLINE
  8
LAYER_2
 40
0.2469
 41
0.2469
 66
1
 10
0
 20
0
 30
0
  0
VERTEX
  8
LAYER_2
 10
96.3554
 20
232.1033
  0
VERTEX
  8
LAYER_2
 10
86.2581
 20
232.1033
  0
SEQEND
  0
ENDBLK
  0
BLOCK
  8
LAYER_2
  2
AIGNBL020200DF
 70
64
 10
0
 20
0
 30
0
  3
AIGNBL020200DF
  0
INSERT
  8
LAYER_2
  2
AIGNBL020300E0
 10
0
 20
0
 30
0
  0
INSERT
  8
LAYER_2
  2
AIGNBL020300E1
 10
0
 20
0
 30
0
  0
INSERT
  8
LAYER_2
  2
AIGNBL020300E2
 10
0
 20
0
 30
0
  0
ENDBLK
  0
BLOCK
  8
LAYER_2
  2
AIGNBL020200E3
 70
64
 10
0
 20
0
 30
0
  3
AIGNBL020200E3
  0
INSERT
  8
LAYER_2
  2
AIGNBL020300E4
 10
0
 20
0
 30
0
  0
INSERT
  8
LAYER_2
  2
AIGNBL020300E5
 10
0
 20
0
 30
0
  0
INSERT
  8
LAYER_2
  2
AIGNBL020300E6
 10
0
 20
0
 30
0
  0
ENDBLK
  0
BLOCK
  8
LAYER_2
  2
AIGNBL020200E7
 70
64
 10
0
 20
0
 30
0
  3
AIGNBL020200E7
  0
TEXT
  8
LAYER_2
 10
85.2227
 20
232.7035
 11
85.2227
 21
232.7035
 40
4.4427
 41
0.5
  1
（65）
  0
ENDBLK
  0
BLOCK
  8
LAYER_2
  2
AIGNBL020200E8
 70
64
 10
0
 20
0
 30
0
  3
AIGNBL020200E8
  0
ENDBLK
  0
BLOCK
  8
LAYER_2
  2
AIGNBL020200E9
 70
64
 10
0
 20
0
 30
0
  3
AIGNBL020200E9
  0
ENDBLK
  0
BLOCK
  8
LAYER_2
  2
AIGNBL020200EA
 70
64
 10
0
 20
0
 30
0
  3
AIGNBL020200EA
  0
ENDBLK
  0
BLOCK
  8
LAYER_2
  2
AIGNBL020200F4
 70
64
 10
0
 20
0
 30
0
  3
AIGNBL020200F4
  0
POLYLINE
  8
LAYER_2
 40
0.2469
 41
0.2469
 66
1
 10
0
 20
0
 30
0
  0
VERTEX
  8
LAYER_2
 10
171.3756
 20
124.4641
 42
0.2639010408
  0
VERTEX
  8
LAYER_2
 10
172.0722
 20
124.4641
  0
SEQEND
  0
ENDBLK
  0
BLOCK
  8
LAYER_2
  2
AIGNBL020200F5
 70
64
 10
0
 20
0
 30
0
  3
AIGNBL020200F5
  0
POLYLINE
  8
LAYER_2
 40
0.2469
 41
0.2469
 66
1
 10
0
 20
0
 30
0
  0
VERTEX
  8
LAYER_2
 10
172.7688
 20
124.4641
 42
0.2638750314
  0
VERTEX
  8
LAYER_2
 10
172.0722
 20
124.4641
  0
SEQEND
  0
ENDBLK
  0
BLOCK
  8
LAYER_2
  2
AIGNBL020200F6
 70
64
 10
0
 20
0
 30
0
  3
AIGNBL020200F6
  0
POLYLINE
  8
LAYER_2
 40
0.2469
 41
0.2469
 66
1
 10
0
 20
0
 30
0
  0
VERTEX
  8
LAYER_2
 10
172.0722
 20
124.4641
 42
0.2639010408
  0
VERTEX
  8
LAYER_2
 10
172.7688
 20
124.4641
  0
SEQEND
  0
ENDBLK
  0
BLOCK
  8
LAYER_2
  2
AIGNBL020200FE
 70
64
 10
0
 20
0
 30
0
  3
AIGNBL020200FE
  0
POLYLINE
  8
LAYER_2
 40
0.05
 41
0.05
 66
1
 10
0
 20
0
 30
0
 70
1
  0
VERTEX
  8
LAYER_2
 10
81.0746
 20
224.3941
  0
VERTEX
  8
LAYER_2
 10
81.2579
 20
224.3941
  0
VERTEX
  8
LAYER_2
 10
81.2579
 20
224.4511
  0
VERTEX
  8
LAYER_2
 10
80.9134
 20
224.4511
  0
SEQEND
  0
POLYLINE
  8
LAYER_2
 40
0.05
 41
0.05
 66
1
 10
0
 20
0
 30
0
 70
1
  0
VERTEX
  8
LAYER_2
 10
80.9134
 20
224.7163
  0
VERTEX
  8
LAYER_2
 10
80.9134
 20
224.4511
  0
VERTEX
  8
LAYER_2
 10
81.2579
 20
224.4511
  0
SEQEND
  0
POLYLINE
  8
LAYER_2
 40
0.05
 41
0.05
 66
1
 10
0
 20
0
 30
0
 70
1
  0
VERTEX
  8
LAYER_2
 10
81.4412
 20
224.5396
  0
VERTEX
  8
LAYER_2
 10
81.2579
 20
224.5396
  0
VERTEX
  8
LAYER_2
 10
81.2579
 20
224.4511
  0
VERTEX
  8
LAYER_2
 10
81.6045
 20
224.4511
  0
SEQEND
  0
POLYLINE
  8
LAYER_2
 40
0.05
 41
0.05
 66
1
 10
0
 20
0
 30
0
 70
1
  0
VERTEX
  8
LAYER_2
 10
81.2579
 20
224.3941
  0
VERTEX
  8
LAYER_2
 10
81.4412
 20
224.3941
  0
SEQEND
  0
ENDBLK
  0
BLOCK
  8
LAYER_2
  2
AIGNBL02020100
 70
64
 10
0
 20
0
 30
0
  3
AIGNBL02020100
  0
POLYLINE
  8
LAYER_2
 40
0.05
 41
0.05
 66
1
 10
0
 20
0
 30
0
 70
1
  0
VERTEX
  8
LAYER_2
 10
88.4265
 20
224.581
  0
VERTEX
  8
LAYER_2
 10
88.5953
 20
224.6161
  0
SEQEND
  0
POLYLINE
  8
LAYER_2
 40
0.05
 41
0.05
 66
1
 10
0
 20
0
 30
0
 70
1
  0
VERTEX
  8
LAYER_2
 10
88.3672
 20
224.851
  0
VERTEX
  8
LAYER_2
 10
88.3534
 20
224.8543
  0
SEQEND
  0
POLYLINE
  8
LAYER_2
 40
0.05
 41
0.05
 66
1
 10
0
 20
0
 30
0
 70
1
  0
VERTEX
  8
LAYER_2
 10
88.257
 20
224.8638
  0
VERTEX
  8
LAYER_2
 10
88.1457
 20
224.851
  0
VERTEX
  8
LAYER_2
 10
88.258
 20
224.851
  0
VERTEX
  8
LAYER_2
 10
88.258
 20
224.8638
  0
SEQEND
  0
POLYLINE
  8
LAYER_2
 40
0.05
 41
0.05
 66
1
 10
0
 20
0
 30
0
 70
1
  0
VERTEX
  8
LAYER_2
 10
88.0709
 20
224.5952
  0
VERTEX
  8
LAYER_2
 10
88.1157
 20
224.666
  0
SEQEND
  0
POLYLINE
  8
LAYER_2
 40
0.05
 41
0.05
 66
1
 10
0
 20
0
 30
0
 70
1
  0
VERTEX
  8
LAYER_2
 10
88.3738
 20
224.0401
  0
VERTEX
  8
LAYER_2
 10
88.4678
 20
224.079
  0
SEQEND
  0
POLYLINE
  8
LAYER_2
 40
0.05
 41
0.05
 66
1
 10
0
 20
0
 30
0
 70
1
  0
VERTEX
  8
LAYER_2
 10
88.0558
 20
224.0752
 42
0.1275321982
  0
VERTEX
  8
LAYER_2
 10
88.258
 20
224.0265
  0
VERTEX
  8
LAYER_2
 10
88.258
 20
224.1693
  0
SEQEND
  0
ENDBLK
  0
BLOCK
  8
LAYER_2
  2
AIGNBL0202010B
 70
64
 10
0
 20
0
 30
0
  3
AIGNBL0202010B
  0
POLYLINE
  8
LAYER_2
 40
0.2469
 41
0.2469
 66
1
 10
0
 20
0
 30
0
  0
VERTEX
  8
LAYER_2
 10
85.5591
 20
116.7539
  0
VERTEX
  8
LAYER_2
 10
87.0591
 20
116.5042
  0
SEQEND
  0
ENDBLK
  0
BLOCK
  8
LAYER_2
  2
AIGNBL0202010C
 70
64
 10
0
 20
0
 30
0
  3
AIGNBL0202010C
  0
POLYLINE
  8
LAYER_2
 40
0.2469
 41
0.2469
 66
1
 10
0
 20
0
 30
0
  0
VERTEX
  8
LAYER_2
 10
87.0591
 20
116.5042
  0
VERTEX
  8
LAYER_2
 10
85.5591
 20
116.2541
  0
SEQEND
  0
ENDBLK
  0
BLOCK
  8
LAYER_2
  2
AIGNBL0202010D
 70
64
 10
0
 20
0
 30
0
  3
AIGNBL0202010D
  0
POLYLINE
  8
LAYER_2
 40
0.2469
 41
0.2469
 66
1
 10
0
 20
0
 30
0
  0
VERTEX
  8
LAYER_2
 10
87.0591
 20
116.5042
  0
VERTEX
  8
LAYER_2
 10
85.5591
 20
116.5042
  0
SEQEND
  0
ENDBLK
  0
BLOCK
  8
LAYER_2
  2
AIGNBL0202010F
 70
64
 10
0
 20
0
 30
0
  3
AIGNBL0202010F
  0
POLYLINE
  8
LAYER_2
 40
0.2469
 41
0.2469
 66
1
 10
0
 20
0
 30
0
  0
VERTEX
  8
LAYER_2
 10
83.9592
 20
116.2541
  0
VERTEX
  8
LAYER_2
 10
82.4592
 20
116.5042
  0
SEQEND
  0
ENDBLK
  0
BLOCK
  8
LAYER_2
  2
AIGNBL02020110
 70
64
 10
0
 20
0
 30
0
  3
AIGNBL02020110
  0
POLYLINE
  8
LAYER_2
 40
0.2469
 41
0.2469
 66
1
 10
0
 20
0
 30
0
  0
VERTEX
  8
LAYER_2
 10
82.4592
 20
116.5042
  0
VERTEX
  8
LAYER_2
 10
83.9592
 20
116.7539
  0
SEQEND
  0
ENDBLK
  0
BLOCK
  8
LAYER_2
  2
AIGNBL02020111
 70
64
 10
0
 20
0
 30
0
  3
AIGNBL02020111
  0
POLYLINE
  8
LAYER_2
 40
0.2469
 41
0.2469
 66
1
 10
0
 20
0
 30
0
  0
VERTEX
  8
LAYER_2
 10
82.4592
 20
116.5042
  0
VERTEX
  8
LAYER_2
 10
83.9592
 20
116.5042
  0
SEQEND
  0
ENDBLK
  0
BLOCK
  8
LAYER_2
  2
AIGNBL02020118
 70
64
 10
0
 20
0
 30
0
  3
AIGNBL02020118
  0
POLYLINE
  8
LAYER_2
 40
0.2469
 41
0.2469
 66
1
 10
0
 20
0
 30
0
  0
VERTEX
  8
LAYER_2
 10
152.5936
 20
138.6909
  0
VERTEX
  8
LAYER_2
 10
151.0936
 20
138.4377
  0
SEQEND
  0
ENDBLK
  0
BLOCK
  8
LAYER_2
  2
AIGNBL02020119
 70
64
 10
0
 20
0
 30
0
  3
AIGNBL02020119
  0
POLYLINE
  8
LAYER_2
 40
0.2469
 41
0.2469
 66
1
 10
0
 20
0
 30
0
  0
VERTEX
  8
LAYER_2
 10
151.0936
 20
138.4377
  0
VERTEX
  8
LAYER_2
 10
152.5943
 20
138.191
  0
SEQEND
  0
ENDBLK
  0
BLOCK
  8
LAYER_2
  2
AIGNBL0202011A
 70
64
 10
0
 20
0
 30
0
  3
AIGNBL0202011A
  0
POLYLINE
  8
LAYER_2
 40
0.2469
 41
0.2469
 66
1
 10
0
 20
0
 30
0
  0
VERTEX
  8
LAYER_2
 10
151.0936
 20
138.4377
  0
VERTEX
  8
LAYER_2
 10
152.5936
 20
138.4412
  0
SEQEND
  0
ENDBLK
  0
BLOCK
  8
LAYER_2
  2
AIGNBL0202011C
 70
64
 10
0
 20
0
 30
0
  3
AIGNBL0202011C
  0
POLYLINE
  8
LAYER_2
 40
0.2469
 41
0.2469
 66
1
 10
0
 20
0
 30
0
  0
VERTEX
  8
LAYER_2
 10
146.3132
 20
140.0412
  0
VERTEX
  8
LAYER_2
 10
147.6699
 20
139.3548
  0
SEQEND
  0
ENDBLK
  0
BLOCK
  8
LAYER_2
  2
AIGNBL0202011D
 70
64
 10
0
 20
0
 30
0
  3
AIGNBL0202011D
  0
POLYLINE
  8
LAYER_2
 40
0.2469
 41
0.2469
 66
1
 10
0
 20
0
 30
0
  0
VERTEX
  8
LAYER_2
 10
147.6699
 20
139.3548
  0
VERTEX
  8
LAYER_2
 10
146.6088
 20
140.4441
  0
SEQEND
  0
ENDBLK
  0
BLOCK
  8
LAYER_2
  2
AIGNBL0202011E
 70
64
 10
0
 20
0
 30
0
  3
AIGNBL0202011E
  0
POLYLINE
  8
LAYER_2
 40
0.2469
 41
0.2469
 66
1
 10
0
 20
0
 30
0
  0
VERTEX
  8
LAYER_2
 10
147.6699
 20
139.3548
  0
VERTEX
  8
LAYER_2
 10
146.4607
 20
140.2428
  0
SEQEND
  0
ENDBLK
  0
BLOCK
  8
LAYER_2
  2
AIGNBL02020231
 70
64
 10
0
 20
0
 30
0
  3
AIGNBL02020231
  0
POLYLINE
  8
LAYER_2
 40
0.2469
 41
0.2469
 66
1
 10
0
 20
0
 30
0
  0
VERTEX
  8
LAYER_2
 10
86.5155
 20
124.4641
 42
-0.2639010407
  0
VERTEX
  8
LAYER_2
 10
85.8189
 20
124.4641
  0
SEQEND
  0
ENDBLK
  0
BLOCK
  8
LAYER_2
  2
AIGNBL02020232
 70
64
 10
0
 20
0
 30
0
  3
AIGNBL02020232
  0
POLYLINE
  8
LAYER_2
 40
0.2469
 41
0.2469
 66
1
 10
0
 20
0
 30
0
  0
VERTEX
  8
LAYER_2
 10
85.1226
 20
124.4641
 42
-0.2638896977
  0
VERTEX
  8
LAYER_2
 10
85.8189
 20
124.4641
  0
SEQEND
  0
ENDBLK
  0
BLOCK
  8
LAYER_2
  2
AIGNBL02020233
 70
64
 10
0
 20
0
 30
0
  3
AIGNBL02020233
  0
POLYLINE
  8
LAYER_2
 40
0.2469
 41
0.2469
 66
1
 10
0
 20
0
 30
0
  0
VERTEX
  8
LAYER_2
 10
85.8189
 20
124.4641
 42
-0.263915721
  0
VERTEX
  8
LAYER_2
 10
85.1226
 20
124.4641
  0
SEQEND
  0
ENDBLK
  0
BLOCK
  8
LAYER_2
  2
AIGNBL02020235
 70
64
 10
0
 20
0
 30
0
  3
AIGNBL02020235
  0
POLYLINE
  8
LAYER_2
 40
0.2469
 41
0.2469
 66
1
 10
0
 20
0
 30
0
  0
VERTEX
  8
LAYER_2
 10
84.3954
 20
124.4641
 42
-0.2639010404
  0
VERTEX
  8
LAYER_2
 10
83.6988
 20
124.4641
  0
SEQEND
  0
ENDBLK
  0
BLOCK
  8
LAYER_2
  2
AIGNBL02020236
 70
64
 10
0
 20
0
 30
0
  3
AIGNBL02020236
  0
POLYLINE
  8
LAYER_2
 40
0.2469
 41
0.2469
 66
1
 10
0
 20
0
 30
0
  0
VERTEX
  8
LAYER_2
 10
83.0025
 20
124.4641
 42
-0.2638896976
  0
VERTEX
  8
LAYER_2
 10
83.6988
 20
124.4641
  0
SEQEND
  0
ENDBLK
  0
BLOCK
  8
LAYER_2
  2
AIGNBL02020237
 70
64
 10
0
 20
0
 30
0
  3
AIGNBL02020237
  0
POLYLINE
  8
LAYER_2
 40
0.2469
 41
0.2469
 66
1
 10
0
 20
0
 30
0
  0
VERTEX
  8
LAYER_2
 10
83.6988
 20
124.4641
 42
-0.263915721
  0
VERTEX
  8
LAYER_2
 10
83.0025
 20
124.4641
  0
SEQEND
  0
ENDBLK
  0
BLOCK
  8
LAYER_2
  2
AIGNBL0202026E
 70
64
 10
0
 20
0
 30
0
  3
AIGNBL0202026E
  0
POLYLINE
  8
LAYER_2
 40
0.2469
 41
0.2469
 66
1
 10
0
 20
0
 30
0
  0
VERTEX
  8
LAYER_2
 10
173.8285
 20
124.4641
 42
-0.2639010409
  0
VERTEX
  8
LAYER_2
 10
173.1319
 20
124.4641
  0
SEQEND
  0
ENDBLK
  0
BLOCK
  8
LAYER_2
  2
AIGNBL0202026F
 70
64
 10
0
 20
0
 30
0
  3
AIGNBL0202026F
  0
POLYLINE
  8
LAYER_2
 40
0.2469
 41
0.2469
 66
1
 10
0
 20
0
 30
0
  0
VERTEX
  8
LAYER_2
 10
172.436
 20
124.4641
 42
-0.2638713975
  0
VERTEX
  8
LAYER_2
 10
173.1319
 20
124.4641
  0
SEQEND
  0
ENDBLK
  0
BLOCK
  8
LAYER_2
  2
AIGNBL02020270
 70
64
 10
0
 20
0
 30
0
  3
AIGNBL02020270
  0
POLYLINE
  8
LAYER_2
 40
0.2469
 41
0.2469
 66
1
 10
0
 20
0
 30
0
  0
VERTEX
  8
LAYER_2
 10
173.1319
 20
124.4641
 42
-0.2638974324
  0
VERTEX
  8
LAYER_2
 10
172.436
 20
124.4641
  0
SEQEND
  0
ENDBLK
  0
BLOCK
  8
LAYER_2
  2
AIGNBL02020272
 70
64
 10
0
 20
0
 30
0
  3
AIGNBL02020272
  0
POLYLINE
  8
LAYER_2
 40
0.2469
 41
0.2469
 66
1
 10
0
 20
0
 30
0
  0
VERTEX
  8
LAYER_2
 10
171.7084
 20
124.4641
 42
-0.2639010408
  0
VERTEX
  8
LAYER_2
 10
171.0118
 20
124.4641
  0
SEQEND
  0
ENDBLK
  0
BLOCK
  8
LAYER_2
  2
AIGNBL02020273
 70
64
 10
0
 20
0
 30
0
  3
AIGNBL02020273
  0
POLYLINE
  8
LAYER_2
 40
0.2469
 41
0.2469
 66
1
 10
0
 20
0
 30
0
  0
VERTEX
  8
LAYER_2
 10
170.3159
 20
124.4641
 42
-0.2638713973
  0
VERTEX
  8
LAYER_2
 10
171.0118
 20
124.4641
  0
SEQEND
  0
ENDBLK
  0
BLOCK
  8
LAYER_2
  2
AIGNBL02020274
 70
64
 10
0
 20
0
 30
0
  3
AIGNBL02020274
  0
POLYLINE
  8
LAYER_2
 40
0.2469
 41
0.2469
 66
1
 10
0
 20
0
 30
0
  0
VERTEX
  8
LAYER_2
 10
171.0118
 20
124.4641
 42
-0.2638974322
  0
VERTEX
  8
LAYER_2
 10
170.3159
 20
124.4641
  0
SEQEND
  0
ENDBLK
  0
BLOCK
  8
LAYER_2
  2
AIGNBL0202027C
 70
64
 10
0
 20
0
 30
0
  3
AIGNBL0202027C
  0
POLYLINE
  8
LAYER_2
 40
0.2469
 41
0.2469
 66
1
 10
0
 20
0
 30
0
  0
VERTEX
  8
LAYER_2
 10
65.9431
 20
80.1491
 42
0.1712669495
  0
VERTEX
  8
LAYER_2
 10
65.243
 20
80.1491
  0
SEQEND
  0
ENDBLK
  0
BLOCK
  8
LAYER_2
  2
AIGNBL0202027D
 70
64
 10
0
 20
0
 30
0
  3
AIGNBL0202027D
  0
POLYLINE
  8
LAYER_2
 40
0.2469
 41
0.2469
 66
1
 10
0
 20
0
 30
0
  0
VERTEX
  8
LAYER_2
 10
64.543
 20
80.1491
 42
0.1719971125
  0
VERTEX
  8
LAYER_2
 10
65.243
 20
80.1491
  0
SEQEND
  0
ENDBLK
  0
BLOCK
  8
LAYER_2
  2
AIGNBL0202027E
 70
64
 10
0
 20
0
 30
0
  3
AIGNBL0202027E
  0
POLYLINE
  8
LAYER_2
 40
0.2469
 41
0.2469
 66
1
 10
0
 20
0
 30
0
  0
VERTEX
  8
LAYER_2
 10
65.243
 20
80.1491
 42
0.1713053259
  0
VERTEX
  8
LAYER_2
 10
64.543
 20
80.1491
  0
SEQEND
  0
ENDBLK
  0
BLOCK
  8
LAYER_2
  2
AIGNBL02020284
 70
64
 10
0
 20
0
 30
0
  3
AIGNBL02020284
  0
POLYLINE
  8
LAYER_2
 40
0.2469
 41
0.2469
 66
1
 10
0
 20
0
 30
0
  0
VERTEX
  8
LAYER_2
 10
65.9431
 20
75.3243
 42
0.1712577952
  0
VERTEX
  8
LAYER_2
 10
65.243
 20
75.3243
  0
SEQEND
  0
ENDBLK
  0
BLOCK
  8
LAYER_2
  2
AIGNBL02020285
 70
64
 10
0
 20
0
 30
0
  3
AIGNBL02020285
  0
POLYLINE
  8
LAYER_2
 40
0.2469
 41
0.2469
 66
1
 10
0
 20
0
 30
0
  0
VERTEX
  8
LAYER_2
 10
64.543
 20
75.3243
 42
0.1713102649
  0
VERTEX
  8
LAYER_2
 10
65.243
 20
75.3243
  0
SEQEND
  0
ENDBLK
  0
BLOCK
  8
LAYER_2
  2
AIGNBL02020286
 70
64
 10
0
 20
0
 30
0
  3
AIGNBL02020286
  0
POLYLINE
  8
LAYER_2
 40
0.2469
 41
0.2469
 66
1
 10
0
 20
0
 30
0
  0
VERTEX
  8
LAYER_2
 10
65.243
 20
75.3243
 42
0.1712961664
  0
VERTEX
  8
LAYER_2
 10
64.543
 20
75.3243
  0
SEQEND
  0
ENDBLK
  0
BLOCK
  8
LAYER_2
  2
AIGNBL02020288
 70
64
 10
0
 20
0
 30
0
  3
AIGNBL02020288
  0
POLYLINE
  8
LAYER_2
 40
0.2469
 41
0.2469
 66
1
 10
0
 20
0
 30
0
  0
VERTEX
  8
LAYER_2
 10
64.543
 20
76.0774
 42
0.1713106114
  0
VERTEX
  8
LAYER_2
 10
65.243
 20
76.0774
  0
SEQEND
  0
ENDBLK
  0
BLOCK
  8
LAYER_2
  2
AIGNBL02020289
 70
64
 10
0
 20
0
 30
0
  3
AIGNBL02020289
  0
POLYLINE
  8
LAYER_2
 40
0.2469
 41
0.2469
 66
1
 10
0
 20
0
 30
0
  0
VERTEX
  8
LAYER_2
 10
65.9431
 20
76.0774
 42
0.1719532774
  0
VERTEX
  8
LAYER_2
 10
65.243
 20
76.0774
  0
SEQEND
  0
ENDBLK
  0
BLOCK
  8
LAYER_2
  2
AIGNBL0202028A
 70
64
 10
0
 20
0
 30
0
  3
AIGNBL0202028A
  0
POLYLINE
  8
LAYER_2
 40
0.2469
 41
0.2469
 66
1
 10
0
 20
0
 30
0
  0
VERTEX
  8
LAYER_2
 10
65.243
 20
76.0774
 42
0.1712722319
  0
VERTEX
  8
LAYER_2
 10
65.9431
 20
76.0774
  0
SEQEND
  0
ENDBLK
  0
BLOCK
  8
LAYER_2
  2
AIGNBL0202028E
 70
64
 10
0
 20
0
 30
0
  3
AIGNBL0202028E
  0
POLYLINE
  8
LAYER_2
 40
0.2469
 41
0.2469
 66
1
 10
0
 20
0
 30
0
  0
VERTEX
  8
LAYER_2
 10
104.9808
 20
80.1491
 42
0.1713770466
  0
VERTEX
  8
LAYER_2
 10
104.2811
 20
80.1491
  0
SEQEND
  0
ENDBLK
  0
BLOCK
  8
LAYER_2
  2
AIGNBL0202028F
 70
64
 10
0
 20
0
 30
0
  3
AIGNBL0202028F
  0
POLYLINE
  8
LAYER_2
 40
0.2469
 41
0.2469
 66
1
 10
0
 20
0
 30
0
  0
VERTEX
  8
LAYER_2
 10
103.5811
 20
80.1491
 42
0.1719355309
  0
VERTEX
  8
LAYER_2
 10
104.2811
 20
80.1491
  0
SEQEND
  0
ENDBLK
  0
BLOCK
  8
LAYER_2
  2
AIGNBL02020290
 70
64
 10
0
 20
0
 30
0
  3
AIGNBL02020290
  0
POLYLINE
  8
LAYER_2
 40
0.2469
 41
0.2469
 66
1
 10
0
 20
0
 30
0
  0
VERTEX
  8
LAYER_2
 10
104.2811
 20
80.1491
 42
0.1712439614
  0
VERTEX
  8
LAYER_2
 10
103.5811
 20
80.1491
  0
SEQEND
  0
ENDBLK
  0
BLOCK
  8
LAYER_2
  2
AIGNBL02020296
 70
64
 10
0
 20
0
 30
0
  3
AIGNBL02020296
  0
POLYLINE
  8
LAYER_2
 40
0.2469
 41
0.2469
 66
1
 10
0
 20
0
 30
0
  0
VERTEX
  8
LAYER_2
 10
104.9808
 20
75.3243
 42
0.1713678756
  0
VERTEX
  8
LAYER_2
 10
104.2811
 20
75.3243
  0
SEQEND
  0
ENDBLK
  0
BLOCK
  8
LAYER_2
  2
AIGNBL02020297
 70
64
 10
0
 20
0
 30
0
  3
AIGNBL02020297
  0
POLYLINE
  8
LAYER_2
 40
0.2469
 41
0.2469
 66
1
 10
0
 20
0
 30
0
  0
VERTEX
  8
LAYER_2
 10
103.5811
 20
75.3243
 42
0.171248897
  0
VERTEX
  8
LAYER_2
 10
104.2811
 20
75.3243
  0
SEQEND
  0
ENDBLK
  0
BLOCK
  8
LAYER_2
  2
AIGNBL02020298
 70
64
 10
0
 20
0
 30
0
  3
AIGNBL02020298
  0
POLYLINE
  8
LAYER_2
 40
0.2469
 41
0.2469
 66
1
 10
0
 20
0
 30
0
  0
VERTEX
  8
LAYER_2
 10
104.2811
 20
75.3243
 42
0.1712348082
  0
VERTEX
  8
LAYER_2
 10
103.5811
 20
75.3243
  0
SEQEND
  0
ENDBLK
  0
BLOCK
  8
LAYER_2
  2
AIGNBL0202029A
 70
64
 10
0
 20
0
 30
0
  3
AIGNBL0202029A
  0
POLYLINE
  8
LAYER_2
 40
0.2469
 41
0.2469
 66
1
 10
0
 20
0
 30
0
  0
VERTEX
  8
LAYER_2
 10
103.5811
 20
76.0774
 42
0.1712492432
  0
VERTEX
  8
LAYER_2
 10
104.2811
 20
76.0774
  0
SEQEND
  0
ENDBLK
  0
BLOCK
  8
LAYER_2
  2
AIGNBL0202029B
 70
64
 10
0
 20
0
 30
0
  3
AIGNBL0202029B
  0
POLYLINE
  8
LAYER_2
 40
0.2469
 41
0.2469
 66
1
 10
0
 20
0
 30
0
  0
VERTEX
  8
LAYER_2
 10
104.9808
 20
76.0774
 42
0.1720637515
  0
VERTEX
  8
LAYER_2
 10
104.2811
 20
76.0774
  0
SEQEND
  0
ENDBLK
  0
BLOCK
  8
LAYER_2
  2
AIGNBL0202029C
 70
64
 10
0
 20
0
 30
0
  3
AIGNBL0202029C
  0
POLYLINE
  8
LAYER_2
 40
0.2469
 41
0.2469
 66
1
 10
0
 20
0
 30
0
  0
VERTEX
  8
LAYER_2
 10
104.2811
 20
76.0774
 42
0.1713823386
  0
VERTEX
  8
LAYER_2
 10
104.9808
 20
76.0774
  0
SEQEND
  0
ENDBLK
  0
BLOCK
  8
LAYER_2
  2
AIGNBL0202029E
 70
64
 10
0
 20
0
 30
0
  3
AIGNBL0202029E
  0
POLYLINE
  8
LAYER_2
 40
0.2469
 41
0.2469
 66
1
 10
0
 20
0
 30
0
  0
VERTEX
  8
LAYER_2
 10
172.7722
 20
80.1491
 42
0.1711211606
  0
VERTEX
  8
LAYER_2
 10
172.0722
 20
80.1491
  0
SEQEND
  0
ENDBLK
  0
BLOCK
  8
LAYER_2
  2
AIGNBL0202029F
 70
64
 10
0
 20
0
 30
0
  3
AIGNBL0202029F
  0
POLYLINE
  8
LAYER_2
 40
0.2469
 41
0.2469
 66
1
 10
0
 20
0
 30
0
  0
VERTEX
  8
LAYER_2
 10
171.3721
 20
80.1491
 42
0.1720822766
  0
VERTEX
  8
LAYER_2
 10
172.0722
 20
80.1491
  0
SEQEND
  0
ENDBLK
  0
BLOCK
  8
LAYER_2
  2
AIGNBL020202A0
 70
64
 10
0
 20
0
 30
0
  3
AIGNBL020202A0
  0
POLYLINE
  8
LAYER_2
 40
0.2469
 41
0.2469
 66
1
 10
0
 20
0
 30
0
  0
VERTEX
  8
LAYER_2
 10
172.0722
 20
80.1491
 42
0.1713901898
  0
VERTEX
  8
LAYER_2
 10
171.3721
 20
80.1491
  0
SEQEND
  0
ENDBLK
  0
BLOCK
  8
LAYER_2
  2
AIGNBL020202A6
 70
64
 10
0
 20
0
 30
0
  3
AIGNBL020202A6
  0
POLYLINE
  8
LAYER_2
 40
0.2469
 41
0.2469
 66
1
 10
0
 20
0
 30
0
  0
VERTEX
  8
LAYER_2
 10
172.7722
 20
75.3243
 42
0.1711120201
  0
VERTEX
  8
LAYER_2
 10
172.0722
 20
75.3243
  0
SEQEND
  0
ENDBLK
  0
BLOCK
  8
LAYER_2
  2
AIGNBL020202A7
 70
64
 10
0
 20
0
 30
0
  3
AIGNBL020202A7
  0
POLYLINE
  8
LAYER_2
 40
0.2469
 41
0.2469
 66
1
 10
0
 20
0
 30
0
  0
VERTEX
  8
LAYER_2
 10
171.3721
 20
75.3243
 42
0.1713951328
  0
VERTEX
  8
LAYER_2
 10
172.0722
 20
75.3243
  0
SEQEND
  0
ENDBLK
  0
BLOCK
  8
LAYER_2
  2
AIGNBL020202A8
 70
64
 10
0
 20
0
 30
0
  3
AIGNBL020202A8
  0
POLYLINE
  8
LAYER_2
 40
0.2469
 41
0.2469
 66
1
 10
0
 20
0
 30
0
  0
VERTEX
  8
LAYER_2
 10
172.0722
 20
75.3243
 42
0.1713810227
  0
VERTEX
  8
LAYER_2
 10
171.3721
 20
75.3243
  0
SEQEND
  0
ENDBLK
  0
BLOCK
  8
LAYER_2
  2
AIGNBL020202AA
 70
64
 10
0
 20
0
 30
0
  3
AIGNBL020202AA
  0
POLYLINE
  8
LAYER_2
 40
0.2469
 41
0.2469
 66
1
 10
0
 20
0
 30
0
  0
VERTEX
  8
LAYER_2
 10
171.3721
 20
76.0774
 42
0.1713954796
  0
VERTEX
  8
LAYER_2
 10
172.0722
 20
76.0774
  0
SEQEND
  0
ENDBLK
  0
BLOCK
  8
LAYER_2
  2
AIGNBL020202AB
 70
64
 10
0
 20
0
 30
0
  3
AIGNBL020202AB
  0
POLYLINE
  8
LAYER_2
 40
0.2469
 41
0.2469
 66
1
 10
0
 20
0
 30
0
  0
VERTEX
  8
LAYER_2
 10
172.7722
 20
76.0774
 42
0.1718069804
  0
VERTEX
  8
LAYER_2
 10
172.0722
 20
76.0774
  0
SEQEND
  0
ENDBLK
  0
BLOCK
  8
LAYER_2
  2
AIGNBL020202AC
 70
64
 10
0
 20
0
 30
0
  3
AIGNBL020202AC
  0
POLYLINE
  8
LAYER_2
 40
0.2469
 41
0.2469
 66
1
 10
0
 20
0
 30
0
  0
VERTEX
  8
LAYER_2
 10
172.0722
 20
76.0774
 42
0.171126435
  0
VERTEX
  8
LAYER_2
 10
172.7722
 20
76.0774
  0
SEQEND
  0
ENDBLK
  0
BLOCK
  8
LAYER_2
  2
AIGNBL020202B1
 70
64
 10
0
 20
0
 30
0
  3
AIGNBL020202B1
  0
POLYLINE
  8
LAYER_2
 40
0.2469
 41
0.2469
 66
1
 10
0
 20
0
 30
0
  0
VERTEX
  8
LAYER_2
 10
172.7722
 20
75.3243
 42
0.1711120201
  0
VERTEX
  8
LAYER_2
 10
172.0722
 20
75.3243
  0
SEQEND
  0
ENDBLK
  0
BLOCK
  8
LAYER_2
  2
AIGNBL020202B2
 70
64
 10
0
 20
0
 30
0
  3
AIGNBL020202B2
  0
POLYLINE
  8
LAYER_2
 40
0.2469
 41
0.2469
 66
1
 10
0
 20
0
 30
0
  0
VERTEX
  8
LAYER_2
 10
171.3721
 20
75.3243
 42
0.1711491445
  0
VERTEX
  8
LAYER_2
 10
172.0722
 20
75.3243
  0
SEQEND
  0
ENDBLK
  0
BLOCK
  8
LAYER_2
  2
AIGNBL020202B3
 70
64
 10
0
 20
0
 30
0
  3
AIGNBL020202B3
  0
POLYLINE
  8
LAYER_2
 40
0.2469
 41
0.2469
 66
1
 10
0
 20
0
 30
0
  0
VERTEX
  8
LAYER_2
 10
172.0722
 20
75.3243
 42
0.1711350737
  0
VERTEX
  8
LAYER_2
 10
171.3721
 20
75.3243
  0
SEQEND
  0
ENDBLK
  0
BLOCK
  8
LAYER_2
  2
AIGNBL020202B5
 70
64
 10
0
 20
0
 30
0
  3
AIGNBL020202B5
  0
POLYLINE
  8
LAYER_2
 40
0.2469
 41
0.2469
 66
1
 10
0
 20
0
 30
0
  0
VERTEX
  8
LAYER_2
 10
171.3721
 20
76.0774
 42
0.1711494903
  0
VERTEX
  8
LAYER_2
 10
172.0722
 20
76.0774
  0
SEQEND
  0
ENDBLK
  0
BLOCK
  8
LAYER_2
  2
AIGNBL020202B6
 70
64
 10
0
 20
0
 30
0
  3
AIGNBL020202B6
  0
POLYLINE
  8
LAYER_2
 40
0.2469
 41
0.2469
 66
1
 10
0
 20
0
 30
0
  0
VERTEX
  8
LAYER_2
 10
172.7722
 20
76.0774
 42
0.1718069804
  0
VERTEX
  8
LAYER_2
 10
172.0722
 20
76.0774
  0
SEQEND
  0
ENDBLK
  0
BLOCK
  8
LAYER_2
  2
AIGNBL020202B7
 70
64
 10
0
 20
0
 30
0
  3
AIGNBL020202B7
  0
POLYLINE
  8
LAYER_2
 40
0.2469
 41
0.2469
 66
1
 10
0
 20
0
 30
0
  0
VERTEX
  8
LAYER_2
 10
172.0722
 20
76.0774
 42
0.171126435
  0
VERTEX
  8
LAYER_2
 10
172.7722
 20
76.0774
  0
SEQEND
  0
ENDBLK
  0
BLOCK
  8
LAYER_7
  2
AIGNBL07020004
 70
64
 10
0
 20
0
 30
0
  3
AIGNBL07020004
  0
INSERT
  8
LAYER_7
  2
AIGNBL07030005
 10
0
 20
0
 30
0
  0
ENDBLK
  0
BLOCK
  8
LAYER_7
  2
AIGNBL0702000D
 70
64
 10
0
 20
0
 30
0
  3
AIGNBL0702000D
  0
INSERT
  8
LAYER_7
  2
AIGNBL0703000E
 10
0
 20
0
 30
0
  0
INSERT
  8
LAYER_7
  2
AIGNBL0703000F
 10
0
 20
0
 30
0
  0
INSERT
  8
LAYER_7
  2
AIGNBL07030010
 10
0
 20
0
 30
0
  0
INSERT
  8
LAYER_7
  2
AIGNBL07030011
 10
0
 20
0
 30
0
  0
INSERT
  8
LAYER_7
  2
AIGNBL07030012
 10
0
 20
0
 30
0
  0
INSERT
  8
LAYER_7
  2
AIGNBL07030013
 10
0
 20
0
 30
0
  0
INSERT
  8
LAYER_7
  2
AIGNBL07030014
 10
0
 20
0
 30
0
  0
INSERT
  8
LAYER_7
  2
AIGNBL07030015
 10
0
 20
0
 30
0
  0
INSERT
  8
LAYER_7
  2
AIGNBL07030016
 10
0
 20
0
 30
0
  0
INSERT
  8
LAYER_7
  2
AIGNBL07030017
 10
0
 20
0
 30
0
  0
INSERT
  8
LAYER_7
  2
AIGNBL07030018
 10
0
 20
0
 30
0
  0
INSERT
  8
LAYER_7
  2
AIGNBL07030019
 10
0
 20
0
 30
0
  0
INSERT
  8
LAYER_7
  2
AIGNBL0703001A
 10
0
 20
0
 30
0
  0
INSERT
  8
LAYER_7
  2
AIGNBL0703001B
 10
0
 20
0
 30
0
  0
INSERT
  8
LAYER_7
  2
AIGNBL0703001C
 10
0
 20
0
 30
0
  0
INSERT
  8
LAYER_7
  2
AIGNBL0703001D
 10
0
 20
0
 30
0
  0
INSERT
  8
LAYER_7
  2
AIGNBL0703001E
 10
0
 20
0
 30
0
  0
INSERT
  8
LAYER_7
  2
AIGNBL0703001F
 10
0
 20
0
 30
0
  0
INSERT
  8
LAYER_7
  2
AIGNBL07030020
 10
0
 20
0
 30
0
  0
INSERT
  8
LAYER_7
  2
AIGNBL07030021
 10
0
 20
0
 30
0
  0
INSERT
  8
LAYER_7
  2
AIGNBL07030022
 10
0
 20
0
 30
0
  0
INSERT
  8
LAYER_7
  2
AIGNBL07030023
 10
0
 20
0
 30
0
  0
INSERT
  8
LAYER_7
  2
AIGNBL07030024
 10
0
 20
0
 30
0
  0
ENDBLK
  0
BLOCK
  8
LAYER_2
  2
AIGNBL02010002
 70
64
 10
0
 20
0
 30
0
  3
AIGNBL02010002
  0
INSERT
  8
LAYER_2
  2
AIGNBL02020003
 10
0
 20
0
 30
0
  0
INSERT
  8
LAYER_2
  2
AIGNBL02020004
 10
0
 20
0
 30
0
  0
INSERT
  8
LAYER_2
  2
AIGNBL02020005
 10
0
 20
0
 30
0
  0
INSERT
  8
LAYER_2
  2
AIGNBL02020006
 10
0
 20
0
 30
0
  0
INSERT
  8
LAYER_2
  2
AIGNBL0202000A
 10
0
 20
0
 30
0
  0
INSERT
  8
LAYER_2
  2
AIGNBL0202000E
 10
0
 20
0
 30
0
  0
INSERT
  8
LAYER_2
  2
AIGNBL0202000F
 10
0
 20
0
 30
0
  0
INSERT
  8
LAYER_2
  2
AIGNBL02020010
 10
0
 20
0
 30
0
  0
INSERT
  8
LAYER_2
  2
AIGNBL02020011
 10
0
 20
0
 30
0
  0
ENDBLK
  0
BLOCK
  8
LAYER_2
  2
AIGNBL02010012
 70
64
 10
0
 20
0
 30
0
  3
AIGNBL02010012
  0
INSERT
  8
LAYER_2
  2
AIGNBL02020013
 10
0
 20
0
 30
0
  0
INSERT
  8
LAYER_2
  2
AIGNBL02020014
 10
0
 20
0
 30
0
  0
INSERT
  8
LAYER_2
  2
AIGNBL02020015
 10
0
 20
0
 30
0
  0
INSERT
  8
LAYER_2
  2
AIGNBL02020016
 10
0
 20
0
 30
0
  0
INSERT
  8
LAYER_2
  2
AIGNBL02020017
 10
0
 20
0
 30
0
  0
INSERT
  8
LAYER_2
  2
AIGNBL0202001B
 10
0
 20
0
 30
0
  0
INSERT
  8
LAYER_2
  2
AIGNBL0202001F
 10
0
 20
0
 30
0
  0
INSERT
  8
LAYER_2
  2
AIGNBL02020020
 10
0
 20
0
 30
0
  0
INSERT
  8
LAYER_2
  2
AIGNBL02020021
 10
0
 20
0
 30
0
  0
INSERT
  8
LAYER_2
  2
AIGNBL02020022
 10
0
 20
0
 30
0
  0
ENDBLK
  0
BLOCK
  8
LAYER_2
  2
AIGNBL02010023
 70
64
 10
0
 20
0
 30
0
  3
AIGNBL02010023
  0
POLYLINE
  8
LAYER_2
  6
AIGENLINE001
 40
0.2469
 41
0.2469
 66
1
 10
0
 20
0
 30
0
 70
128
  0
VERTEX
  8
LAYER_2
 10
153.8504
 20
150.0601
  0
VERTEX
  8
LAYER_2
 10
150.9737
 20
145.0768
  0
SEQEND
  0
ENDBLK
  0
BLOCK
  8
LAYER_2
  2
AIGNBL02010024
 70
64
 10
0
 20
0
 30
0
  3
AIGNBL02010024
  0
POLYLINE
  8
LAYER_2
 40
0.2469
 41
0.2469
 66
1
 10
0
 20
0
 30
0
  0
VERTEX
  8
LAYER_2
 10
151.0936
 20
145.1636
  0
VERTEX
  8
LAYER_2
 10
151.0936
 20
145.2854
  0
SEQEND
  0
ENDBLK
  0
BLOCK
  8
LAYER_2
  2
AIGNBL02010025
 70
64
 10
0
 20
0
 30
0
  3
AIGNBL02010025
  0
INSERT
  8
LAYER_2
  2
AIGNBL02020026
 10
0
 20
0
 30
0
  0
INSERT
  8
LAYER_2
  2
AIGNBL02020027
 10
0
 20
0
 30
0
  0
INSERT
  8
LAYER_2
  2
AIGNBL02020028
 10
0
 20
0
 30
0
  0
INSERT
  8
LAYER_2
  2
AIGNBL02020029
 10
0
 20
0
 30
0
  0
INSERT
  8
LAYER_2
  2
AIGNBL0202002D
 10
0
 20
0
 30
0
  0
INSERT
  8
LAYER_2
  2
AIGNBL02020031
 10
0
 20
0
 30
0
  0
INSERT
  8
LAYER_2
  2
AIGNBL02020032
 10
0
 20
0
 30
0
  0
INSERT
  8
LAYER_2
  2
AIGNBL02020033
 10
0
 20
0
 30
0
  0
INSERT
  8
LAYER_2
  2
AIGNBL02020034
 10
0
 20
0
 30
0
  0
ENDBLK
  0
BLOCK
  8
LAYER_2
  2
AIGNBL02010035
 70
64
 10
0
 20
0
 30
0
  3
AIGNBL02010035
  0
INSERT
  8
LAYER_2
  2
AIGNBL02020036
 10
0
 20
0
 30
0
  0
INSERT
  8
LAYER_2
  2
AIGNBL02020037
 10
0
 20
0
 30
0
  0
INSERT
  8
LAYER_2
  2
AIGNBL02020038
 10
0
 20
0
 30
0
  0
INSERT
  8
LAYER_2
  2
AIGNBL02020039
 10
0
 20
0
 30
0
  0
INSERT
  8
LAYER_2
  2
AIGNBL0202003D
 10
0
 20
0
 30
0
  0
INSERT
  8
LAYER_2
  2
AIGNBL02020041
 10
0
 20
0
 30
0
  0
INSERT
  8
LAYER_2
  2
AIGNBL02020042
 10
0
 20
0
 30
0
  0
INSERT
  8
LAYER_2
  2
AIGNBL02020043
 10
0
 20
0
 30
0
  0
INSERT
  8
LAYER_2
  2
AIGNBL02020044
 10
0
 20
0
 30
0
  0
ENDBLK
  0
BLOCK
  8
LAYER_2
  2
AIGNBL02010045
 70
64
 10
0
 20
0
 30
0
  3
AIGNBL02010045
  0
TEXT
  8
LAYER_2
 10
140.5461
 20
167.7071
 11
140.5461
 21
167.7071
 40
3.8971
 41
0.5
  1
止水位置
  0
ENDBLK
  0
BLOCK
  8
LAYER_2
  2
AIGNBL02010046
 70
64
 10
0
 20
0
 30
0
  3
AIGNBL02010046
  0
TEXT
  8
LAYER_2
 10
156.8914
 20
175.0022
 11
156.8914
 21
175.0022
 40
3.8971
 41
0.5
  1
吐水位置
  0
ENDBLK
  0
BLOCK
  8
LAYER_2
  2
AIGNBL02010047
 70
64
 10
0
 20
0
 30
0
  3
AIGNBL02010047
  0
INSERT
  8
LAYER_2
  2
AIGNBL02020048
 10
0
 20
0
 30
0
  0
INSERT
  8
LAYER_2
  2
AIGNBL02020049
 10
0
 20
0
 30
0
  0
INSERT
  8
LAYER_2
  2
AIGNBL0202004A
 10
0
 20
0
 30
0
  0
INSERT
  8
LAYER_2
  2
AIGNBL0202004B
 10
0
 20
0
 30
0
  0
INSERT
  8
LAYER_2
  2
AIGNBL0202004F
 10
0
 20
0
 30
0
  0
INSERT
  8
LAYER_2
  2
AIGNBL02020053
 10
0
 20
0
 30
0
  0
INSERT
  8
LAYER_2
  2
AIGNBL02020054
 10
0
 20
0
 30
0
  0
INSERT
  8
LAYER_2
  2
AIGNBL02020055
 10
0
 20
0
 30
0
  0
INSERT
  8
LAYER_2
  2
AIGNBL02020056
 10
0
 20
0
 30
0
  0
ENDBLK
  0
BLOCK
  8
LAYER_2
  2
AIGNBL02010057
 70
64
 10
0
 20
0
 30
0
  3
AIGNBL02010057
  0
INSERT
  8
LAYER_2
  2
AIGNBL02020058
 10
0
 20
0
 30
0
  0
INSERT
  8
LAYER_2
  2
AIGNBL02020059
 10
0
 20
0
 30
0
  0
INSERT
  8
LAYER_2
  2
AIGNBL0202005A
 10
0
 20
0
 30
0
  0
INSERT
  8
LAYER_2
  2
AIGNBL0202005B
 10
0
 20
0
 30
0
  0
INSERT
  8
LAYER_2
  2
AIGNBL0202005F
 10
0
 20
0
 30
0
  0
INSERT
  8
LAYER_2
  2
AIGNBL02020063
 10
0
 20
0
 30
0
  0
INSERT
  8
LAYER_2
  2
AIGNBL02020064
 10
0
 20
0
 30
0
  0
INSERT
  8
LAYER_2
  2
AIGNBL02020065
 10
0
 20
0
 30
0
  0
INSERT
  8
LAYER_2
  2
AIGNBL02020066
 10
0
 20
0
 30
0
  0
ENDBLK
  0
BLOCK
  8
LAYER_2
  2
AIGNBL02010067
 70
64
 10
0
 20
0
 30
0
  3
AIGNBL02010067
  0
INSERT
  8
LAYER_2
  2
AIGNBL02020068
 10
0
 20
0
 30
0
  0
INSERT
  8
LAYER_2
  2
AIGNBL02020069
 10
0
 20
0
 30
0
  0
INSERT
  8
LAYER_2
  2
AIGNBL0202006A
 10
0
 20
0
 30
0
  0
INSERT
  8
LAYER_2
  2
AIGNBL0202006B
 10
0
 20
0
 30
0
  0
INSERT
  8
LAYER_2
  2
AIGNBL0202006F
 10
0
 20
0
 30
0
  0
INSERT
  8
LAYER_2
  2
AIGNBL02020073
 10
0
 20
0
 30
0
  0
INSERT
  8
LAYER_2
  2
AIGNBL02020074
 10
0
 20
0
 30
0
  0
INSERT
  8
LAYER_2
  2
AIGNBL02020075
 10
0
 20
0
 30
0
  0
INSERT
  8
LAYER_2
  2
AIGNBL02020076
 10
0
 20
0
 30
0
  0
ENDBLK
  0
BLOCK
  8
LAYER_2
  2
AIGNBL02010077
 70
64
 10
0
 20
0
 30
0
  3
AIGNBL02010077
  0
INSERT
  8
LAYER_2
  2
AIGNBL02020078
 10
0
 20
0
 30
0
  0
INSERT
  8
LAYER_2
  2
AIGNBL02020079
 10
0
 20
0
 30
0
  0
INSERT
  8
LAYER_2
  2
AIGNBL0202007A
 10
0
 20
0
 30
0
  0
INSERT
  8
LAYER_2
  2
AIGNBL0202007B
 10
0
 20
0
 30
0
  0
INSERT
  8
LAYER_2
  2
AIGNBL0202007F
 10
0
 20
0
 30
0
  0
INSERT
  8
LAYER_2
  2
AIGNBL02020083
 10
0
 20
0
 30
0
  0
INSERT
  8
LAYER_2
  2
AIGNBL02020084
 10
0
 20
0
 30
0
  0
INSERT
  8
LAYER_2
  2
AIGNBL02020085
 10
0
 20
0
 30
0
  0
INSERT
  8
LAYER_2
  2
AIGNBL02020086
 10
0
 20
0
 30
0
  0
ENDBLK
  0
BLOCK
  8
LAYER_2
  2
AIGNBL02010087
 70
64
 10
0
 20
0
 30
0
  3
AIGNBL02010087
  0
INSERT
  8
LAYER_2
  2
AIGNBL02020088
 10
0
 20
0
 30
0
  0
INSERT
  8
LAYER_2
  2
AIGNBL02020089
 10
0
 20
0
 30
0
  0
INSERT
  8
LAYER_2
  2
AIGNBL0202008A
 10
0
 20
0
 30
0
  0
INSERT
  8
LAYER_2
  2
AIGNBL0202008B
 10
0
 20
0
 30
0
  0
INSERT
  8
LAYER_2
  2
AIGNBL0202008F
 10
0
 20
0
 30
0
  0
INSERT
  8
LAYER_2
  2
AIGNBL02020093
 10
0
 20
0
 30
0
  0
INSERT
  8
LAYER_2
  2
AIGNBL02020094
 10
0
 20
0
 30
0
  0
INSERT
  8
LAYER_2
  2
AIGNBL02020095
 10
0
 20
0
 30
0
  0
INSERT
  8
LAYER_2
  2
AIGNBL02020096
 10
0
 20
0
 30
0
  0
ENDBLK
  0
BLOCK
  8
LAYER_2
  2
AIGNBL02010097
 70
64
 10
0
 20
0
 30
0
  3
AIGNBL02010097
  0
INSERT
  8
LAYER_2
  2
AIGNBL02020098
 10
0
 20
0
 30
0
  0
INSERT
  8
LAYER_2
  2
AIGNBL02020099
 10
0
 20
0
 30
0
  0
INSERT
  8
LAYER_2
  2
AIGNBL0202009A
 10
0
 20
0
 30
0
  0
INSERT
  8
LAYER_2
  2
AIGNBL0202009B
 10
0
 20
0
 30
0
  0
INSERT
  8
LAYER_2
  2
AIGNBL0202009F
 10
0
 20
0
 30
0
  0
INSERT
  8
LAYER_2
  2
AIGNBL020200A3
 10
0
 20
0
 30
0
  0
INSERT
  8
LAYER_2
  2
AIGNBL020200A4
 10
0
 20
0
 30
0
  0
INSERT
  8
LAYER_2
  2
AIGNBL020200A5
 10
0
 20
0
 30
0
  0
INSERT
  8
LAYER_2
  2
AIGNBL020200A6
 10
0
 20
0
 30
0
  0
ENDBLK
  0
BLOCK
  8
LAYER_2
  2
AIGNBL020100A7
 70
64
 10
0
 20
0
 30
0
  3
AIGNBL020100A7
  0
TEXT
  8
LAYER_2
 10
63.798
 20
52.4988
 11
63.798
 21
52.4988
 40
3.8971
 41
0.5
  1
Ｈ
  0
ENDBLK
  0
BLOCK
  8
LAYER_2
  2
AIGNBL020100A8
 70
64
 10
0
 20
0
 30
0
  3
AIGNBL020100A8
  0
TEXT
  8
LAYER_2
 10
102.8046
 20
52.4461
 11
102.8046
 21
52.4461
 40
3.8971
 41
0.5
  1
Ｃ
  0
ENDBLK
  0
BLOCK
  8
LAYER_2
  2
AIGNBL020100A9
 70
64
 10
0
 20
0
 30
0
  3
AIGNBL020100A9
  0
INSERT
  8
LAYER_2
  2
AIGNBL020200AA
 10
0
 20
0
 30
0
  0
INSERT
  8
LAYER_2
  2
AIGNBL020200AB
 10
0
 20
0
 30
0
  0
INSERT
  8
LAYER_2
  2
AIGNBL020200AC
 10
0
 20
0
 30
0
  0
INSERT
  8
LAYER_2
  2
AIGNBL020200AD
 10
0
 20
0
 30
0
  0
INSERT
  8
LAYER_2
  2
AIGNBL020200B1
 10
0
 20
0
 30
0
  0
INSERT
  8
LAYER_2
  2
AIGNBL020200B5
 10
0
 20
0
 30
0
  0
INSERT
  8
LAYER_2
  2
AIGNBL020200B6
 10
0
 20
0
 30
0
  0
INSERT
  8
LAYER_2
  2
AIGNBL020200B7
 10
0
 20
0
 30
0
  0
INSERT
  8
LAYER_2
  2
AIGNBL020200B8
 10
0
 20
0
 30
0
  0
INSERT
  8
LAYER_2
  2
AIGNBL020200B9
 10
0
 20
0
 30
0
  0
INSERT
  8
LAYER_2
  2
AIGNBL020200BA
 10
0
 20
0
 30
0
  0
ENDBLK
  0
BLOCK
  8
LAYER_2
  2
AIGNBL020100BB
 70
64
 10
0
 20
0
 30
0
  3
AIGNBL020100BB
  0
INSERT
  8
LAYER_2
  2
AIGNBL020200BC
 10
0
 20
0
 30
0
  0
INSERT
  8
LAYER_2
  2
AIGNBL020200BD
 10
0
 20
0
 30
0
  0
INSERT
  8
LAYER_2
  2
AIGNBL020200BE
 10
0
 20
0
 30
0
  0
INSERT
  8
LAYER_2
  2
AIGNBL020200BF
 10
0
 20
0
 30
0
  0
INSERT
  8
LAYER_2
  2
AIGNBL020200C3
 10
0
 20
0
 30
0
  0
INSERT
  8
LAYER_2
  2
AIGNBL020200C7
 10
0
 20
0
 30
0
  0
INSERT
  8
LAYER_2
  2
AIGNBL020200C8
 10
0
 20
0
 30
0
  0
INSERT
  8
LAYER_2
  2
AIGNBL020200C9
 10
0
 20
0
 30
0
  0
INSERT
  8
LAYER_2
  2
AIGNBL020200CA
 10
0
 20
0
 30
0
  0
ENDBLK
  0
BLOCK
  8
LAYER_2
  2
AIGNBL020100CB
 70
64
 10
0
 20
0
 30
0
  3
AIGNBL020100CB
  0
INSERT
  8
LAYER_2
  2
AIGNBL020200CC
 10
0
 20
0
 30
0
  0
INSERT
  8
LAYER_2
  2
AIGNBL020200CD
 10
0
 20
0
 30
0
  0
INSERT
  8
LAYER_2
  2
AIGNBL020200CE
 10
0
 20
0
 30
0
  0
INSERT
  8
LAYER_2
  2
AIGNBL020200CF
 10
0
 20
0
 30
0
  0
INSERT
  8
LAYER_2
  2
AIGNBL020200D3
 10
0
 20
0
 30
0
  0
INSERT
  8
LAYER_2
  2
AIGNBL020200D7
 10
0
 20
0
 30
0
  0
INSERT
  8
LAYER_2
  2
AIGNBL020200D8
 10
0
 20
0
 30
0
  0
INSERT
  8
LAYER_2
  2
AIGNBL020200D9
 10
0
 20
0
 30
0
  0
INSERT
  8
LAYER_2
  2
AIGNBL020200DA
 10
0
 20
0
 30
0
  0
ENDBLK
  0
BLOCK
  8
LAYER_2
  2
AIGNBL020100DB
 70
64
 10
0
 20
0
 30
0
  3
AIGNBL020100DB
  0
INSERT
  8
LAYER_2
  2
AIGNBL020200DC
 10
0
 20
0
 30
0
  0
INSERT
  8
LAYER_2
  2
AIGNBL020200DD
 10
0
 20
0
 30
0
  0
INSERT
  8
LAYER_2
  2
AIGNBL020200DE
 10
0
 20
0
 30
0
  0
INSERT
  8
LAYER_2
  2
AIGNBL020200DF
 10
0
 20
0
 30
0
  0
INSERT
  8
LAYER_2
  2
AIGNBL020200E3
 10
0
 20
0
 30
0
  0
INSERT
  8
LAYER_2
  2
AIGNBL020200E7
 10
0
 20
0
 30
0
  0
INSERT
  8
LAYER_2
  2
AIGNBL020200E8
 10
0
 20
0
 30
0
  0
INSERT
  8
LAYER_2
  2
AIGNBL020200E9
 10
0
 20
0
 30
0
  0
INSERT
  8
LAYER_2
  2
AIGNBL020200EA
 10
0
 20
0
 30
0
  0
ENDBLK
  0
BLOCK
  8
LAYER_2
  2
AIGNBL020100EB
 70
64
 10
0
 20
0
 30
0
  3
AIGNBL020100EB
  0
POLYLINE
  8
LAYER_2
 40
0.2469
 41
0.2469
 66
1
 10
0
 20
0
 30
0
  0
VERTEX
  8
LAYER_2
 10
167.6721
 20
137.3594
  0
VERTEX
  8
LAYER_2
 10
167.6721
 20
136.7596
  0
SEQEND
  0
ENDBLK
  0
BLOCK
  8
LAYER_2
  2
AIGNBL020100EC
 70
64
 10
0
 20
0
 30
0
  3
AIGNBL020100EC
  0
POLYLINE
  8
LAYER_2
 40
0.2469
 41
0.2469
 66
1
 10
0
 20
0
 30
0
  0
VERTEX
  8
LAYER_2
 10
176.4723
 20
136.7596
  0
VERTEX
  8
LAYER_2
 10
176.4723
 20
137.3594
  0
SEQEND
  0
ENDBLK
  0
BLOCK
  8
LAYER_2
  2
AIGNBL020100ED
 70
64
 10
0
 20
0
 30
0
  3
AIGNBL020100ED
  0
POLYLINE
  8
LAYER_2
 40
0.2469
 41
0.2469
 66
1
 10
0
 20
0
 30
0
  0
VERTEX
  8
LAYER_2
 10
176.5122
 20
137.3594
  0
VERTEX
  8
LAYER_2
 10
176.5722
 20
137.4197
  0
SEQEND
  0
ENDBLK
  0
BLOCK
  8
LAYER_2
  2
AIGNBL020100EE
 70
64
 10
0
 20
0
 30
0
  3
AIGNBL020100EE
  0
POLYLINE
  8
LAYER_2
 40
0.2469
 41
0.2469
 66
1
 10
0
 20
0
 30
0
  0
VERTEX
  8
LAYER_2
 10
172.0722
 20
137.3594
  0
VERTEX
  8
LAYER_2
 10
176.5122
 20
137.3594
  0
SEQEND
  0
ENDBLK
  0
BLOCK
  8
LAYER_2
  2
AIGNBL020100EF
 70
64
 10
0
 20
0
 30
0
  3
AIGNBL020100EF
  0
POLYLINE
  8
LAYER_2
 40
0.2469
 41
0.2469
 66
1
 10
0
 20
0
 30
0
  0
VERTEX
  8
LAYER_2
 10
172.0722
 20
137.3594
  0
VERTEX
  8
LAYER_2
 10
167.6321
 20
137.3594
  0
SEQEND
  0
ENDBLK
  0
BLOCK
  8
LAYER_2
  2
AIGNBL020100F0
 70
64
 10
0
 20
0
 30
0
  3
AIGNBL020100F0
  0
POLYLINE
  8
LAYER_2
 40
0.2469
 41
0.2469
 66
1
 10
0
 20
0
 30
0
  0
VERTEX
  8
LAYER_2
 10
167.5722
 20
137.4197
  0
VERTEX
  8
LAYER_2
 10
167.6321
 20
137.3594
  0
SEQEND
  0
ENDBLK
  0
BLOCK
  8
LAYER_2
  2
AIGNBL020100F1
 70
64
 10
0
 20
0
 30
0
  3
AIGNBL020100F1
  0
POLYLINE
  8
LAYER_2
 40
0.2469
 41
0.2469
 66
1
 10
0
 20
0
 30
0
  0
VERTEX
  8
LAYER_2
 10
171.3721
 20
124.4641
  0
VERTEX
  8
LAYER_2
 10
171.3721
 20
127.7596
  0
SEQEND
  0
ENDBLK
  0
BLOCK
  8
LAYER_2
  2
AIGNBL020100F2
 70
64
 10
0
 20
0
 30
0
  3
AIGNBL020100F2
  0
POLYLINE
  8
LAYER_2
 40
0.2469
 41
0.2469
 66
1
 10
0
 20
0
 30
0
  0
VERTEX
  8
LAYER_2
 10
172.7722
 20
124.4641
  0
VERTEX
  8
LAYER_2
 10
172.7722
 20
127.7596
  0
SEQEND
  0
ENDBLK
  0
BLOCK
  8
LAYER_2
  2
AIGNBL020100F3
 70
64
 10
0
 20
0
 30
0
  3
AIGNBL020100F3
  0
INSERT
  8
LAYER_2
  2
AIGNBL020200F4
 10
0
 20
0
 30
0
  0
INSERT
  8
LAYER_2
  2
AIGNBL020200F5
 10
0
 20
0
 30
0
  0
INSERT
  8
LAYER_2
  2
AIGNBL020200F6
 10
0
 20
0
 30
0
  0
ENDBLK
  0
BLOCK
  8
LAYER_2
  2
AIGNBL020100F7
 70
64
 10
0
 20
0
 30
0
  3
AIGNBL020100F7
  0
POLYLINE
  8
LAYER_2
 40
0.2469
 41
0.2469
 66
1
 10
0
 20
0
 30
0
  0
VERTEX
  8
LAYER_2
 10
176.5722
 20
137.4197
  0
VERTEX
  8
LAYER_2
 10
167.5722
 20
137.4197
  0
SEQEND
  0
ENDBLK
  0
BLOCK
  8
LAYER_2
  2
AIGNBL020100F8
 70
64
 10
0
 20
0
 30
0
  3
AIGNBL020100F8
  0
POLYLINE
  8
LAYER_2
  6
AIGENLINE001
 40
0.127
 41
0.127
 66
1
 10
0
 20
0
 30
0
 70
128
  0
VERTEX
  8
LAYER_2
 10
83.6988
 20
123.0285
  0
VERTEX
  8
LAYER_2
 10
83.6988
 20
128.9596
  0
SEQEND
  0
ENDBLK
  0
BLOCK
  8
LAYER_2
  2
AIGNBL020100F9
 70
64
 10
0
 20
0
 30
0
  3
AIGNBL020100F9
  0
POLYLINE
  8
LAYER_2
  6
AIGENLINE001
 40
0.127
 41
0.127
 66
1
 10
0
 20
0
 30
0
 70
128
  0
VERTEX
  8
LAYER_2
 10
85.8189
 20
123.0285
  0
VERTEX
  8
LAYER_2
 10
85.8189
 20
128.9596
  0
SEQEND
  0
ENDBLK
  0
BLOCK
  8
LAYER_2
  2
AIGNBL020100FA
 70
64
 10
0
 20
0
 30
0
  3
AIGNBL020100FA
  0
TEXT
  8
LAYER_2
 10
111.5329
 20
56.8406
 11
111.5329
 21
56.8406
 40
3.8971
 41
0.5
  1
Ｇ１／２
  0
POLYLINE
  8
LAYER_2
 40
0.2469
 41
0.2469
 66
1
 10
0
 20
0
 30
0
  0
VERTEX
  8
LAYER_2
 10
106.4781
 20
60.4218
  0
VERTEX
  8
LAYER_2
 10
105.8132
 20
61.7892
  0
SEQEND
  0
POLYLINE
  8
LAYER_2
 40
0.2469
 41
0.2469
 66
1
 10
0
 20
0
 30
0
  0
VERTEX
  8
LAYER_2
 10
105.8132
 20
61.7892
  0
VERTEX
  8
LAYER_2
 10
106.8856
 20
60.7115
  0
SEQEND
  0
POLYLINE
  8
LAYER_2
 40
0.2469
 41
0.2469
 66
1
 10
0
 20
0
 30
0
  0
VERTEX
  8
LAYER_2
 10
105.8132
 20
61.7892
  0
VERTEX
  8
LAYER_2
 10
106.682
 20
60.5665
  0
SEQEND
  0
POLYLINE
  8
LAYER_2
 40
0.2469
 41
0.2469
 66
1
 10
0
 20
0
 30
0
  0
VERTEX
  8
LAYER_2
 10
106.682
 20
60.5665
  0
VERTEX
  8
LAYER_2
 10
109.7559
 20
56.2408
  0
SEQEND
  0
POLYLINE
  8
LAYER_2
 40
0.2469
 41
0.2469
 66
1
 10
0
 20
0
 30
0
  0
VERTEX
  8
LAYER_2
 10
109.7559
 20
56.2408
  0
VERTEX
  8
LAYER_2
 10
111.7561
 20
56.2408
  0
SEQEND
  0
POLYLINE
  8
LAYER_2
 66
1
 10
0
 20
0
 30
0
  0
VERTEX
  8
LAYER_2
 10
111.7561
 20
56.2408
  0
VERTEX
  8
LAYER_2
 10
122.8183
 20
56.2408
  0
SEQEND
  0
ENDBLK
  0
BLOCK
  8
LAYER_2
  2
AIGNBL020100FB
 70
64
 10
0
 20
0
 30
0
  3
AIGNBL020100FB
  0
POLYLINE
  8
LAYER_2
  6
AIGENLINE001
 40
0.2469
 41
0.2469
 66
1
 10
0
 20
0
 30
0
 70
128
  0
VERTEX
  8
LAYER_2
 10
85.8189
 20
122.8121
  0
VERTEX
  8
LAYER_2
 10
86.3288
 20
117.341
  0
SEQEND
  0
ENDBLK
  0
BLOCK
  8
LAYER_2
  2
AIGNBL020100FC
 70
64
 10
0
 20
0
 30
0
  3
AIGNBL020100FC
  0
POLYLINE
  8
LAYER_2
  6
AIGENLINE001
 40
0.2469
 41
0.2469
 66
1
 10
0
 20
0
 30
0
 70
128
  0
VERTEX
  8
LAYER_2
 10
83.6991
 20
122.8121
  0
VERTEX
  8
LAYER_2
 10
83.1892
 20
117.341
  0
SEQEND
  0
ENDBLK
  0
BLOCK
  8
LAYER_2
  2
AIGNBL020100FD
 70
64
 10
0
 20
0
 30
0
  3
AIGNBL020100FD
  0
INSERT
  8
LAYER_2
  2
AIGNBL020200FE
 10
0
 20
0
 30
0
  0
ENDBLK
  0
BLOCK
  8
LAYER_2
  2
AIGNBL020100FF
 70
64
 10
0
 20
0
 30
0
  3
AIGNBL020100FF
  0
INSERT
  8
LAYER_2
  2
AIGNBL02020100
 10
0
 20
0
 30
0
  0
ENDBLK
  0
BLOCK
  8
LAYER_2
  2
AIGNBL02010101
 70
64
 10
0
 20
0
 30
0
  3
AIGNBL02010101
  0
TEXT
  8
LAYER_2
 10
93.0455
 20
127.607
 11
93.0455
 21
127.607
 40
3.8971
 41
0.5
  1
Ｍ２３×１．５
  0
POLYLINE
  8
LAYER_2
 40
0.2469
 41
0.2469
 66
1
 10
0
 20
0
 30
0
  0
VERTEX
  8
LAYER_2
 10
87.8346
 20
130.0579
  0
VERTEX
  8
LAYER_2
 10
87.0591
 20
131.366
  0
SEQEND
  0
POLYLINE
  8
LAYER_2
 40
0.2469
 41
0.2469
 66
1
 10
0
 20
0
 30
0
  0
VERTEX
  8
LAYER_2
 10
87.0591
 20
131.366
  0
VERTEX
  8
LAYER_2
 10
88.217
 20
130.3803
  0
SEQEND
  0
POLYLINE
  8
LAYER_2
 40
0.2469
 41
0.2469
 66
1
 10
0
 20
0
 30
0
  0
VERTEX
  8
LAYER_2
 10
87.0591
 20
131.366
  0
VERTEX
  8
LAYER_2
 10
88.0258
 20
130.2191
  0
SEQEND
  0
POLYLINE
  8
LAYER_2
 40
0.2469
 41
0.2469
 66
1
 10
0
 20
0
 30
0
  0
VERTEX
  8
LAYER_2
 10
88.0258
 20
130.2191
  0
VERTEX
  8
LAYER_2
 10
90.733
 20
127.0069
  0
SEQEND
  0
POLYLINE
  8
LAYER_2
 40
0.2469
 41
0.2469
 66
1
 10
0
 20
0
 30
0
  0
VERTEX
  8
LAYER_2
 10
90.733
 20
127.0069
  0
VERTEX
  8
LAYER_2
 10
92.7328
 20
127.0069
  0
SEQEND
  0
POLYLINE
  8
LAYER_2
 66
1
 10
0
 20
0
 30
0
  0
VERTEX
  8
LAYER_2
 10
92.7328
 20
127.0069
  0
VERTEX
  8
LAYER_2
 10
113.1252
 20
127.0069
  0
SEQEND
  0
ENDBLK
  0
BLOCK
  8
LAYER_2
  2
AIGNBL02010102
 70
64
 10
0
 20
0
 30
0
  3
AIGNBL02010102
  0
TEXT
  8
LAYER_2
 10
28.1202
 20
58.7217
 11
28.1202
 21
58.7217
 40
3.8971
 41
0.5
  1
二面幅２３"六角
  0
POLYLINE
  8
LAYER_2
 40
0.2469
 41
0.2469
 66
1
 10
0
 20
0
 30
0
  0
VERTEX
  8
LAYER_2
 10
61.9454
 20
68.854
  0
VERTEX
  8
LAYER_2
 10
62.741
 20
70.1501
  0
SEQEND
  0
POLYLINE
  8
LAYER_2
 40
0.2469
 41
0.2469
 66
1
 10
0
 20
0
 30
0
  0
VERTEX
  8
LAYER_2
 10
62.741
 20
70.1501
  0
VERTEX
  8
LAYER_2
 10
62.4088
 20
68.6663
  0
SEQEND
  0
POLYLINE
  8
LAYER_2
 40
0.2469
 41
0.2469
 66
1
 10
0
 20
0
 30
0
  0
VERTEX
  8
LAYER_2
 10
62.741
 20
70.1501
  0
VERTEX
  8
LAYER_2
 10
62.1771
 20
68.7603
  0
SEQEND
  0
POLYLINE
  8
LAYER_2
 40
0.2469
 41
0.2469
 66
1
 10
0
 20
0
 30
0
  0
VERTEX
  8
LAYER_2
 10
62.1771
 20
68.7603
  0
VERTEX
  8
LAYER_2
 10
57.0914
 20
56.225
  0
SEQEND
  0
POLYLINE
  8
LAYER_2
 40
0.2469
 41
0.2469
 66
1
 10
0
 20
0
 30
0
  0
VERTEX
  8
LAYER_2
 10
57.0914
 20
56.225
  0
VERTEX
  8
LAYER_2
 10
55.0914
 20
56.225
  0
SEQEND
  0
POLYLINE
  8
LAYER_2
 66
1
 10
0
 20
0
 30
0
  0
VERTEX
  8
LAYER_2
 10
31.534
 20
56.225
  0
VERTEX
  8
LAYER_2
 10
55.0914
 20
56.225
  0
SEQEND
  0
ENDBLK
  0
BLOCK
  8
LAYER_2
  2
AIGNBL02010103
 70
64
 10
0
 20
0
 30
0
  3
AIGNBL02010103
  0
POLYLINE
  8
LAYER_2
 40
0.2469
 41
0.2469
 66
1
 10
0
 20
0
 30
0
  0
VERTEX
  8
LAYER_2
 10
61.6033
 20
62.2012
  0
VERTEX
  8
LAYER_2
 10
62.741
 20
63.2106
  0
SEQEND
  0
POLYLINE
  8
LAYER_2
 40
0.2469
 41
0.2469
 66
1
 10
0
 20
0
 30
0
  0
VERTEX
  8
LAYER_2
 10
62.741
 20
63.2106
  0
VERTEX
  8
LAYER_2
 10
61.9921
 20
61.887
  0
SEQEND
  0
POLYLINE
  8
LAYER_2
 40
0.2469
 41
0.2469
 66
1
 10
0
 20
0
 30
0
  0
VERTEX
  8
LAYER_2
 10
62.741
 20
63.2106
  0
VERTEX
  8
LAYER_2
 10
61.7978
 20
62.0441
  0
SEQEND
  0
POLYLINE
  8
LAYER_2
 40
0.2469
 41
0.2469
 66
1
 10
0
 20
0
 30
0
  0
VERTEX
  8
LAYER_2
 10
61.7978
 20
62.0441
  0
VERTEX
  8
LAYER_2
 10
57.0914
 20
56.225
  0
SEQEND
  0
POLYLINE
  8
LAYER_2
 40
0.2469
 41
0.2469
 66
1
 10
0
 20
0
 30
0
  0
VERTEX
  8
LAYER_2
 10
57.0914
 20
56.225
  0
VERTEX
  8
LAYER_2
 10
55.0914
 20
56.225
  0
SEQEND
  0
POLYLINE
  8
LAYER_2
 66
1
 10
0
 20
0
 30
0
  0
VERTEX
  8
LAYER_2
 10
54.6914
 20
56.225
  0
VERTEX
  8
LAYER_2
 10
55.0914
 20
56.225
  0
SEQEND
  0
ENDBLK
  0
BLOCK
  8
LAYER_2
  2
AIGNBL02010104
 70
64
 10
0
 20
0
 30
0
  3
AIGNBL02010104
  0
TEXT
  8
LAYER_2
 10
45.9434
 20
128.6295
 11
45.9434
 21
128.6295
 40
3.8971
 41
0.5
  1
二面幅２８"六角
  0
POLYLINE
  8
LAYER_2
 40
0.2469
 41
0.2469
 66
1
 10
0
 20
0
 30
0
  0
VERTEX
  8
LAYER_2
 10
80.2561
 20
133.8237
  0
VERTEX
  8
LAYER_2
 10
81.6589
 20
134.4097
  0
SEQEND
  0
POLYLINE
  8
LAYER_2
 40
0.2469
 41
0.2469
 66
1
 10
0
 20
0
 30
0
  0
VERTEX
  8
LAYER_2
 10
81.6589
 20
134.4097
  0
VERTEX
  8
LAYER_2
 10
80.5217
 20
133.4003
  0
SEQEND
  0
POLYLINE
  8
LAYER_2
 40
0.2469
 41
0.2469
 66
1
 10
0
 20
0
 30
0
  0
VERTEX
  8
LAYER_2
 10
81.6589
 20
134.4097
  0
VERTEX
  8
LAYER_2
 10
80.3887
 20
133.6118
  0
SEQEND
  0
POLYLINE
  8
LAYER_2
 40
0.2469
 41
0.2469
 66
1
 10
0
 20
0
 30
0
  0
VERTEX
  8
LAYER_2
 10
80.3887
 20
133.6118
  0
VERTEX
  8
LAYER_2
 10
71.5007
 20
128.0294
  0
SEQEND
  0
POLYLINE
  8
LAYER_2
 40
0.2469
 41
0.2469
 66
1
 10
0
 20
0
 30
0
  0
VERTEX
  8
LAYER_2
 10
71.5007
 20
128.0294
  0
VERTEX
  8
LAYER_2
 10
69.5008
 20
128.0294
  0
SEQEND
  0
POLYLINE
  8
LAYER_2
 66
1
 10
0
 20
0
 30
0
  0
VERTEX
  8
LAYER_2
 10
45.9434
 20
128.0294
  0
VERTEX
  8
LAYER_2
 10
69.5008
 20
128.0294
  0
SEQEND
  0
ENDBLK
  0
BLOCK
  8
LAYER_2
  2
AIGNBL02010105
 70
64
 10
0
 20
0
 30
0
  3
AIGNBL02010105
  0
POLYLINE
  8
LAYER_2
 40
0.2469
 41
0.2469
 66
1
 10
0
 20
0
 30
0
  0
VERTEX
  8
LAYER_2
 10
83.2592
 20
116.5042
  0
VERTEX
  8
LAYER_2
 10
31.7502
 20
116.5042
  0
SEQEND
  0
ENDBLK
  0
BLOCK
  8
LAYER_2
  2
AIGNBL02010106
 70
64
 10
0
 20
0
 30
0
  3
AIGNBL02010106
  0
TEXT
  8
LAYER_2
 10
32.1154
 20
122.1038
 11
32.1154
 21
122.1038
 40
4.4427
 41
0.5
  1
取付穴径２４0２５
  0
TEXT
  8
LAYER_2
 10
32.0278
 20
117.6038
 11
32.0278
 21
117.6038
 40
4.4427
 41
0.5
  1
アダプタ使用により24-35mm可
  0
TEXT
  8
LAYER_2
 10
42.106
 20
111.9298
 11
42.106
 21
111.9298
 40
3.8971
 41
0.5
  1
取付板厚３０ｍａｘ
  0
ENDBLK
  0
BLOCK
  8
LAYER_2
  2
AIGNBL02010107
 70
64
 10
0
 20
0
 30
0
  3
AIGNBL02010107
  0
POLYLINE
  8
LAYER_2
 40
0.2469
 41
0.2469
 66
1
 10
0
 20
0
 30
0
  0
VERTEX
  8
LAYER_2
 10
82.4592
 20
129.1222
  0
VERTEX
  8
LAYER_2
 10
82.4592
 20
114.5039
  0
SEQEND
  0
ENDBLK
  0
BLOCK
  8
LAYER_2
  2
AIGNBL02010108
 70
64
 10
0
 20
0
 30
0
  3
AIGNBL02010108
  0
POLYLINE
  8
LAYER_2
 40
0.2469
 41
0.2469
 66
1
 10
0
 20
0
 30
0
  0
VERTEX
  8
LAYER_2
 10
87.0591
 20
129.1222
  0
VERTEX
  8
LAYER_2
 10
87.0591
 20
114.5039
  0
SEQEND
  0
ENDBLK
  0
BLOCK
  8
LAYER_2
  2
AIGNBL02010109
 70
64
 10
0
 20
0
 30
0
  3
AIGNBL02010109
  0
POLYLINE
  8
LAYER_2
 40
0.2469
 41
0.2469
 66
1
 10
0
 20
0
 30
0
  0
VERTEX
  8
LAYER_2
 10
85.5591
 20
116.5042
  0
VERTEX
  8
LAYER_2
 10
83.9592
 20
116.5042
  0
SEQEND
  0
ENDBLK
  0
BLOCK
  8
LAYER_2
  2
AIGNBL0201010A
 70
64
 10
0
 20
0
 30
0
  3
AIGNBL0201010A
  0
INSERT
  8
LAYER_2
  2
AIGNBL0202010B
 10
0
 20
0
 30
0
  0
INSERT
  8
LAYER_2
  2
AIGNBL0202010C
 10
0
 20
0
 30
0
  0
INSERT
  8
LAYER_2
  2
AIGNBL0202010D
 10
0
 20
0
 30
0
  0
ENDBLK
  0
BLOCK
  8
LAYER_2
  2
AIGNBL0201010E
 70
64
 10
0
 20
0
 30
0
  3
AIGNBL0201010E
  0
INSERT
  8
LAYER_2
  2
AIGNBL0202010F
 10
0
 20
0
 30
0
  0
INSERT
  8
LAYER_2
  2
AIGNBL02020110
 10
0
 20
0
 30
0
  0
INSERT
  8
LAYER_2
  2
AIGNBL02020111
 10
0
 20
0
 30
0
  0
ENDBLK
  0
BLOCK
  8
LAYER_2
  2
AIGNBL02010112
 70
64
 10
0
 20
0
 30
0
  3
AIGNBL02010112
  0
POLYLINE
  8
LAYER_2
 40
0.2469
 41
0.2469
 66
1
 10
0
 20
0
 30
0
  0
VERTEX
  8
LAYER_2
 10
150.9737
 20
145.0768
  0
VERTEX
  8
LAYER_2
 10
146.6701
 20
137.623
  0
SEQEND
  0
ENDBLK
  0
BLOCK
  8
LAYER_2
  2
AIGNBL02010113
 70
64
 10
0
 20
0
 30
0
  3
AIGNBL02010113
  0
POLYLINE
  8
LAYER_2
 40
0.2469
 41
0.2469
 66
1
 10
0
 20
0
 30
0
  0
VERTEX
  8
LAYER_2
 10
162.8118
 20
138.4384
  0
VERTEX
  8
LAYER_2
 10
152.5723
 20
138.4384
  0
SEQEND
  0
ENDBLK
  0
BLOCK
  8
LAYER_2
  2
AIGNBL02010114
 70
64
 10
0
 20
0
 30
0
  3
AIGNBL02010114
  0
POLYLINE
  8
LAYER_2
 40
0.2469
 41
0.2469
 66
1
 10
0
 20
0
 30
0
  0
VERTEX
  8
LAYER_2
 10
145.906
 20
140.8155
 42
0.02895323667
  0
VERTEX
  8
LAYER_2
 10
146.4607
 20
140.2428
  0
SEQEND
  0
ENDBLK
  0
BLOCK
  8
LAYER_2
  2
AIGNBL02010115
 70
64
 10
0
 20
0
 30
0
  3
AIGNBL02010115
  0
POLYLINE
  8
LAYER_2
 40
0.2469
 41
0.2469
 66
1
 10
0
 20
0
 30
0
  0
VERTEX
  8
LAYER_2
 10
147.6699
 20
139.3548
 42
0.1316037145
  0
VERTEX
  8
LAYER_2
 10
151.0936
 20
138.4377
  0
SEQEND
  0
ENDBLK
  0
BLOCK
  8
LAYER_2
  2
AIGNBL02010116
 70
64
 10
0
 20
0
 30
0
  3
AIGNBL02010116
  0
TEXT
  8
LAYER_2
 10
153.2034
 20
139.5019
 11
153.2034
 21
139.5019
 40
4.4427
 41
0.5
 50
0.1111545792
  1
約30°
  0
ENDBLK
  0
BLOCK
  8
LAYER_2
  2
AIGNBL02010117
 70
64
 10
0
 20
0
 30
0
  3
AIGNBL02010117
  0
INSERT
  8
LAYER_2
  2
AIGNBL02020118
 10
0
 20
0
 30
0
  0
INSERT
  8
LAYER_2
  2
AIGNBL02020119
 10
0
 20
0
 30
0
  0
INSERT
  8
LAYER_2
  2
AIGNBL0202011A
 10
0
 20
0
 30
0
  0
ENDBLK
  0
BLOCK
  8
LAYER_2
  2
AIGNBL0201011B
 70
64
 10
0
 20
0
 30
0
  3
AIGNBL0201011B
  0
INSERT
  8
LAYER_2
  2
AIGNBL0202011C
 10
0
 20
0
 30
0
  0
INSERT
  8
LAYER_2
  2
AIGNBL0202011D
 10
0
 20
0
 30
0
  0
INSERT
  8
LAYER_2
  2
AIGNBL0202011E
 10
0
 20
0
 30
0
  0
ENDBLK
  0
BLOCK
  8
LAYER_2
  2
AIGNBL0201011F
 70
64
 10
0
 20
0
 30
0
  3
AIGNBL0201011F
  0
POLYLINE
  8
LAYER_2
 40
0.2469
 41
0.2469
 66
1
 10
0
 20
0
 30
0
  0
VERTEX
  8
LAYER_2
 10
167.6721
 20
137.3594
  0
VERTEX
  8
LAYER_2
 10
167.6721
 20
136.7596
  0
SEQEND
  0
ENDBLK
  0
BLOCK
  8
LAYER_2
  2
AIGNBL02010120
 70
64
 10
0
 20
0
 30
0
  3
AIGNBL02010120
  0
POLYLINE
  8
LAYER_2
 40
0.2469
 41
0.2469
 66
1
 10
0
 20
0
 30
0
  0
VERTEX
  8
LAYER_2
 10
176.4723
 20
136.7596
  0
VERTEX
  8
LAYER_2
 10
176.4723
 20
137.3594
  0
SEQEND
  0
ENDBLK
  0
BLOCK
  8
LAYER_2
  2
AIGNBL02010121
 70
64
 10
0
 20
0
 30
0
  3
AIGNBL02010121
  0
POLYLINE
  8
LAYER_2
 40
0.2469
 41
0.2469
 66
1
 10
0
 20
0
 30
0
  0
VERTEX
  8
LAYER_2
 10
155.4999
 20
149.1072
  0
VERTEX
  8
LAYER_2
 10
155.1836
 20
148.5591
  0
SEQEND
  0
ENDBLK
  0
BLOCK
  8
LAYER_2
  2
AIGNBL02010122
 70
64
 10
0
 20
0
 30
0
  3
AIGNBL02010122
  0
POLYLINE
  8
LAYER_2
 40
0.2469
 41
0.2469
 66
1
 10
0
 20
0
 30
0
  0
VERTEX
  8
LAYER_2
 10
159.0463
 20
154.9645
 42
0.2679197531
  0
VERTEX
  8
LAYER_2
 10
152.2002
 20
151.0121
  0
SEQEND
  0
ENDBLK
  0
BLOCK
  8
LAYER_2
  2
AIGNBL02010123
 70
64
 10
0
 20
0
 30
0
  3
AIGNBL02010123
  0
POLYLINE
  8
LAYER_2
  6
AIGENLINE001
 40
0.127
 41
0.127
 66
1
 10
0
 20
0
 30
0
 70
128
  0
VERTEX
  8
LAYER_2
 10
159.0463
 20
153.0596
 42
0.267988079
  0
VERTEX
  8
LAYER_2
 10
153.8504
 20
150.0596
  0
SEQEND
  0
ENDBLK
  0
BLOCK
  8
LAYER_2
  2
AIGNBL02010124
 70
64
 10
0
 20
0
 30
0
  3
AIGNBL02010124
  0
POLYLINE
  8
LAYER_2
 40
0.2469
 41
0.2469
 66
1
 10
0
 20
0
 30
0
  0
VERTEX
  8
LAYER_2
 10
152.2002
 20
151.0121
  0
VERTEX
  8
LAYER_2
 10
151.8839
 20
150.464
  0
SEQEND
  0
ENDBLK
  0
BLOCK
  8
LAYER_2
  2
AIGNBL02010125
 70
64
 10
0
 20
0
 30
0
  3
AIGNBL02010125
  0
POLYLINE
  8
LAYER_2
 40
0.2469
 41
0.2469
 66
1
 10
0
 20
0
 30
0
  0
VERTEX
  8
LAYER_2
 10
155.1836
 20
148.5591
  0
VERTEX
  8
LAYER_2
 10
155.1016
 20
148.537
  0
SEQEND
  0
ENDBLK
  0
BLOCK
  8
LAYER_2
  2
AIGNBL02010126
 70
64
 10
0
 20
0
 30
0
  3
AIGNBL02010126
  0
POLYLINE
  8
LAYER_2
 40
0.2469
 41
0.2469
 66
1
 10
0
 20
0
 30
0
  0
VERTEX
  8
LAYER_2
 10
155.1016
 20
148.537
  0
VERTEX
  8
LAYER_2
 10
155.1836
 20
148.5591
  0
SEQEND
  0
ENDBLK
  0
BLOCK
  8
LAYER_2
  2
AIGNBL02010127
 70
64
 10
0
 20
0
 30
0
  3
AIGNBL02010127
  0
POLYLINE
  8
LAYER_2
 40
0.2469
 41
0.2469
 66
1
 10
0
 20
0
 30
0
  0
VERTEX
  8
LAYER_2
 10
167.628
 20
154.9645
  0
VERTEX
  8
LAYER_2
 10
159.0463
 20
154.9645
  0
SEQEND
  0
ENDBLK
  0
BLOCK
  8
LAYER_2
  2
AIGNBL02010128
 70
64
 10
0
 20
0
 30
0
  3
AIGNBL02010128
  0
POLYLINE
  8
LAYER_2
 40
0.2469
 41
0.2469
 66
1
 10
0
 20
0
 30
0
  0
VERTEX
  8
LAYER_2
 10
151.906
 20
150.382
  0
VERTEX
  8
LAYER_2
 10
151.8839
 20
150.464
  0
SEQEND
  0
ENDBLK
  0
BLOCK
  8
LAYER_2
  2
AIGNBL02010129
 70
64
 10
0
 20
0
 30
0
  3
AIGNBL02010129
  0
POLYLINE
  8
LAYER_2
 40
0.2469
 41
0.2469
 66
1
 10
0
 20
0
 30
0
  0
VERTEX
  8
LAYER_2
 10
159.0463
 20
151.1546
  0
VERTEX
  8
LAYER_2
 10
167.5722
 20
151.1546
  0
SEQEND
  0
ENDBLK
  0
BLOCK
  8
LAYER_2
  2
AIGNBL0201012A
 70
64
 10
0
 20
0
 30
0
  3
AIGNBL0201012A
  0
POLYLINE
  8
LAYER_2
 40
0.2469
 41
0.2469
 66
1
 10
0
 20
0
 30
0
  0
VERTEX
  8
LAYER_2
 10
159.0463
 20
151.1546
 42
0.2679058498
  0
VERTEX
  8
LAYER_2
 10
155.4999
 20
149.1072
  0
SEQEND
  0
ENDBLK
  0
BLOCK
  8
LAYER_2
  2
AIGNBL0201012B
 70
64
 10
0
 20
0
 30
0
  3
AIGNBL0201012B
  0
POLYLINE
  8
LAYER_2
 40
0.2469
 41
0.2469
 66
1
 10
0
 20
0
 30
0
  0
VERTEX
  8
LAYER_2
 10
167.5722
 20
151.1696
  0
VERTEX
  8
LAYER_2
 10
167.5722
 20
137.4197
  0
SEQEND
  0
ENDBLK
  0
BLOCK
  8
LAYER_2
  2
AIGNBL0201012C
 70
64
 10
0
 20
0
 30
0
  3
AIGNBL0201012C
  0
POLYLINE
  8
LAYER_2
  6
AIGENLINE001
 40
0.127
 41
0.127
 66
1
 10
0
 20
0
 30
0
 70
128
  0
VERTEX
  8
LAYER_2
 10
159.2172
 20
153.0596
  0
VERTEX
  8
LAYER_2
 10
172.0722
 20
153.0596
  0
SEQEND
  0
ENDBLK
  0
BLOCK
  8
LAYER_2
  2
AIGNBL0201012D
 70
64
 10
0
 20
0
 30
0
  3
AIGNBL0201012D
  0
POLYLINE
  8
LAYER_2
 40
0.2469
 41
0.2469
 66
1
 10
0
 20
0
 30
0
  0
VERTEX
  8
LAYER_2
 10
176.5722
 20
159.8996
  0
VERTEX
  8
LAYER_2
 10
176.5722
 20
137.4197
  0
SEQEND
  0
ENDBLK
  0
BLOCK
  8
LAYER_2
  2
AIGNBL0201012E
 70
64
 10
0
 20
0
 30
0
  3
AIGNBL0201012E
  0
POLYLINE
  8
LAYER_2
 40
0.2469
 41
0.2469
 66
1
 10
0
 20
0
 30
0
  0
VERTEX
  8
LAYER_2
 10
176.5122
 20
159.9596
  0
VERTEX
  8
LAYER_2
 10
176.5722
 20
159.8996
  0
SEQEND
  0
ENDBLK
  0
BLOCK
  8
LAYER_2
  2
AIGNBL0201012F
 70
64
 10
0
 20
0
 30
0
  3
AIGNBL0201012F
  0
POLYLINE
  8
LAYER_2
 40
0.2469
 41
0.2469
 66
1
 10
0
 20
0
 30
0
  0
VERTEX
  8
LAYER_2
 10
176.5122
 20
137.3594
  0
VERTEX
  8
LAYER_2
 10
176.5722
 20
137.4197
  0
SEQEND
  0
ENDBLK
  0
BLOCK
  8
LAYER_2
  2
AIGNBL02010130
 70
64
 10
0
 20
0
 30
0
  3
AIGNBL02010130
  0
POLYLINE
  8
LAYER_2
 40
0.2469
 41
0.2469
 66
1
 10
0
 20
0
 30
0
  0
VERTEX
  8
LAYER_2
 10
167.5722
 20
159.8996
  0
VERTEX
  8
LAYER_2
 10
167.5722
 20
154.9795
  0
SEQEND
  0
ENDBLK
  0
BLOCK
  8
LAYER_2
  2
AIGNBL02010131
 70
64
 10
0
 20
0
 30
0
  3
AIGNBL02010131
  0
POLYLINE
  8
LAYER_2
 40
0.2469
 41
0.2469
 66
1
 10
0
 20
0
 30
0
  0
VERTEX
  8
LAYER_2
 10
167.6321
 20
159.9596
  0
VERTEX
  8
LAYER_2
 10
167.5722
 20
159.8996
  0
SEQEND
  0
ENDBLK
  0
BLOCK
  8
LAYER_2
  2
AIGNBL02010132
 70
64
 10
0
 20
0
 30
0
  3
AIGNBL02010132
  0
POLYLINE
  8
LAYER_2
 40
0.2469
 41
0.2469
 66
1
 10
0
 20
0
 30
0
 70
1
  0
VERTEX
  8
LAYER_2
 10
85.5591
 20
165.1997
 42
0.4142146594
  0
VERTEX
  8
LAYER_2
 10
84.7592
 20
165.9997
 42
0.4142384722
  0
VERTEX
  8
LAYER_2
 10
83.9592
 20
165.1997
 42
0.4142124634
  0
VERTEX
  8
LAYER_2
 10
84.7592
 20
164.3996
 42
0.4141886552
  0
SEQEND
  0
ENDBLK
  0
BLOCK
  8
LAYER_2
  2
AIGNBL02010133
 70
64
 10
0
 20
0
 30
0
  3
AIGNBL02010133
  0
POLYLINE
  8
LAYER_2
 40
0.2469
 41
0.2469
 66
1
 10
0
 20
0
 30
0
  0
VERTEX
  8
LAYER_2
 10
88.7589
 20
159.8597
  0
VERTEX
  8
LAYER_2
 10
88.7414
 20
160.1596
  0
SEQEND
  0
ENDBLK
  0
BLOCK
  8
LAYER_2
  2
AIGNBL02010134
 70
64
 10
0
 20
0
 30
0
  3
AIGNBL02010134
  0
POLYLINE
  8
LAYER_2
 40
0.2469
 41
0.2469
 66
1
 10
0
 20
0
 30
0
  0
VERTEX
  8
LAYER_2
 10
86.664
 20
153.057
 42
0.4142072074
  0
VERTEX
  8
LAYER_2
 10
84.7616
 20
154.9645
 42
0.4142240761
  0
VERTEX
  8
LAYER_2
 10
82.854
 20
153.0621
  0
VERTEX
  8
LAYER_2
 10
82.854
 20
153.057
  0
SEQEND
  0
ENDBLK
  0
BLOCK
  8
LAYER_2
  2
AIGNBL02010135
 70
64
 10
0
 20
0
 30
0
  3
AIGNBL02010135
  0
POLYLINE
  8
LAYER_2
 40
0.2469
 41
0.2469
 66
1
 10
0
 20
0
 30
0
  0
VERTEX
  8
LAYER_2
 10
89.2592
 20
167.5557
 42
0.313664877
  0
VERTEX
  8
LAYER_2
 10
89.1213
 20
167.7457
  0
SEQEND
  0
ENDBLK
  0
BLOCK
  8
LAYER_2
  2
AIGNBL02010136
 70
64
 10
0
 20
0
 30
0
  3
AIGNBL02010136
  0
POLYLINE
  8
LAYER_2
 40
0.2469
 41
0.2469
 66
1
 10
0
 20
0
 30
0
  0
VERTEX
  8
LAYER_2
 10
80.777
 20
160.1596
  0
VERTEX
  8
LAYER_2
 10
80.7591
 20
159.8597
  0
SEQEND
  0
ENDBLK
  0
BLOCK
  8
LAYER_2
  2
AIGNBL02010137
 70
64
 10
0
 20
0
 30
0
  3
AIGNBL02010137
  0
POLYLINE
  8
LAYER_2
 40
0.2469
 41
0.2469
 66
1
 10
0
 20
0
 30
0
  0
VERTEX
  8
LAYER_2
 10
86.759
 20
167.4997
 42
0.2363467684
  0
VERTEX
  8
LAYER_2
 10
86.7021
 20
167.5417
 42
0.05046461825
  0
VERTEX
  8
LAYER_2
 10
86.3901
 20
167.6019
 42
0.02035710105
  0
VERTEX
  8
LAYER_2
 10
85.56
 20
167.6615
 42
0.009323750533
  0
VERTEX
  8
LAYER_2
 10
84.7592
 20
167.6762
 42
0.02121559196
  0
VERTEX
  8
LAYER_2
 10
83.3619
 20
167.626
 42
0.05550247644
  0
VERTEX
  8
LAYER_2
 10
82.8159
 20
167.5417
 42
0.3736485151
  0
VERTEX
  8
LAYER_2
 10
82.7589
 20
167.4997
  0
SEQEND
  0
ENDBLK
  0
BLOCK
  8
LAYER_2
  2
AIGNBL02010138
 70
64
 10
0
 20
0
 30
0
  3
AIGNBL02010138
  0
POLYLINE
  8
LAYER_2
 40
0.2469
 41
0.2469
 66
1
 10
0
 20
0
 30
0
  0
VERTEX
  8
LAYER_2
 10
80.3966
 20
167.7457
 42
0.3236046362
  0
VERTEX
  8
LAYER_2
 10
80.2592
 20
167.5557
  0
SEQEND
  0
ENDBLK
  0
BLOCK
  8
LAYER_2
  2
AIGNBL02010139
 70
64
 10
0
 20
0
 30
0
  3
AIGNBL02010139
  0
POLYLINE
  8
LAYER_2
  6
AIGENLINE001
 40
0.127
 41
0.127
 66
1
 10
0
 20
0
 30
0
 70
128
  0
VERTEX
  8
LAYER_2
 10
84.7592
 20
123.0285
  0
VERTEX
  8
LAYER_2
 10
84.7592
 20
169.8439
  0
SEQEND
  0
ENDBLK
  0
BLOCK
  8
LAYER_2
  2
AIGNBL0201013A
 70
64
 10
0
 20
0
 30
0
  3
AIGNBL0201013A
  0
POLYLINE
  8
LAYER_2
 40
0.2469
 41
0.2469
 66
1
 10
0
 20
0
 30
0
  0
VERTEX
  8
LAYER_2
 10
89.1992
 20
159.8597
  0
VERTEX
  8
LAYER_2
 10
84.7592
 20
159.8597
  0
SEQEND
  0
ENDBLK
  0
BLOCK
  8
LAYER_2
  2
AIGNBL0201013B
 70
64
 10
0
 20
0
 30
0
  3
AIGNBL0201013B
  0
POLYLINE
  8
LAYER_2
 40
0.2469
 41
0.2469
 66
1
 10
0
 20
0
 30
0
  0
VERTEX
  8
LAYER_2
 10
89.1992
 20
159.8597
  0
VERTEX
  8
LAYER_2
 10
89.2592
 20
159.7995
  0
SEQEND
  0
ENDBLK
  0
BLOCK
  8
LAYER_2
  2
AIGNBL0201013C
 70
64
 10
0
 20
0
 30
0
  3
AIGNBL0201013C
  0
POLYLINE
  8
LAYER_2
 40
0.2469
 41
0.2469
 66
1
 10
0
 20
0
 30
0
  0
VERTEX
  8
LAYER_2
 10
86.6588
 20
148.9422
  0
VERTEX
  8
LAYER_2
 10
86.6591
 20
149.373
  0
SEQEND
  0
ENDBLK
  0
BLOCK
  8
LAYER_2
  2
AIGNBL0201013D
 70
64
 10
0
 20
0
 30
0
  3
AIGNBL0201013D
  0
POLYLINE
  8
LAYER_2
 40
0.2469
 41
0.2469
 66
1
 10
0
 20
0
 30
0
  0
VERTEX
  8
LAYER_2
 10
86.6595
 20
149.5103
  0
VERTEX
  8
LAYER_2
 10
86.6643
 20
153.0596
  0
SEQEND
  0
ENDBLK
  0
BLOCK
  8
LAYER_2
  2
AIGNBL0201013E
 70
64
 10
0
 20
0
 30
0
  3
AIGNBL0201013E
  0
POLYLINE
  8
LAYER_2
 40
0.2469
 41
0.2469
 66
1
 10
0
 20
0
 30
0
  0
VERTEX
  8
LAYER_2
 10
82.8589
 20
149.3576
  0
VERTEX
  8
LAYER_2
 10
82.8589
 20
149.373
  0
SEQEND
  0
ENDBLK
  0
BLOCK
  8
LAYER_2
  2
AIGNBL0201013F
 70
64
 10
0
 20
0
 30
0
  3
AIGNBL0201013F
  0
POLYLINE
  8
LAYER_2
 40
0.2469
 41
0.2469
 66
1
 10
0
 20
0
 30
0
  0
VERTEX
  8
LAYER_2
 10
82.8589
 20
149.5103
  0
VERTEX
  8
LAYER_2
 10
82.854
 20
153.0596
  0
SEQEND
  0
ENDBLK
  0
BLOCK
  8
LAYER_2
  2
AIGNBL02010140
 70
64
 10
0
 20
0
 30
0
  3
AIGNBL02010140
  0
POLYLINE
  8
LAYER_2
 40
0.2469
 41
0.2469
 66
1
 10
0
 20
0
 30
0
  0
VERTEX
  8
LAYER_2
 10
89.2592
 20
160.1596
  0
VERTEX
  8
LAYER_2
 10
80.2592
 20
160.1596
  0
SEQEND
  0
ENDBLK
  0
BLOCK
  8
LAYER_2
  2
AIGNBL02010141
 70
64
 10
0
 20
0
 30
0
  3
AIGNBL02010141
  0
POLYLINE
  8
LAYER_2
 40
0.2469
 41
0.2469
 66
1
 10
0
 20
0
 30
0
 70
1
  0
VERTEX
  8
LAYER_2
 10
85.7593
 20
165.1997
 42
0.4142144378
  0
VERTEX
  8
LAYER_2
 10
84.7592
 20
166.1997
 42
0.414233489
  0
VERTEX
  8
LAYER_2
 10
83.7591
 20
165.1997
 42
0.4142126846
  0
VERTEX
  8
LAYER_2
 10
84.7592
 20
164.1996
 42
0.4141936385
  0
SEQEND
  0
ENDBLK
  0
BLOCK
  8
LAYER_2
  2
AIGNBL02010142
 70
64
 10
0
 20
0
 30
0
  3
AIGNBL02010142
  0
POLYLINE
  8
LAYER_2
 40
0.2469
 41
0.2469
 66
1
 10
0
 20
0
 30
0
  0
VERTEX
  8
LAYER_2
 10
86.759
 20
164.1597
  0
VERTEX
  8
LAYER_2
 10
86.759
 20
167.4997
  0
SEQEND
  0
ENDBLK
  0
BLOCK
  8
LAYER_2
  2
AIGNBL02010143
 70
64
 10
0
 20
0
 30
0
  3
AIGNBL02010143
  0
POLYLINE
  8
LAYER_2
 40
0.2469
 41
0.2469
 66
1
 10
0
 20
0
 30
0
  0
VERTEX
  8
LAYER_2
 10
82.7589
 20
164.1597
  0
VERTEX
  8
LAYER_2
 10
82.7589
 20
167.4997
  0
SEQEND
  0
ENDBLK
  0
BLOCK
  8
LAYER_2
  2
AIGNBL02010144
 70
64
 10
0
 20
0
 30
0
  3
AIGNBL02010144
  0
POLYLINE
  8
LAYER_2
 40
0.2469
 41
0.2469
 66
1
 10
0
 20
0
 30
0
  0
VERTEX
  8
LAYER_2
 10
89.2592
 20
167.4997
  0
VERTEX
  8
LAYER_2
 10
84.7592
 20
167.4997
  0
SEQEND
  0
ENDBLK
  0
BLOCK
  8
LAYER_2
  2
AIGNBL02010145
 70
64
 10
0
 20
0
 30
0
  3
AIGNBL02010145
  0
POLYLINE
  8
LAYER_2
 40
0.2469
 41
0.2469
 66
1
 10
0
 20
0
 30
0
  0
VERTEX
  8
LAYER_2
 10
84.7592
 20
167.4997
  0
VERTEX
  8
LAYER_2
 10
80.2592
 20
167.4997
  0
SEQEND
  0
ENDBLK
  0
BLOCK
  8
LAYER_2
  2
AIGNBL02010146
 70
64
 10
0
 20
0
 30
0
  3
AIGNBL02010146
  0
POLYLINE
  8
LAYER_2
 40
0.2469
 41
0.2469
 66
1
 10
0
 20
0
 30
0
  0
VERTEX
  8
LAYER_2
 10
82.7589
 20
164.1597
 42
0.4142240081
  0
VERTEX
  8
LAYER_2
 10
84.7592
 20
162.1596
 42
0.4142144846
  0
VERTEX
  8
LAYER_2
 10
86.759
 20
164.1597
  0
SEQEND
  0
ENDBLK
  0
BLOCK
  8
LAYER_2
  2
AIGNBL02010147
 70
64
 10
0
 20
0
 30
0
  3
AIGNBL02010147
  0
POLYLINE
  8
LAYER_2
 40
0.2469
 41
0.2469
 66
1
 10
0
 20
0
 30
0
  0
VERTEX
  8
LAYER_2
 10
89.1213
 20
167.7457
 42
0.1597756233
  0
VERTEX
  8
LAYER_2
 10
80.3966
 20
167.7457
  0
SEQEND
  0
ENDBLK
  0
BLOCK
  8
LAYER_2
  2
AIGNBL02010148
 70
64
 10
0
 20
0
 30
0
  3
AIGNBL02010148
  0
POLYLINE
  8
LAYER_2
 40
0.2469
 41
0.2469
 66
1
 10
0
 20
0
 30
0
  0
VERTEX
  8
LAYER_2
 10
80.2592
 20
167.5557
  0
VERTEX
  8
LAYER_2
 10
80.2592
 20
160.1596
  0
SEQEND
  0
ENDBLK
  0
BLOCK
  8
LAYER_2
  2
AIGNBL02010149
 70
64
 10
0
 20
0
 30
0
  3
AIGNBL02010149
  0
POLYLINE
  8
LAYER_2
 40
0.2469
 41
0.2469
 66
1
 10
0
 20
0
 30
0
  0
VERTEX
  8
LAYER_2
 10
82.8592
 20
149.3576
  0
VERTEX
  8
LAYER_2
 10
82.8592
 20
148.9227
  0
SEQEND
  0
ENDBLK
  0
BLOCK
  8
LAYER_2
  2
AIGNBL0201014A
 70
64
 10
0
 20
0
 30
0
  3
AIGNBL0201014A
  0
POLYLINE
  8
LAYER_2
 40
0.2469
 41
0.2469
 66
1
 10
0
 20
0
 30
0
  0
VERTEX
  8
LAYER_2
 10
82.8592
 20
148.9227
  0
VERTEX
  8
LAYER_2
 10
82.8592
 20
145.3727
  0
SEQEND
  0
ENDBLK
  0
BLOCK
  8
LAYER_2
  2
AIGNBL0201014B
 70
64
 10
0
 20
0
 30
0
  3
AIGNBL0201014B
  0
POLYLINE
  8
LAYER_2
 40
0.2469
 41
0.2469
 66
1
 10
0
 20
0
 30
0
  0
VERTEX
  8
LAYER_2
 10
86.6591
 20
149.3576
  0
VERTEX
  8
LAYER_2
 10
86.6591
 20
149.2419
  0
SEQEND
  0
ENDBLK
  0
BLOCK
  8
LAYER_2
  2
AIGNBL0201014C
 70
64
 10
0
 20
0
 30
0
  3
AIGNBL0201014C
  0
POLYLINE
  8
LAYER_2
 40
0.2469
 41
0.2469
 66
1
 10
0
 20
0
 30
0
  0
VERTEX
  8
LAYER_2
 10
86.6591
 20
148.9227
  0
VERTEX
  8
LAYER_2
 10
86.6591
 20
145.3727
  0
SEQEND
  0
ENDBLK
  0
BLOCK
  8
LAYER_2
  2
AIGNBL0201014D
 70
64
 10
0
 20
0
 30
0
  3
AIGNBL0201014D
  0
POLYLINE
  8
LAYER_2
 40
0.2469
 41
0.2469
 66
1
 10
0
 20
0
 30
0
  0
VERTEX
  8
LAYER_2
 10
80.2592
 20
159.7995
  0
VERTEX
  8
LAYER_2
 10
80.3191
 20
159.8597
  0
SEQEND
  0
ENDBLK
  0
BLOCK
  8
LAYER_2
  2
AIGNBL0201014E
 70
64
 10
0
 20
0
 30
0
  3
AIGNBL0201014E
  0
POLYLINE
  8
LAYER_2
 40
0.2469
 41
0.2469
 66
1
 10
0
 20
0
 30
0
  0
VERTEX
  8
LAYER_2
 10
89.2592
 20
137.4197
  0
VERTEX
  8
LAYER_2
 10
89.1992
 20
137.3594
  0
SEQEND
  0
ENDBLK
  0
BLOCK
  8
LAYER_2
  2
AIGNBL0201014F
 70
64
 10
0
 20
0
 30
0
  3
AIGNBL0201014F
  0
POLYLINE
  8
LAYER_2
 40
0.2469
 41
0.2469
 66
1
 10
0
 20
0
 30
0
  0
VERTEX
  8
LAYER_2
 10
80.3191
 20
137.3594
  0
VERTEX
  8
LAYER_2
 10
80.2592
 20
137.4197
  0
SEQEND
  0
ENDBLK
  0
BLOCK
  8
LAYER_2
  2
AIGNBL02010150
 70
64
 10
0
 20
0
 30
0
  3
AIGNBL02010150
  0
POLYLINE
  8
LAYER_2
 40
0.2469
 41
0.2469
 66
1
 10
0
 20
0
 30
0
  0
VERTEX
  8
LAYER_2
 10
80.3191
 20
159.8597
  0
VERTEX
  8
LAYER_2
 10
84.7592
 20
159.8597
  0
SEQEND
  0
ENDBLK
  0
BLOCK
  8
LAYER_2
  2
AIGNBL02010151
 70
64
 10
0
 20
0
 30
0
  3
AIGNBL02010151
  0
POLYLINE
  8
LAYER_2
 40
0.2469
 41
0.2469
 66
1
 10
0
 20
0
 30
0
  0
VERTEX
  8
LAYER_2
 10
80.2592
 20
159.7995
  0
VERTEX
  8
LAYER_2
 10
80.2592
 20
137.4197
  0
SEQEND
  0
ENDBLK
  0
BLOCK
  8
LAYER_2
  2
AIGNBL02010152
 70
64
 10
0
 20
0
 30
0
  3
AIGNBL02010152
  0
POLYLINE
  8
LAYER_2
 40
0.2469
 41
0.2469
 66
1
 10
0
 20
0
 30
0
  0
VERTEX
  8
LAYER_2
 10
89.2592
 20
167.5557
  0
VERTEX
  8
LAYER_2
 10
89.2592
 20
160.1596
  0
SEQEND
  0
ENDBLK
  0
BLOCK
  8
LAYER_2
  2
AIGNBL02010153
 70
64
 10
0
 20
0
 30
0
  3
AIGNBL02010153
  0
POLYLINE
  8
LAYER_2
 40
0.2469
 41
0.2469
 66
1
 10
0
 20
0
 30
0
  0
VERTEX
  8
LAYER_2
 10
89.2592
 20
159.7995
  0
VERTEX
  8
LAYER_2
 10
89.2592
 20
137.4197
  0
SEQEND
  0
ENDBLK
  0
BLOCK
  8
LAYER_2
  2
AIGNBL02010154
 70
64
 10
0
 20
0
 30
0
  3
AIGNBL02010154
  0
POLYLINE
  8
LAYER_2
 40
0.2469
 41
0.2469
 66
1
 10
0
 20
0
 30
0
  0
VERTEX
  8
LAYER_2
 10
151.5484
 20
149.8727
  0
VERTEX
  8
LAYER_2
 10
149.5481
 20
146.4086
  0
SEQEND
  0
ENDBLK
  0
BLOCK
  8
LAYER_2
  2
AIGNBL02010155
 70
64
 10
0
 20
0
 30
0
  3
AIGNBL02010155
  0
POLYLINE
  8
LAYER_2
 40
0.2469
 41
0.2469
 66
1
 10
0
 20
0
 30
0
  0
VERTEX
  8
LAYER_2
 10
149.6219
 20
146.1354
  0
VERTEX
  8
LAYER_2
 10
149.6646
 20
146.1103
  0
SEQEND
  0
ENDBLK
  0
BLOCK
  8
LAYER_2
  2
AIGNBL02010156
 70
64
 10
0
 20
0
 30
0
  3
AIGNBL02010156
  0
POLYLINE
  8
LAYER_2
 40
0.2469
 41
0.2469
 66
1
 10
0
 20
0
 30
0
  0
VERTEX
  8
LAYER_2
 10
152.5226
 20
144.4604
  0
VERTEX
  8
LAYER_2
 10
149.6646
 20
146.1103
  0
SEQEND
  0
ENDBLK
  0
BLOCK
  8
LAYER_2
  2
AIGNBL02010157
 70
64
 10
0
 20
0
 30
0
  3
AIGNBL02010157
  0
POLYLINE
  8
LAYER_2
 40
0.2469
 41
0.2469
 66
1
 10
0
 20
0
 30
0
  0
VERTEX
  8
LAYER_2
 10
149.5481
 20
146.4086
 42
0.414193188
  0
VERTEX
  8
LAYER_2
 10
149.6219
 20
146.1354
  0
SEQEND
  0
ENDBLK
  0
BLOCK
  8
LAYER_2
  2
AIGNBL02010158
 70
64
 10
0
 20
0
 30
0
  3
AIGNBL02010158
  0
POLYLINE
  8
LAYER_2
 40
0.2469
 41
0.2469
 66
1
 10
0
 20
0
 30
0
  0
VERTEX
  8
LAYER_2
 10
154.8391
 20
147.9727
  0
VERTEX
  8
LAYER_2
 10
152.8396
 20
144.5087
  0
SEQEND
  0
ENDBLK
  0
BLOCK
  8
LAYER_2
  2
AIGNBL02010159
 70
64
 10
0
 20
0
 30
0
  3
AIGNBL02010159
  0
POLYLINE
  8
LAYER_2
 40
0.2469
 41
0.2469
 66
1
 10
0
 20
0
 30
0
  0
VERTEX
  8
LAYER_2
 10
153.244
 20
149.0093
  0
VERTEX
  8
LAYER_2
 10
151.6848
 20
149.9092
  0
SEQEND
  0
ENDBLK
  0
BLOCK
  8
LAYER_2
  2
AIGNBL0201015A
 70
64
 10
0
 20
0
 30
0
  3
AIGNBL0201015A
  0
POLYLINE
  8
LAYER_2
 40
0.2469
 41
0.2469
 66
1
 10
0
 20
0
 30
0
  0
VERTEX
  8
LAYER_2
 10
154.8026
 20
148.1093
  0
VERTEX
  8
LAYER_2
 10
154.8391
 20
147.9727
  0
SEQEND
  0
ENDBLK
  0
BLOCK
  8
LAYER_2
  2
AIGNBL0201015B
 70
64
 10
0
 20
0
 30
0
  3
AIGNBL0201015B
  0
POLYLINE
  8
LAYER_2
 40
0.2469
 41
0.2469
 66
1
 10
0
 20
0
 30
0
  0
VERTEX
  8
LAYER_2
 10
151.5484
 20
149.8727
  0
VERTEX
  8
LAYER_2
 10
151.6848
 20
149.9092
  0
SEQEND
  0
ENDBLK
  0
BLOCK
  8
LAYER_2
  2
AIGNBL0201015C
 70
64
 10
0
 20
0
 30
0
  3
AIGNBL0201015C
  0
POLYLINE
  8
LAYER_2
 40
0.2469
 41
0.2469
 66
1
 10
0
 20
0
 30
0
  0
VERTEX
  8
LAYER_2
 10
153.244
 20
149.0093
  0
VERTEX
  8
LAYER_2
 10
154.8026
 20
148.1093
  0
SEQEND
  0
ENDBLK
  0
BLOCK
  8
LAYER_2
  2
AIGNBL0201015D
 70
64
 10
0
 20
0
 30
0
  3
AIGNBL0201015D
  0
POLYLINE
  8
LAYER_2
 40
0.2469
 41
0.2469
 66
1
 10
0
 20
0
 30
0
  0
VERTEX
  8
LAYER_2
 10
152.5661
 20
144.4353
  0
VERTEX
  8
LAYER_2
 10
152.5226
 20
144.4604
  0
SEQEND
  0
ENDBLK
  0
BLOCK
  8
LAYER_2
  2
AIGNBL0201015E
 70
64
 10
0
 20
0
 30
0
  3
AIGNBL0201015E
  0
POLYLINE
  8
LAYER_2
 40
0.2469
 41
0.2469
 66
1
 10
0
 20
0
 30
0
  0
VERTEX
  8
LAYER_2
 10
152.5661
 20
144.4353
 42
0.3926195854
  0
VERTEX
  8
LAYER_2
 10
152.8396
 20
144.5087
  0
SEQEND
  0
ENDBLK
  0
BLOCK
  8
LAYER_2
  2
AIGNBL0201015F
 70
64
 10
0
 20
0
 30
0
  3
AIGNBL0201015F
  0
POLYLINE
  8
LAYER_2
 40
0.2469
 41
0.2469
 66
1
 10
0
 20
0
 30
0
  0
VERTEX
  8
LAYER_2
 10
86.409
 20
145.2854
 42
0.2164559305
  0
VERTEX
  8
LAYER_2
 10
86.2193
 20
145.6698
 42
0.06376082713
  0
VERTEX
  8
LAYER_2
 10
85.9804
 20
145.8401
 42
0.09632779298
  0
VERTEX
  8
LAYER_2
 10
85.1912
 20
146.0817
 42
0.03346300147
  0
VERTEX
  8
LAYER_2
 10
84.7592
 20
146.1103
 42
0.08927280548
  0
VERTEX
  8
LAYER_2
 10
83.7404
 20
145.9344
 42
0.1184669725
  0
VERTEX
  8
LAYER_2
 10
83.2235
 20
145.5879
 42
0.1644191379
  0
VERTEX
  8
LAYER_2
 10
83.109
 20
145.2854
 42
0.2164889135
  0
VERTEX
  8
LAYER_2
 10
83.2988
 20
144.9009
 42
0.0637561436
  0
VERTEX
  8
LAYER_2
 10
83.5377
 20
144.7307
 42
0.09630913025
  0
VERTEX
  8
LAYER_2
 10
84.3271
 20
144.489
 42
0.03345786162
  0
VERTEX
  8
LAYER_2
 10
84.7592
 20
144.4604
 42
0.0892988383
  0
VERTEX
  8
LAYER_2
 10
85.7778
 20
144.6363
 42
0.118506435
  0
VERTEX
  8
LAYER_2
 10
86.2946
 20
144.9829
 42
0.1643680552
  0
VERTEX
  8
LAYER_2
 10
86.409
 20
145.2854
  0
SEQEND
  0
ENDBLK
  0
BLOCK
  8
LAYER_2
  2
AIGNBL02010160
 70
64
 10
0
 20
0
 30
0
  3
AIGNBL02010160
  0
POLYLINE
  8
LAYER_2
 40
0.2469
 41
0.2469
 66
1
 10
0
 20
0
 30
0
  0
VERTEX
  8
LAYER_2
 10
86.6591
 20
145.3727
 42
0.2012117501
  0
VERTEX
  8
LAYER_2
 10
86.4718
 20
145.7901
 42
0.06220045679
  0
VERTEX
  8
LAYER_2
 10
86.2397
 20
145.9762
 42
0.09566587689
  0
VERTEX
  8
LAYER_2
 10
85.4559
 20
146.2688
 42
0.0495028649
  0
VERTEX
  8
LAYER_2
 10
84.7592
 20
146.3356
 42
0.08126778568
  0
VERTEX
  8
LAYER_2
 10
83.678
 20
146.1646
 42
0.1035979957
  0
VERTEX
  8
LAYER_2
 10
83.0567
 20
145.8006
 42
0.1669288633
  0
VERTEX
  8
LAYER_2
 10
82.8606
 20
145.4099
 42
0.01854244978
  0
VERTEX
  8
LAYER_2
 10
82.8592
 20
145.3727
 42
0.2011768279
  0
VERTEX
  8
LAYER_2
 10
83.0466
 20
144.9552
 42
0.06221149391
  0
VERTEX
  8
LAYER_2
 10
83.2786
 20
144.769
 42
0.09568394317
  0
VERTEX
  8
LAYER_2
 10
84.0625
 20
144.4764
 42
0.04950311741
  0
VERTEX
  8
LAYER_2
 10
84.7592
 20
144.4096
 42
0.08127893675
  0
VERTEX
  8
LAYER_2
 10
85.8403
 20
144.5806
 42
0.1036183906
  0
VERTEX
  8
LAYER_2
 10
86.4616
 20
144.9447
 42
0.1669185758
  0
VERTEX
  8
LAYER_2
 10
86.6577
 20
145.3355
 42
0.01853676125
  0
VERTEX
  8
LAYER_2
 10
86.6591
 20
145.3727
  0
SEQEND
  0
ENDBLK
  0
BLOCK
  8
LAYER_2
  2
AIGNBL02010161
 70
64
 10
0
 20
0
 30
0
  3
AIGNBL02010161
  0
POLYLINE
  8
LAYER_2
 40
0.2469
 41
0.2469
 66
1
 10
0
 20
0
 30
0
  0
VERTEX
  8
LAYER_2
 10
172.0722
 20
137.3594
  0
VERTEX
  8
LAYER_2
 10
176.5122
 20
137.3594
  0
SEQEND
  0
ENDBLK
  0
BLOCK
  8
LAYER_2
  2
AIGNBL02010162
 70
64
 10
0
 20
0
 30
0
  3
AIGNBL02010162
  0
POLYLINE
  8
LAYER_2
 40
0.2469
 41
0.2469
 66
1
 10
0
 20
0
 30
0
  0
VERTEX
  8
LAYER_2
 10
172.0722
 20
137.3594
  0
VERTEX
  8
LAYER_2
 10
167.6321
 20
137.3594
  0
SEQEND
  0
ENDBLK
  0
BLOCK
  8
LAYER_2
  2
AIGNBL02010163
 70
64
 10
0
 20
0
 30
0
  3
AIGNBL02010163
  0
POLYLINE
  8
LAYER_2
 40
0.2469
 41
0.2469
 66
1
 10
0
 20
0
 30
0
  0
VERTEX
  8
LAYER_2
 10
167.5722
 20
137.4197
  0
VERTEX
  8
LAYER_2
 10
167.6321
 20
137.3594
  0
SEQEND
  0
ENDBLK
  0
BLOCK
  8
LAYER_2
  2
AIGNBL02010164
 70
64
 10
0
 20
0
 30
0
  3
AIGNBL02010164
  0
POLYLINE
  8
LAYER_2
  6
AIGENLINE001
 40
0.127
 41
0.127
 66
1
 10
0
 20
0
 30
0
 70
128
  0
VERTEX
  8
LAYER_2
 10
172.0722
 20
58.2197
  0
VERTEX
  8
LAYER_2
 10
172.0722
 20
168.9833
  0
SEQEND
  0
ENDBLK
  0
BLOCK
  8
LAYER_2
  2
AIGNBL02010165
 70
64
 10
0
 20
0
 30
0
  3
AIGNBL02010165
  0
POLYLINE
  8
LAYER_2
 40
0.2469
 41
0.2469
 66
1
 10
0
 20
0
 30
0
  0
VERTEX
  8
LAYER_2
 10
154.5663
 20
148.4998
  0
VERTEX
  8
LAYER_2
 10
154.456
 20
148.3093
  0
SEQEND
  0
ENDBLK
  0
BLOCK
  8
LAYER_2
  2
AIGNBL02010166
 70
64
 10
0
 20
0
 30
0
  3
AIGNBL02010166
  0
POLYLINE
  8
LAYER_2
 40
0.2469
 41
0.2469
 66
1
 10
0
 20
0
 30
0
  0
VERTEX
  8
LAYER_2
 10
152.0314
 20
149.7092
  0
VERTEX
  8
LAYER_2
 10
152.1416
 20
149.8997
  0
SEQEND
  0
ENDBLK
  0
BLOCK
  8
LAYER_2
  2
AIGNBL02010167
 70
64
 10
0
 20
0
 30
0
  3
AIGNBL02010167
  0
POLYLINE
  8
LAYER_2
 40
0.2469
 41
0.2469
 66
1
 10
0
 20
0
 30
0
  0
VERTEX
  8
LAYER_2
 10
153.5038
 20
149.4596
  0
VERTEX
  8
LAYER_2
 10
151.906
 20
150.382
  0
SEQEND
  0
ENDBLK
  0
BLOCK
  8
LAYER_2
  2
AIGNBL02010168
 70
64
 10
0
 20
0
 30
0
  3
AIGNBL02010168
  0
POLYLINE
  8
LAYER_2
 40
0.2469
 41
0.2469
 66
1
 10
0
 20
0
 30
0
  0
VERTEX
  8
LAYER_2
 10
151.7606
 20
150.1197
  0
VERTEX
  8
LAYER_2
 10
153.3536
 20
149.1999
  0
SEQEND
  0
ENDBLK
  0
BLOCK
  8
LAYER_2
  2
AIGNBL02010169
 70
64
 10
0
 20
0
 30
0
  3
AIGNBL02010169
  0
POLYLINE
  8
LAYER_2
 40
0.2469
 41
0.2469
 66
1
 10
0
 20
0
 30
0
  0
VERTEX
  8
LAYER_2
 10
155.0293
 20
148.3017
  0
VERTEX
  8
LAYER_2
 10
155.0996
 20
148.423
  0
SEQEND
  0
ENDBLK
  0
BLOCK
  8
LAYER_2
  2
AIGNBL0201016A
 70
64
 10
0
 20
0
 30
0
  3
AIGNBL0201016A
  0
POLYLINE
  8
LAYER_2
 40
0.2469
 41
0.2469
 66
1
 10
0
 20
0
 30
0
  0
VERTEX
  8
LAYER_2
 10
151.8081
 20
150.323
  0
VERTEX
  8
LAYER_2
 10
151.7385
 20
150.2017
  0
SEQEND
  0
ENDBLK
  0
BLOCK
  8
LAYER_2
  2
AIGNBL0201016B
 70
64
 10
0
 20
0
 30
0
  3
AIGNBL0201016B
  0
POLYLINE
  8
LAYER_2
 40
0.2469
 41
0.2469
 66
1
 10
0
 20
0
 30
0
  0
VERTEX
  8
LAYER_2
 10
151.7606
 20
150.1197
  0
VERTEX
  8
LAYER_2
 10
151.7385
 20
150.2017
  0
SEQEND
  0
ENDBLK
  0
BLOCK
  8
LAYER_2
  2
AIGNBL0201016C
 70
64
 10
0
 20
0
 30
0
  3
AIGNBL0201016C
  0
POLYLINE
  8
LAYER_2
 40
0.2469
 41
0.2469
 66
1
 10
0
 20
0
 30
0
  0
VERTEX
  8
LAYER_2
 10
154.9473
 20
148.2797
  0
VERTEX
  8
LAYER_2
 10
155.0293
 20
148.3017
  0
SEQEND
  0
ENDBLK
  0
BLOCK
  8
LAYER_2
  2
AIGNBL0201016D
 70
64
 10
0
 20
0
 30
0
  3
AIGNBL0201016D
  0
POLYLINE
  8
LAYER_2
 40
0.2469
 41
0.2469
 66
1
 10
0
 20
0
 30
0
  0
VERTEX
  8
LAYER_2
 10
154.9473
 20
148.2798
  0
VERTEX
  8
LAYER_2
 10
155.0293
 20
148.3017
  0
SEQEND
  0
ENDBLK
  0
BLOCK
  8
LAYER_2
  2
AIGNBL0201016E
 70
64
 10
0
 20
0
 30
0
  3
AIGNBL0201016E
  0
POLYLINE
  8
LAYER_2
 40
0.2469
 41
0.2469
 66
1
 10
0
 20
0
 30
0
  0
VERTEX
  8
LAYER_2
 10
154.9473
 20
148.2798
  0
VERTEX
  8
LAYER_2
 10
153.3536
 20
149.1999
  0
SEQEND
  0
ENDBLK
  0
BLOCK
  8
LAYER_2
  2
AIGNBL0201016F
 70
64
 10
0
 20
0
 30
0
  3
AIGNBL0201016F
  0
POLYLINE
  8
LAYER_2
 40
0.2469
 41
0.2469
 66
1
 10
0
 20
0
 30
0
  0
VERTEX
  8
LAYER_2
 10
153.5038
 20
149.4596
  0
VERTEX
  8
LAYER_2
 10
155.1016
 20
148.537
  0
SEQEND
  0
ENDBLK
  0
BLOCK
  8
LAYER_2
  2
AIGNBL02010170
 70
64
 10
0
 20
0
 30
0
  3
AIGNBL02010170
  0
POLYLINE
  8
LAYER_2
 40
0.2469
 41
0.2469
 66
1
 10
0
 20
0
 30
0
  0
VERTEX
  8
LAYER_2
 10
155.0996
 20
148.423
  0
VERTEX
  8
LAYER_2
 10
155.0293
 20
148.3017
  0
SEQEND
  0
ENDBLK
  0
BLOCK
  8
LAYER_2
  2
AIGNBL02010171
 70
64
 10
0
 20
0
 30
0
  3
AIGNBL02010171
  0
POLYLINE
  8
LAYER_2
 40
0.2469
 41
0.2469
 66
1
 10
0
 20
0
 30
0
  0
VERTEX
  8
LAYER_2
 10
155.0996
 20
148.423
  0
VERTEX
  8
LAYER_2
 10
155.0624
 20
148.5596
  0
SEQEND
  0
ENDBLK
  0
BLOCK
  8
LAYER_2
  2
AIGNBL02010172
 70
64
 10
0
 20
0
 30
0
  3
AIGNBL02010172
  0
POLYLINE
  8
LAYER_2
 40
0.2469
 41
0.2469
 66
1
 10
0
 20
0
 30
0
  0
VERTEX
  8
LAYER_2
 10
151.8081
 20
150.323
  0
VERTEX
  8
LAYER_2
 10
151.9452
 20
150.3596
  0
SEQEND
  0
ENDBLK
  0
BLOCK
  8
LAYER_2
  2
AIGNBL02010173
 70
64
 10
0
 20
0
 30
0
  3
AIGNBL02010173
  0
POLYLINE
  8
LAYER_2
  6
AIGENLINE002
 40
0.2469
 41
0.2469
 66
1
 10
0
 20
0
 30
0
 70
128
  0
VERTEX
  8
LAYER_2
 10
171.9916
 20
168.4972
  0
VERTEX
  8
LAYER_2
 10
171.4135
 20
167.4454
  0
SEQEND
  0
ENDBLK
  0
BLOCK
  8
LAYER_2
  2
AIGNBL02010174
 70
64
 10
0
 20
0
 30
0
  3
AIGNBL02010174
  0
POLYLINE
  8
LAYER_2
  6
AIGENLINE002
 40
0.2469
 41
0.2469
 66
1
 10
0
 20
0
 30
0
 70
128
  0
VERTEX
  8
LAYER_2
 10
179.3372
 20
164.5912
  0
VERTEX
  8
LAYER_2
 10
179.3792
 20
164.6692
  0
SEQEND
  0
ENDBLK
  0
BLOCK
  8
LAYER_2
  2
AIGNBL02010175
 70
64
 10
0
 20
0
 30
0
  3
AIGNBL02010175
  0
POLYLINE
  8
LAYER_2
  6
AIGENLINE002
 40
0.2469
 41
0.2469
 66
1
 10
0
 20
0
 30
0
 70
128
  0
VERTEX
  8
LAYER_2
 10
168.1875
 20
162.3653
  0
VERTEX
  8
LAYER_2
 10
172.0722
 20
160.2996
  0
SEQEND
  0
ENDBLK
  0
BLOCK
  8
LAYER_2
  2
AIGNBL02010176
 70
64
 10
0
 20
0
 30
0
  3
AIGNBL02010176
  0
POLYLINE
  8
LAYER_2
  6
AIGENLINE002
 40
0.2469
 41
0.2469
 66
1
 10
0
 20
0
 30
0
 70
128
  0
VERTEX
  8
LAYER_2
 10
171.9916
 20
168.4972
  0
VERTEX
  8
LAYER_2
 10
172.1004
 20
168.7022
  0
SEQEND
  0
ENDBLK
  0
BLOCK
  8
LAYER_2
  2
AIGNBL02010177
 70
64
 10
0
 20
0
 30
0
  3
AIGNBL02010177
  0
POLYLINE
  8
LAYER_2
  6
AIGENLINE002
 40
0.2469
 41
0.2469
 66
1
 10
0
 20
0
 30
0
 70
128
  0
VERTEX
  8
LAYER_2
 10
177.0703
 20
160.2996
  0
VERTEX
  8
LAYER_2
 10
172.0722
 20
160.2996
  0
SEQEND
  0
ENDBLK
  0
BLOCK
  8
LAYER_2
  2
AIGNBL02010178
 70
64
 10
0
 20
0
 30
0
  3
AIGNBL02010178
  0
POLYLINE
  8
LAYER_2
  6
AIGENLINE002
 40
0.2469
 41
0.2469
 66
1
 10
0
 20
0
 30
0
 70
128
  0
VERTEX
  8
LAYER_2
 10
179.3792
 20
164.6692
 42
0.3256868196
  0
VERTEX
  8
LAYER_2
 10
179.3455
 20
164.9026
  0
SEQEND
  0
ENDBLK
  0
BLOCK
  8
LAYER_2
  2
AIGNBL02010179
 70
64
 10
0
 20
0
 30
0
  3
AIGNBL02010179
  0
POLYLINE
  8
LAYER_2
  6
AIGENLINE002
 40
0.2469
 41
0.2469
 66
1
 10
0
 20
0
 30
0
 70
128
  0
VERTEX
  8
LAYER_2
 10
177.0703
 20
160.2996
 42
0.2786420101
  0
VERTEX
  8
LAYER_2
 10
177.1592
 20
160.354
  0
SEQEND
  0
ENDBLK
  0
BLOCK
  8
LAYER_2
  2
AIGNBL0201017A
 70
64
 10
0
 20
0
 30
0
  3
AIGNBL0201017A
  0
POLYLINE
  8
LAYER_2
  6
AIGENLINE002
 40
0.2469
 41
0.2469
 66
1
 10
0
 20
0
 30
0
 70
128
  0
VERTEX
  8
LAYER_2
 10
168.1462
 20
162.5007
 42
0.3943760224
  0
VERTEX
  8
LAYER_2
 10
168.1875
 20
162.3653
  0
SEQEND
  0
ENDBLK
  0
BLOCK
  8
LAYER_2
  2
AIGNBL0201017B
 70
64
 10
0
 20
0
 30
0
  3
AIGNBL0201017B
  0
POLYLINE
  8
LAYER_2
  6
AIGENLINE002
 40
0.2469
 41
0.2469
 66
1
 10
0
 20
0
 30
0
 70
128
  0
VERTEX
  8
LAYER_2
 10
179.3455
 20
164.9026
 42
0.1465684224
  0
VERTEX
  8
LAYER_2
 10
172.3195
 20
168.8036
  0
SEQEND
  0
ENDBLK
  0
BLOCK
  8
LAYER_2
  2
AIGNBL0201017C
 70
64
 10
0
 20
0
 30
0
  3
AIGNBL0201017C
  0
POLYLINE
  8
LAYER_2
  6
AIGENLINE002
 40
0.2469
 41
0.2469
 66
1
 10
0
 20
0
 30
0
 70
128
  0
VERTEX
  8
LAYER_2
 10
172.3195
 20
168.8036
 42
0.3361715594
  0
VERTEX
  8
LAYER_2
 10
172.1004
 20
168.7022
  0
SEQEND
  0
ENDBLK
  0
BLOCK
  8
LAYER_2
  2
AIGNBL0201017D
 70
64
 10
0
 20
0
 30
0
  3
AIGNBL0201017D
  0
POLYLINE
  8
LAYER_2
  6
AIGENLINE002
 40
0.127
 41
0.127
 66
1
 10
0
 20
0
 30
0
 70
128
  0
VERTEX
  8
LAYER_2
 10
160.0219
 20
173.2759
  0
VERTEX
  8
LAYER_2
 10
159.2709
 20
171.8632
  0
SEQEND
  0
ENDBLK
  0
BLOCK
  8
LAYER_2
  2
AIGNBL0201017E
 70
64
 10
0
 20
0
 30
0
  3
AIGNBL0201017E
  0
POLYLINE
  8
LAYER_2
  6
AIGENLINE002
 40
0.2469
 41
0.2469
 66
1
 10
0
 20
0
 30
0
 70
128
  0
VERTEX
  8
LAYER_2
 10
160.0219
 20
173.2759
  0
VERTEX
  8
LAYER_2
 10
159.2709
 20
171.8632
  0
SEQEND
  0
ENDBLK
  0
BLOCK
  8
LAYER_2
  2
AIGNBL0201017F
 70
64
 10
0
 20
0
 30
0
  3
AIGNBL0201017F
  0
POLYLINE
  8
LAYER_2
  6
AIGENLINE002
 40
0.2469
 41
0.2469
 66
1
 10
0
 20
0
 30
0
 70
128
  0
VERTEX
  8
LAYER_2
 10
160.292
 20
173.3586
  0
VERTEX
  8
LAYER_2
 10
171.4135
 20
167.4454
  0
SEQEND
  0
ENDBLK
  0
BLOCK
  8
LAYER_2
  2
AIGNBL02010180
 70
64
 10
0
 20
0
 30
0
  3
AIGNBL02010180
  0
POLYLINE
  8
LAYER_2
  6
AIGENLINE002
 40
0.2469
 41
0.2469
 66
1
 10
0
 20
0
 30
0
 70
128
  0
VERTEX
  8
LAYER_2
 10
159.3536
 20
171.5928
  0
VERTEX
  8
LAYER_2
 10
160.5642
 20
170.9487
  0
SEQEND
  0
ENDBLK
  0
BLOCK
  8
LAYER_2
  2
AIGNBL02010181
 70
64
 10
0
 20
0
 30
0
  3
AIGNBL02010181
  0
POLYLINE
  8
LAYER_2
  6
AIGENLINE002
 40
0.2469
 41
0.2469
 66
1
 10
0
 20
0
 30
0
 70
128
  0
VERTEX
  8
LAYER_2
 10
163.0867
 20
169.6077
  0
VERTEX
  8
LAYER_2
 10
170.4495
 20
165.6927
  0
SEQEND
  0
ENDBLK
  0
BLOCK
  8
LAYER_2
  2
AIGNBL02010182
 70
64
 10
0
 20
0
 30
0
  3
AIGNBL02010182
  0
POLYLINE
  8
LAYER_2
  6
AIGENLINE002
 40
0.2469
 41
0.2469
 66
1
 10
0
 20
0
 30
0
 70
128
  0
VERTEX
  8
LAYER_2
 10
179.3372
 20
164.5912
  0
VERTEX
  8
LAYER_2
 10
177.1592
 20
160.354
  0
SEQEND
  0
ENDBLK
  0
BLOCK
  8
LAYER_2
  2
AIGNBL02010183
 70
64
 10
0
 20
0
 30
0
  3
AIGNBL02010183
  0
POLYLINE
  8
LAYER_2
  6
AIGENLINE002
 40
0.2469
 41
0.2469
 66
1
 10
0
 20
0
 30
0
 70
128
  0
VERTEX
  8
LAYER_2
 10
163.0867
 20
169.6077
 42
0.4142879078
  0
VERTEX
  8
LAYER_2
 10
160.6028
 20
170.9605
  0
VERTEX
  8
LAYER_2
 10
160.5642
 20
170.9487
  0
SEQEND
  0
ENDBLK
  0
BLOCK
  8
LAYER_2
  2
AIGNBL02010184
 70
64
 10
0
 20
0
 30
0
  3
AIGNBL02010184
  0
POLYLINE
  8
LAYER_2
  6
AIGENLINE002
 40
0.2469
 41
0.2469
 66
1
 10
0
 20
0
 30
0
 70
128
  0
VERTEX
  8
LAYER_2
 10
160.292
 20
173.3586
 42
0.3939992232
  0
VERTEX
  8
LAYER_2
 10
160.0219
 20
173.2759
  0
SEQEND
  0
ENDBLK
  0
BLOCK
  8
LAYER_2
  2
AIGNBL02010185
 70
64
 10
0
 20
0
 30
0
  3
AIGNBL02010185
  0
POLYLINE
  8
LAYER_2
  6
AIGENLINE002
 40
0.2469
 41
0.2469
 66
1
 10
0
 20
0
 30
0
 70
128
  0
VERTEX
  8
LAYER_2
 10
159.2709
 20
171.8632
 42
0.3953904175
  0
VERTEX
  8
LAYER_2
 10
159.3536
 20
171.5928
  0
SEQEND
  0
ENDBLK
  0
BLOCK
  8
LAYER_2
  2
AIGNBL02010186
 70
64
 10
0
 20
0
 30
0
  3
AIGNBL02010186
  0
POLYLINE
  8
LAYER_2
 40
0.2469
 41
0.2469
 66
1
 10
0
 20
0
 30
0
  0
VERTEX
  8
LAYER_2
 10
172.0722
 20
159.9596
  0
VERTEX
  8
LAYER_2
 10
167.6321
 20
159.9596
  0
SEQEND
  0
ENDBLK
  0
BLOCK
  8
LAYER_2
  2
AIGNBL02010187
 70
64
 10
0
 20
0
 30
0
  3
AIGNBL02010187
  0
POLYLINE
  8
LAYER_2
 40
0.2469
 41
0.2469
 66
1
 10
0
 20
0
 30
0
  0
VERTEX
  8
LAYER_2
 10
172.0722
 20
159.9596
  0
VERTEX
  8
LAYER_2
 10
176.5122
 20
159.9596
  0
SEQEND
  0
ENDBLK
  0
BLOCK
  8
LAYER_2
  2
AIGNBL02010188
 70
64
 10
0
 20
0
 30
0
  3
AIGNBL02010188
  0
POLYLINE
  8
LAYER_2
 40
0.2469
 41
0.2469
 66
1
 10
0
 20
0
 30
0
  0
VERTEX
  8
LAYER_2
 10
176.0719
 20
159.9596
 42
0.1740738966
  0
VERTEX
  8
LAYER_2
 10
175.3726
 20
161.8595
  0
SEQEND
  0
ENDBLK
  0
BLOCK
  8
LAYER_2
  2
AIGNBL02010189
 70
64
 10
0
 20
0
 30
0
  3
AIGNBL02010189
  0
POLYLINE
  8
LAYER_2
 40
0.2469
 41
0.2469
 66
1
 10
0
 20
0
 30
0
  0
VERTEX
  8
LAYER_2
 10
168.0945
 20
160.2996
  0
VERTEX
  8
LAYER_2
 10
168.0724
 20
159.9596
  0
SEQEND
  0
ENDBLK
  0
BLOCK
  8
LAYER_2
  2
AIGNBL0201018A
 70
64
 10
0
 20
0
 30
0
  3
AIGNBL0201018A
  0
POLYLINE
  8
LAYER_2
  6
AIGENLINE001
 40
0.127
 41
0.127
 66
1
 10
0
 20
0
 30
0
 70
128
  0
VERTEX
  8
LAYER_2
 10
169.8012
 20
165.2996
  0
VERTEX
  8
LAYER_2
 10
154.9439
 20
165.2996
  0
SEQEND
  0
ENDBLK
  0
BLOCK
  8
LAYER_2
  2
AIGNBL0201018B
 70
64
 10
0
 20
0
 30
0
  3
AIGNBL0201018B
  0
POLYLINE
  8
LAYER_2
 40
0.2469
 41
0.2469
 66
1
 10
0
 20
0
 30
0
  0
VERTEX
  8
LAYER_2
 10
168.1524
 20
167.4997
  0
VERTEX
  8
LAYER_2
 10
168.1076
 20
164.2997
  0
SEQEND
  0
ENDBLK
  0
BLOCK
  8
LAYER_2
  2
AIGNBL0201018C
 70
64
 10
0
 20
0
 30
0
  3
AIGNBL0201018C
  0
POLYLINE
  8
LAYER_2
 40
0.2469
 41
0.2469
 66
1
 10
0
 20
0
 30
0
  0
VERTEX
  8
LAYER_2
 10
176.4723
 20
167.4997
  0
VERTEX
  8
LAYER_2
 10
176.4723
 20
167.5879
  0
SEQEND
  0
ENDBLK
  0
BLOCK
  8
LAYER_2
  2
AIGNBL0201018D
 70
64
 10
0
 20
0
 30
0
  3
AIGNBL0201018D
  0
POLYLINE
  8
LAYER_2
 40
0.2469
 41
0.2469
 66
1
 10
0
 20
0
 30
0
  0
VERTEX
  8
LAYER_2
 10
167.6721
 20
160.2996
  0
VERTEX
  8
LAYER_2
 10
172.0722
 20
160.2996
  0
SEQEND
  0
ENDBLK
  0
BLOCK
  8
LAYER_2
  2
AIGNBL0201018E
 70
64
 10
0
 20
0
 30
0
  3
AIGNBL0201018E
  0
POLYLINE
  8
LAYER_2
 40
0.2469
 41
0.2469
 66
1
 10
0
 20
0
 30
0
  0
VERTEX
  8
LAYER_2
 10
168.1524
 20
167.4997
  0
VERTEX
  8
LAYER_2
 10
168.1524
 20
167.7317
  0
SEQEND
  0
ENDBLK
  0
BLOCK
  8
LAYER_2
  2
AIGNBL0201018F
 70
64
 10
0
 20
0
 30
0
  3
AIGNBL0201018F
  0
POLYLINE
  8
LAYER_2
 40
0.2469
 41
0.2469
 66
1
 10
0
 20
0
 30
0
  0
VERTEX
  8
LAYER_2
 10
176.4723
 20
167.5879
 42
0.3264078671
  0
VERTEX
  8
LAYER_2
 10
176.3331
 20
167.7784
  0
SEQEND
  0
ENDBLK
  0
BLOCK
  8
LAYER_2
  2
AIGNBL02010190
 70
64
 10
0
 20
0
 30
0
  3
AIGNBL02010190
  0
POLYLINE
  8
LAYER_2
 40
0.2469
 41
0.2469
 66
1
 10
0
 20
0
 30
0
  0
VERTEX
  8
LAYER_2
 10
176.4854
 20
162.6462
 42
0.2748119543
  0
VERTEX
  8
LAYER_2
 10
176.5384
 20
162.7358
  0
SEQEND
  0
ENDBLK
  0
BLOCK
  8
LAYER_2
  2
AIGNBL02010191
 70
64
 10
0
 20
0
 30
0
  3
AIGNBL02010191
  0
POLYLINE
  8
LAYER_2
 40
0.2469
 41
0.2469
 66
1
 10
0
 20
0
 30
0
  0
VERTEX
  8
LAYER_2
 10
167.5722
 20
160.3997
 42
0.3925088891
  0
VERTEX
  8
LAYER_2
 10
167.6721
 20
160.2996
  0
SEQEND
  0
ENDBLK
  0
BLOCK
  8
LAYER_2
  2
AIGNBL02010192
 70
64
 10
0
 20
0
 30
0
  3
AIGNBL02010192
  0
POLYLINE
  8
LAYER_2
 40
0.2469
 41
0.2469
 66
1
 10
0
 20
0
 30
0
  0
VERTEX
  8
LAYER_2
 10
176.3331
 20
167.7784
 42
0.1465935206
  0
VERTEX
  8
LAYER_2
 10
168.2984
 20
167.9243
  0
SEQEND
  0
ENDBLK
  0
BLOCK
  8
LAYER_2
  2
AIGNBL02010193
 70
64
 10
0
 20
0
 30
0
  3
AIGNBL02010193
  0
POLYLINE
  8
LAYER_2
 40
0.2469
 41
0.2469
 66
1
 10
0
 20
0
 30
0
  0
VERTEX
  8
LAYER_2
 10
168.2984
 20
167.9243
 42
0.3363120474
  0
VERTEX
  8
LAYER_2
 10
168.1524
 20
167.7317
  0
SEQEND
  0
ENDBLK
  0
BLOCK
  8
LAYER_2
  2
AIGNBL02010194
 70
64
 10
0
 20
0
 30
0
  3
AIGNBL02010194
  0
POLYLINE
  8
LAYER_2
 40
0.2469
 41
0.2469
 66
1
 10
0
 20
0
 30
0
  0
VERTEX
  8
LAYER_2
 10
155.34
 20
166.0998
  0
VERTEX
  8
LAYER_2
 10
155.34
 20
164.4997
  0
SEQEND
  0
ENDBLK
  0
BLOCK
  8
LAYER_2
  2
AIGNBL02010195
 70
64
 10
0
 20
0
 30
0
  3
AIGNBL02010195
  0
POLYLINE
  8
LAYER_2
 40
0.2469
 41
0.2469
 66
1
 10
0
 20
0
 30
0
  0
VERTEX
  8
LAYER_2
 10
155.5405
 20
166.2996
  0
VERTEX
  8
LAYER_2
 10
168.1358
 20
166.2996
  0
SEQEND
  0
ENDBLK
  0
BLOCK
  8
LAYER_2
  2
AIGNBL02010196
 70
64
 10
0
 20
0
 30
0
  3
AIGNBL02010196
  0
POLYLINE
  8
LAYER_2
 40
0.2469
 41
0.2469
 66
1
 10
0
 20
0
 30
0
  0
VERTEX
  8
LAYER_2
 10
155.5405
 20
164.2997
  0
VERTEX
  8
LAYER_2
 10
156.9117
 20
164.2997
  0
SEQEND
  0
ENDBLK
  0
BLOCK
  8
LAYER_2
  2
AIGNBL02010197
 70
64
 10
0
 20
0
 30
0
  3
AIGNBL02010197
  0
POLYLINE
  8
LAYER_2
 40
0.2469
 41
0.2469
 66
1
 10
0
 20
0
 30
0
  0
VERTEX
  8
LAYER_2
 10
159.7684
 20
164.2997
  0
VERTEX
  8
LAYER_2
 10
168.1076
 20
164.2997
  0
SEQEND
  0
ENDBLK
  0
BLOCK
  8
LAYER_2
  2
AIGNBL02010198
 70
64
 10
0
 20
0
 30
0
  3
AIGNBL02010198
  0
POLYLINE
  8
LAYER_2
 40
0.2469
 41
0.2469
 66
1
 10
0
 20
0
 30
0
  0
VERTEX
  8
LAYER_2
 10
176.4723
 20
167.4997
  0
VERTEX
  8
LAYER_2
 10
176.5384
 20
162.7358
  0
SEQEND
  0
ENDBLK
  0
BLOCK
  8
LAYER_2
  2
AIGNBL02010199
 70
64
 10
0
 20
0
 30
0
  3
AIGNBL02010199
  0
POLYLINE
  8
LAYER_2
 40
0.2469
 41
0.2469
 66
1
 10
0
 20
0
 30
0
  0
VERTEX
  8
LAYER_2
 10
159.7684
 20
164.2997
 42
0.4143446953
  0
VERTEX
  8
LAYER_2
 10
156.9406
 20
164.328
  0
VERTEX
  8
LAYER_2
 10
156.9117
 20
164.2997
  0
SEQEND
  0
ENDBLK
  0
BLOCK
  8
LAYER_2
  2
AIGNBL0201019A
 70
64
 10
0
 20
0
 30
0
  3
AIGNBL0201019A
  0
POLYLINE
  8
LAYER_2
 40
0.2469
 41
0.2469
 66
1
 10
0
 20
0
 30
0
  0
VERTEX
  8
LAYER_2
 10
155.5405
 20
166.2996
 42
0.392928229
  0
VERTEX
  8
LAYER_2
 10
155.34
 20
166.0998
  0
SEQEND
  0
ENDBLK
  0
BLOCK
  8
LAYER_2
  2
AIGNBL0201019B
 70
64
 10
0
 20
0
 30
0
  3
AIGNBL0201019B
  0
POLYLINE
  8
LAYER_2
 40
0.2469
 41
0.2469
 66
1
 10
0
 20
0
 30
0
  0
VERTEX
  8
LAYER_2
 10
155.34
 20
164.4997
 42
0.3934460817
  0
VERTEX
  8
LAYER_2
 10
155.5405
 20
164.2997
  0
SEQEND
  0
ENDBLK
  0
BLOCK
  8
LAYER_2
  2
AIGNBL0201019C
 70
64
 10
0
 20
0
 30
0
  3
AIGNBL0201019C
  0
POLYLINE
  8
LAYER_2
 40
0.2469
 41
0.2469
 66
1
 10
0
 20
0
 30
0
  0
VERTEX
  8
LAYER_2
 10
176.4854
 20
162.6462
  0
VERTEX
  8
LAYER_2
 10
172.0722
 20
160.2996
  0
SEQEND
  0
ENDBLK
  0
BLOCK
  8
LAYER_2
  2
AIGNBL0201019D
 70
64
 10
0
 20
0
 30
0
  3
AIGNBL0201019D
  0
POLYLINE
  8
LAYER_2
  6
AIGENLINE002
 40
0.2469
 41
0.2469
 66
1
 10
0
 20
0
 30
0
 70
128
  0
VERTEX
  8
LAYER_2
 10
169.0605
 20
164.1669
 42
0.1162324032
  0
VERTEX
  8
LAYER_2
 10
170.4495
 20
165.6927
  0
SEQEND
  0
ENDBLK
  0
BLOCK
  8
LAYER_2
  2
AIGNBL0201019E
 70
64
 10
0
 20
0
 30
0
  3
AIGNBL0201019E
  0
POLYLINE
  8
LAYER_2
  6
AIGENLINE002
 40
0.2469
 41
0.2469
 66
1
 10
0
 20
0
 30
0
 70
128
  0
VERTEX
  8
LAYER_2
 10
169.0605
 20
164.1669
 42
0.1270812409
  0
VERTEX
  8
LAYER_2
 10
168.993
 20
164.0933
  0
SEQEND
  0
ENDBLK
  0
BLOCK
  8
LAYER_2
  2
AIGNBL0201019F
 70
64
 10
0
 20
0
 30
0
  3
AIGNBL0201019F
  0
POLYLINE
  8
LAYER_2
  6
AIGENLINE002
 40
0.2469
 41
0.2469
 66
1
 10
0
 20
0
 30
0
 70
128
  0
VERTEX
  8
LAYER_2
 10
168.9943
 20
164.0961
  0
VERTEX
  8
LAYER_2
 10
168.1462
 20
162.5007
  0
SEQEND
  0
ENDBLK
  0
BLOCK
  8
LAYER_2
  2
AIGNBL020101A0
 70
64
 10
0
 20
0
 30
0
  3
AIGNBL020101A0
  0
POLYLINE
  8
LAYER_2
 40
0.2469
 41
0.2469
 66
1
 10
0
 20
0
 30
0
  0
VERTEX
  8
LAYER_2
 10
167.597
 20
162.3002
 42
0.1162936647
  0
VERTEX
  8
LAYER_2
 10
168.1076
 20
164.2997
  0
SEQEND
  0
ENDBLK
  0
BLOCK
  8
LAYER_2
  2
AIGNBL020101A1
 70
64
 10
0
 20
0
 30
0
  3
AIGNBL020101A1
  0
POLYLINE
  8
LAYER_2
 40
0.2469
 41
0.2469
 66
1
 10
0
 20
0
 30
0
  0
VERTEX
  8
LAYER_2
 10
167.597
 20
162.3002
 42
0.1249784959
  0
VERTEX
  8
LAYER_2
 10
167.5722
 20
162.2035
  0
SEQEND
  0
ENDBLK
  0
BLOCK
  8
LAYER_2
  2
AIGNBL020101A2
 70
64
 10
0
 20
0
 30
0
  3
AIGNBL020101A2
  0
POLYLINE
  8
LAYER_2
 40
0.2469
 41
0.2469
 66
1
 10
0
 20
0
 30
0
  0
VERTEX
  8
LAYER_2
 10
167.5722
 20
162.2066
  0
VERTEX
  8
LAYER_2
 10
167.5722
 20
160.3997
  0
SEQEND
  0
ENDBLK
  0
BLOCK
  8
LAYER_2
  2
AIGNBL020101A3
 70
64
 10
0
 20
0
 30
0
  3
AIGNBL020101A3
  0
POLYLINE
  8
LAYER_2
 40
0.2469
 41
0.2469
 66
1
 10
0
 20
0
 30
0
  0
VERTEX
  8
LAYER_2
 10
175.3726
 20
162.0544
  0
VERTEX
  8
LAYER_2
 10
175.3726
 20
161.8595
  0
SEQEND
  0
ENDBLK
  0
BLOCK
  8
LAYER_2
  2
AIGNBL020101A4
 70
64
 10
0
 20
0
 30
0
  3
AIGNBL020101A4
  0
POLYLINE
  8
LAYER_2
 40
0.2469
 41
0.2469
 66
1
 10
0
 20
0
 30
0
  0
VERTEX
  8
LAYER_2
 10
172.0722
 20
167.5998
  0
VERTEX
  8
LAYER_2
 10
168.1524
 20
167.5998
  0
SEQEND
  0
ENDBLK
  0
BLOCK
  8
LAYER_2
  2
AIGNBL020101A5
 70
64
 10
0
 20
0
 30
0
  3
AIGNBL020101A5
  0
POLYLINE
  8
LAYER_2
 40
0.2469
 41
0.2469
 66
1
 10
0
 20
0
 30
0
  0
VERTEX
  8
LAYER_2
 10
176.4723
 20
167.5998
  0
VERTEX
  8
LAYER_2
 10
172.0722
 20
167.5998
  0
SEQEND
  0
ENDBLK
  0
BLOCK
  8
LAYER_2
  2
AIGNBL020101A6
 70
64
 10
0
 20
0
 30
0
  3
AIGNBL020101A6
  0
POLYLINE
  8
LAYER_2
 40
0.2469
 41
0.2469
 66
1
 10
0
 20
0
 30
0
  0
VERTEX
  8
LAYER_2
 10
82.7138
 20
220.956
 42
0.1206778788
  0
VERTEX
  8
LAYER_2
 10
82.8068
 20
220.9331
  0
SEQEND
  0
ENDBLK
  0
BLOCK
  8
LAYER_2
  2
AIGNBL020101A7
 70
64
 10
0
 20
0
 30
0
  3
AIGNBL020101A7
  0
POLYLINE
  8
LAYER_2
 40
0.2469
 41
0.2469
 66
1
 10
0
 20
0
 30
0
  0
VERTEX
  8
LAYER_2
 10
86.7094
 20
220.9331
 42
0.1183518176
  0
VERTEX
  8
LAYER_2
 10
86.8025
 20
220.956
  0
SEQEND
  0
ENDBLK
  0
BLOCK
  8
LAYER_2
  2
AIGNBL020101A8
 70
64
 10
0
 20
0
 30
0
  3
AIGNBL020101A8
  0
POLYLINE
  8
LAYER_2
 40
0.2469
 41
0.2469
 66
1
 10
0
 20
0
 30
0
  0
VERTEX
  8
LAYER_2
 10
86.8025
 20
220.956
 42
0.4142128978
  0
VERTEX
  8
LAYER_2
 10
88.6542
 20
226.8966
 42
0.4142213004
  0
VERTEX
  8
LAYER_2
 10
82.7138
 20
228.7487
 42
0.4141950654
  0
VERTEX
  8
LAYER_2
 10
80.8617
 20
222.8081
 42
0.1522035203
  0
VERTEX
  8
LAYER_2
 10
82.7138
 20
220.956
  0
SEQEND
  0
ENDBLK
  0
BLOCK
  8
LAYER_2
  2
AIGNBL020101A9
 70
64
 10
0
 20
0
 30
0
  3
AIGNBL020101A9
  0
POLYLINE
  8
LAYER_2
 40
0.2469
 41
0.2469
 66
1
 10
0
 20
0
 30
0
  0
VERTEX
  8
LAYER_2
 10
85.7579
 20
220.9018
  0
VERTEX
  8
LAYER_2
 10
83.758
 20
220.9018
  0
SEQEND
  0
ENDBLK
  0
BLOCK
  8
LAYER_2
  2
AIGNBL020101AA
 70
64
 10
0
 20
0
 30
0
  3
AIGNBL020101AA
  0
POLYLINE
  8
LAYER_2
  6
AIGENLINE002
 40
0.2469
 41
0.2469
 66
1
 10
0
 20
0
 30
0
 70
128
  0
VERTEX
  8
LAYER_2
 10
96.5696
 20
213.6352
  0
VERTEX
  8
LAYER_2
 10
87.4767
 20
221.2652
  0
SEQEND
  0
ENDBLK
  0
BLOCK
  8
LAYER_2
  2
AIGNBL020101AB
 70
64
 10
0
 20
0
 30
0
  3
AIGNBL020101AB
  0
POLYLINE
  8
LAYER_2
 40
0.2469
 41
0.2469
 66
1
 10
0
 20
0
 30
0
  0
VERTEX
  8
LAYER_2
 10
82.7145
 20
220.843
 42
0.1180424991
  0
VERTEX
  8
LAYER_2
 10
82.8055
 20
220.8211
  0
SEQEND
  0
ENDBLK
  0
BLOCK
  8
LAYER_2
  2
AIGNBL020101AC
 70
64
 10
0
 20
0
 30
0
  3
AIGNBL020101AC
  0
POLYLINE
  8
LAYER_2
 40
0.2469
 41
0.2469
 66
1
 10
0
 20
0
 30
0
  0
VERTEX
  8
LAYER_2
 10
86.7105
 20
220.8211
 42
0.1165612566
  0
VERTEX
  8
LAYER_2
 10
86.8014
 20
220.843
  0
SEQEND
  0
ENDBLK
  0
BLOCK
  8
LAYER_2
  2
AIGNBL020101AD
 70
64
 10
0
 20
0
 30
0
  3
AIGNBL020101AD
  0
POLYLINE
  8
LAYER_2
 40
0.2469
 41
0.2469
 66
1
 10
0
 20
0
 30
0
  0
VERTEX
  8
LAYER_2
 10
82.6914
 20
220.956
 42
0.1206288286
  0
VERTEX
  8
LAYER_2
 10
82.7844
 20
220.9331
  0
SEQEND
  0
ENDBLK
  0
BLOCK
  8
LAYER_2
  2
AIGNBL020101AE
 70
64
 10
0
 20
0
 30
0
  3
AIGNBL020101AE
  0
POLYLINE
  8
LAYER_2
 40
0.2469
 41
0.2469
 66
1
 10
0
 20
0
 30
0
  0
VERTEX
  8
LAYER_2
 10
83.758
 20
220.8211
  0
VERTEX
  8
LAYER_2
 10
82.8055
 20
220.8211
  0
SEQEND
  0
ENDBLK
  0
BLOCK
  8
LAYER_2
  2
AIGNBL020101AF
 70
64
 10
0
 20
0
 30
0
  3
AIGNBL020101AF
  0
POLYLINE
  8
LAYER_2
  6
AIGENLINE002
 40
0.2469
 41
0.2469
 66
1
 10
0
 20
0
 30
0
 70
128
  0
VERTEX
  8
LAYER_2
 10
88.762
 20
222.7974
 42
0.4142735369
  0
VERTEX
  8
LAYER_2
 10
86.8124
 20
228.8553
 42
0.4142194876
  0
VERTEX
  8
LAYER_2
 10
80.7546
 20
226.9057
 42
0.414205595
  0
VERTEX
  8
LAYER_2
 10
82.7042
 20
220.8477
 42
0.2882426057
  0
VERTEX
  8
LAYER_2
 10
87.4767
 20
221.2652
  0
SEQEND
  0
ENDBLK
  0
BLOCK
  8
LAYER_2
  2
AIGNBL020101B0
 70
64
 10
0
 20
0
 30
0
  3
AIGNBL020101B0
  0
POLYLINE
  8
LAYER_2
 40
0.2469
 41
0.2469
 66
1
 10
0
 20
0
 30
0
  0
VERTEX
  8
LAYER_2
 10
82.7844
 20
220.9331
  0
VERTEX
  8
LAYER_2
 10
86.687
 20
220.9331
  0
SEQEND
  0
ENDBLK
  0
BLOCK
  8
LAYER_2
  2
AIGNBL020101B1
 70
64
 10
0
 20
0
 30
0
  3
AIGNBL020101B1
  0
POLYLINE
  8
LAYER_2
  6
AIGENLINE001
 40
0.127
 41
0.127
 66
1
 10
0
 20
0
 30
0
 70
128
  0
VERTEX
  8
LAYER_2
 10
80.8349
 20
228.1439
  0
VERTEX
  8
LAYER_2
 10
98.1692
 20
213.5985
  0
SEQEND
  0
ENDBLK
  0
BLOCK
  8
LAYER_2
  2
AIGNBL020101B2
 70
64
 10
0
 20
0
 30
0
  3
AIGNBL020101B2
  0
POLYLINE
  8
LAYER_2
  6
AIGENLINE002
 40
0.2469
 41
0.2469
 66
1
 10
0
 20
0
 30
0
 70
128
  0
VERTEX
  8
LAYER_2
 10
88.762
 20
222.7974
  0
VERTEX
  8
LAYER_2
 10
97.8554
 20
215.1672
  0
SEQEND
  0
ENDBLK
  0
BLOCK
  8
LAYER_2
  2
AIGNBL020101B3
 70
64
 10
0
 20
0
 30
0
  3
AIGNBL020101B3
  0
POLYLINE
  8
LAYER_2
 40
0.2469
 41
0.2469
 66
1
 10
0
 20
0
 30
0
  0
VERTEX
  8
LAYER_2
 10
86.7105
 20
220.8211
  0
VERTEX
  8
LAYER_2
 10
85.7579
 20
220.8211
  0
SEQEND
  0
ENDBLK
  0
BLOCK
  8
LAYER_2
  2
AIGNBL020101B4
 70
64
 10
0
 20
0
 30
0
  3
AIGNBL020101B4
  0
POLYLINE
  8
LAYER_2
 40
0.2469
 41
0.2469
 66
1
 10
0
 20
0
 30
0
  0
VERTEX
  8
LAYER_2
 10
86.687
 20
220.9331
 42
0.1205186178
  0
VERTEX
  8
LAYER_2
 10
86.7797
 20
220.956
  0
SEQEND
  0
ENDBLK
  0
BLOCK
  8
LAYER_2
  2
AIGNBL020101B5
 70
64
 10
0
 20
0
 30
0
  3
AIGNBL020101B5
  0
POLYLINE
  8
LAYER_2
 40
0.2469
 41
0.2469
 66
1
 10
0
 20
0
 30
0
  0
VERTEX
  8
LAYER_2
 10
86.758
 20
220.9391
  0
VERTEX
  8
LAYER_2
 10
86.758
 20
220.8211
  0
SEQEND
  0
ENDBLK
  0
BLOCK
  8
LAYER_2
  2
AIGNBL020101B6
 70
64
 10
0
 20
0
 30
0
  3
AIGNBL020101B6
  0
POLYLINE
  8
LAYER_2
 40
0.2469
 41
0.2469
 66
1
 10
0
 20
0
 30
0
  0
VERTEX
  8
LAYER_2
 10
86.7094
 20
220.9331
  0
VERTEX
  8
LAYER_2
 10
82.8068
 20
220.9331
  0
SEQEND
  0
ENDBLK
  0
BLOCK
  8
LAYER_2
  2
AIGNBL020101B7
 70
64
 10
0
 20
0
 30
0
  3
AIGNBL020101B7
  0
POLYLINE
  8
LAYER_2
 40
0.2469
 41
0.2469
 66
1
 10
0
 20
0
 30
0
  0
VERTEX
  8
LAYER_2
 10
82.7579
 20
220.9391
  0
VERTEX
  8
LAYER_2
 10
82.7579
 20
220.8268
  0
SEQEND
  0
ENDBLK
  0
BLOCK
  8
LAYER_2
  2
AIGNBL020101B8
 70
64
 10
0
 20
0
 30
0
  3
AIGNBL020101B8
  0
POLYLINE
  8
LAYER_2
 40
0.2469
 41
0.2469
 66
1
 10
0
 20
0
 30
0
  0
VERTEX
  8
LAYER_2
 10
167.5722
 20
154.9795
 42
-0.1906946452
  0
VERTEX
  8
LAYER_2
 10
167.6725
 20
154.9307
 42
-0.09104817071
  0
VERTEX
  8
LAYER_2
 10
167.7792
 20
154.7605
 42
-0.04731234385
  0
VERTEX
  8
LAYER_2
 10
167.8901
 20
154.4053
 42
-0.0309794618
  0
VERTEX
  8
LAYER_2
 10
167.9817
 20
153.8161
 42
-0.0243989866
  0
VERTEX
  8
LAYER_2
 10
168.0166
 20
153.0745
 42
-0.06019635033
  0
VERTEX
  8
LAYER_2
 10
167.8548
 20
151.6046
 42
-0.0706914572
  0
VERTEX
  8
LAYER_2
 10
167.7249
 20
151.2852
 42
-0.2318302396
  0
VERTEX
  8
LAYER_2
 10
167.5722
 20
151.1696
  0
SEQEND
  0
ENDBLK
  0
BLOCK
  8
LAYER_2
  2
AIGNBL020101B9
 70
64
 10
0
 20
0
 30
0
  3
AIGNBL020101B9
  0
POLYLINE
  8
LAYER_2
  6
AIGENLINE002
 40
0.2469
 41
0.2469
 66
1
 10
0
 20
0
 30
0
 70
128
  0
VERTEX
  8
LAYER_2
 10
97.8554
 20
215.1672
  0
VERTEX
  8
LAYER_2
 10
96.5696
 20
213.6352
  0
SEQEND
  0
ENDBLK
  0
BLOCK
  8
LAYER_2
  2
AIGNBL020101BA
 70
64
 10
0
 20
0
 30
0
  3
AIGNBL020101BA
  0
POLYLINE
  8
LAYER_2
 40
0.2469
 41
0.2469
 66
1
 10
0
 20
0
 30
0
  0
VERTEX
  8
LAYER_2
 10
155.1836
 20
148.5591
  0
VERTEX
  8
LAYER_2
 10
151.8839
 20
150.464
  0
SEQEND
  0
ENDBLK
  0
BLOCK
  8
LAYER_2
  2
AIGNBL020101BB
 70
64
 10
0
 20
0
 30
0
  3
AIGNBL020101BB
  0
POLYLINE
  8
LAYER_2
 40
0.2469
 41
0.2469
 66
1
 10
0
 20
0
 30
0
  0
VERTEX
  8
LAYER_2
 10
155.0996
 20
148.423
  0
VERTEX
  8
LAYER_2
 10
151.8081
 20
150.323
  0
SEQEND
  0
ENDBLK
  0
BLOCK
  8
LAYER_2
  2
AIGNBL020101BC
 70
64
 10
0
 20
0
 30
0
  3
AIGNBL020101BC
  0
POLYLINE
  8
LAYER_2
 40
0.2469
 41
0.2469
 66
1
 10
0
 20
0
 30
0
  0
VERTEX
  8
LAYER_2
 10
155.0293
 20
148.3017
  0
VERTEX
  8
LAYER_2
 10
151.7385
 20
150.2017
  0
SEQEND
  0
ENDBLK
  0
BLOCK
  8
LAYER_2
  2
AIGNBL020101BD
 70
64
 10
0
 20
0
 30
0
  3
AIGNBL020101BD
  0
POLYLINE
  8
LAYER_2
 40
0.2469
 41
0.2469
 66
1
 10
0
 20
0
 30
0
  0
VERTEX
  8
LAYER_2
 10
154.8391
 20
147.9727
  0
VERTEX
  8
LAYER_2
 10
151.5484
 20
149.8727
  0
SEQEND
  0
ENDBLK
  0
BLOCK
  8
LAYER_2
  2
AIGNBL020101BE
 70
64
 10
0
 20
0
 30
0
  3
AIGNBL020101BE
  0
POLYLINE
  8
LAYER_2
 40
0.2469
 41
0.2469
 66
1
 10
0
 20
0
 30
0
  0
VERTEX
  8
LAYER_2
 10
86.6595
 20
149.5103
 42
0.2031582351
  0
VERTEX
  8
LAYER_2
 10
86.4732
 20
149.9233
 42
0.06218484696
  0
VERTEX
  8
LAYER_2
 10
86.2416
 20
150.1075
 42
0.09509302785
  0
VERTEX
  8
LAYER_2
 10
85.4583
 20
150.3975
 42
0.04897916091
  0
VERTEX
  8
LAYER_2
 10
84.7616
 20
150.464
 42
0.08035366509
  0
VERTEX
  8
LAYER_2
 10
83.6799
 20
150.2956
 42
0.1028042766
  0
VERTEX
  8
LAYER_2
 10
83.0575
 20
149.936
 42
0.1675491073
  0
VERTEX
  8
LAYER_2
 10
82.8604
 20
149.5496
 42
0.01872861358
  0
VERTEX
  8
LAYER_2
 10
82.8589
 20
149.5128
  0
VERTEX
  8
LAYER_2
 10
82.8589
 20
149.5116
  0
SEQEND
  0
ENDBLK
  0
BLOCK
  8
LAYER_2
  2
AIGNBL020101BF
 70
64
 10
0
 20
0
 30
0
  3
AIGNBL020101BF
  0
POLYLINE
  8
LAYER_2
 40
0.2469
 41
0.2469
 66
1
 10
0
 20
0
 30
0
  0
VERTEX
  8
LAYER_2
 10
86.5131
 20
149.7387
 42
0.08099883941
  0
VERTEX
  8
LAYER_2
 10
86.3187
 20
149.9496
 42
0.05618710472
  0
VERTEX
  8
LAYER_2
 10
86.036
 20
150.1241
 42
0.08828950434
  0
VERTEX
  8
LAYER_2
 10
85.1492
 20
150.3613
 42
0.06593316015
  0
VERTEX
  8
LAYER_2
 10
84.2024
 20
150.3388
 42
0.09550972774
  0
VERTEX
  8
LAYER_2
 10
83.3133
 20
150.0302
 42
0.1046998105
  0
VERTEX
  8
LAYER_2
 10
83.0053
 20
149.7387
  0
SEQEND
  0
ENDBLK
  0
BLOCK
  8
LAYER_2
  2
AIGNBL020101C0
 70
64
 10
0
 20
0
 30
0
  3
AIGNBL020101C0
  0
POLYLINE
  8
LAYER_2
 40
0.2469
 41
0.2469
 66
1
 10
0
 20
0
 30
0
  0
VERTEX
  8
LAYER_2
 10
86.6591
 20
149.3718
 42
0.2035418644
  0
VERTEX
  8
LAYER_2
 10
86.4728
 20
149.7837
 42
0.06214773763
  0
VERTEX
  8
LAYER_2
 10
86.2412
 20
149.9675
 42
0.09492957359
  0
VERTEX
  8
LAYER_2
 10
85.4581
 20
150.2566
 42
0.04886590539
  0
VERTEX
  8
LAYER_2
 10
84.7616
 20
150.323
 42
0.08013951393
  0
VERTEX
  8
LAYER_2
 10
83.6799
 20
150.155
 42
0.1026406208
  0
VERTEX
  8
LAYER_2
 10
83.0575
 20
149.7963
 42
0.1677453973
  0
VERTEX
  8
LAYER_2
 10
82.8604
 20
149.4109
 42
0.01877582805
  0
VERTEX
  8
LAYER_2
 10
82.8589
 20
149.3742
  0
VERTEX
  8
LAYER_2
 10
82.8589
 20
149.3718
  0
SEQEND
  0
ENDBLK
  0
BLOCK
  8
LAYER_2
  2
AIGNBL020101C1
 70
64
 10
0
 20
0
 30
0
  3
AIGNBL020101C1
  0
POLYLINE
  8
LAYER_2
 40
0.2469
 41
0.2469
 66
1
 10
0
 20
0
 30
0
  0
VERTEX
  8
LAYER_2
 10
86.6591
 20
149.2481
 42
0.2039120098
  0
VERTEX
  8
LAYER_2
 10
86.4747
 20
149.6603
 42
0.0623541496
  0
VERTEX
  8
LAYER_2
 10
86.244
 20
149.8444
 42
0.09518396922
  0
VERTEX
  8
LAYER_2
 10
85.4624
 20
150.1345
 42
0.04892820001
  0
VERTEX
  8
LAYER_2
 10
84.7664
 20
150.2017
 42
0.08011648819
  0
VERTEX
  8
LAYER_2
 10
83.6839
 20
150.0351
 42
0.1023666677
  0
VERTEX
  8
LAYER_2
 10
83.0598
 20
149.6772
 42
0.1672144046
  0
VERTEX
  8
LAYER_2
 10
82.8609
 20
149.292
 42
0.01875333826
  0
VERTEX
  8
LAYER_2
 10
82.8592
 20
149.2553
  0
VERTEX
  8
LAYER_2
 10
82.8592
 20
149.2517
  0
SEQEND
  0
ENDBLK
  0
BLOCK
  8
LAYER_2
  2
AIGNBL020101C2
 70
64
 10
0
 20
0
 30
0
  3
AIGNBL020101C2
  0
ENDBLK
  0
BLOCK
  8
LAYER_2
  2
AIGNBL020101C3
 70
64
 10
0
 20
0
 30
0
  3
AIGNBL020101C3
  0
POLYLINE
  8
LAYER_2
 40
0.2469
 41
0.2469
 66
1
 10
0
 20
0
 30
0
  0
VERTEX
  8
LAYER_2
 10
86.5975
 20
149.1625
 42
0.2144557698
  0
VERTEX
  8
LAYER_2
 10
86.4396
 20
149.5749
 42
0.06462603079
  0
VERTEX
  8
LAYER_2
 10
86.2252
 20
149.7557
 42
0.09790287475
  0
VERTEX
  8
LAYER_2
 10
85.4821
 20
150.046
 42
0.04760815685
  0
VERTEX
  8
LAYER_2
 10
84.8336
 20
150.119
 42
0.08260954206
  0
VERTEX
  8
LAYER_2
 10
83.7372
 20
149.965
 42
0.1037015054
  0
VERTEX
  8
LAYER_2
 10
83.1137
 20
149.6122
 42
0.1692562721
  0
VERTEX
  8
LAYER_2
 10
82.9205
 20
149.2371
  0
VERTEX
  8
LAYER_2
 10
82.9205
 20
149.1625
  0
SEQEND
  0
ENDBLK
  0
BLOCK
  8
LAYER_2
  2
AIGNBL020101C4
 70
64
 10
0
 20
0
 30
0
  3
AIGNBL020101C4
  0
POLYLINE
  8
LAYER_2
 40
0.2469
 41
0.2469
 66
1
 10
0
 20
0
 30
0
  0
VERTEX
  8
LAYER_2
 10
86.2685
 20
149.4996
 42
0.06171623934
  0
VERTEX
  8
LAYER_2
 10
85.926
 20
149.6949
 42
0.08456960462
  0
VERTEX
  8
LAYER_2
 10
85.0267
 20
149.8993
 42
0.07396433188
  0
VERTEX
  8
LAYER_2
 10
83.9989
 20
149.8253
 42
0.01975187679
  0
VERTEX
  8
LAYER_2
 10
83.7783
 20
149.764
 42
0.08337304322
  0
VERTEX
  8
LAYER_2
 10
83.2495
 20
149.4996
  0
SEQEND
  0
ENDBLK
  0
BLOCK
  8
LAYER_2
  2
AIGNBL020101C5
 70
64
 10
0
 20
0
 30
0
  3
AIGNBL020101C5
  0
POLYLINE
  8
LAYER_2
 40
0.2469
 41
0.2469
 66
1
 10
0
 20
0
 30
0
  0
VERTEX
  8
LAYER_2
 10
86.1589
 20
149.7967
  0
VERTEX
  8
LAYER_2
 10
86.1589
 20
149.575
  0
SEQEND
  0
ENDBLK
  0
BLOCK
  8
LAYER_2
  2
AIGNBL020101C6
 70
64
 10
0
 20
0
 30
0
  3
AIGNBL020101C6
  0
POLYLINE
  8
LAYER_2
 40
0.2469
 41
0.2469
 66
1
 10
0
 20
0
 30
0
  0
VERTEX
  8
LAYER_2
 10
83.3591
 20
149.575
  0
VERTEX
  8
LAYER_2
 10
83.3591
 20
149.7967
  0
SEQEND
  0
ENDBLK
  0
BLOCK
  8
LAYER_2
  2
AIGNBL020101C7
 70
64
 10
0
 20
0
 30
0
  3
AIGNBL020101C7
  0
POLYLINE
  8
LAYER_2
 40
0.2469
 41
0.2469
 66
1
 10
0
 20
0
 30
0
  0
VERTEX
  8
LAYER_2
 10
86.6591
 20
148.9227
 42
0.2032701
  0
VERTEX
  8
LAYER_2
 10
86.4718
 20
149.3346
 42
0.06203280788
  0
VERTEX
  8
LAYER_2
 10
86.2397
 20
149.5182
 42
0.09480205497
  0
VERTEX
  8
LAYER_2
 10
85.4559
 20
149.8068
 42
0.04884688928
  0
VERTEX
  8
LAYER_2
 10
84.7592
 20
149.8727
 42
0.08020789411
  0
VERTEX
  8
LAYER_2
 10
83.678
 20
149.704
 42
0.1028271455
  0
VERTEX
  8
LAYER_2
 10
83.0567
 20
149.3449
 42
0.1679875298
  0
VERTEX
  8
LAYER_2
 10
82.8606
 20
148.9594
 42
0.0187792647
  0
VERTEX
  8
LAYER_2
 10
82.8592
 20
148.9227
  0
SEQEND
  0
ENDBLK
  0
BLOCK
  8
LAYER_2
  2
AIGNBL020101C8
 70
64
 10
0
 20
0
 30
0
  3
AIGNBL020101C8
  0
POLYLINE
  8
LAYER_2
 40
0.2469
 41
0.2469
 66
1
 10
0
 20
0
 30
0
  0
VERTEX
  8
LAYER_2
 10
86.664
 20
220.776
  0
VERTEX
  8
LAYER_2
 10
86.664
 20
203.8739
  0
SEQEND
  0
ENDBLK
  0
BLOCK
  8
LAYER_2
  2
AIGNBL020101C9
 70
64
 10
0
 20
0
 30
0
  3
AIGNBL020101C9
  0
POLYLINE
  8
LAYER_2
 40
0.2469
 41
0.2469
 66
1
 10
0
 20
0
 30
0
  0
VERTEX
  8
LAYER_2
 10
82.854
 20
203.8739
  0
VERTEX
  8
LAYER_2
 10
82.854
 20
206.2339
  0
SEQEND
  0
ENDBLK
  0
BLOCK
  8
LAYER_2
  2
AIGNBL020101CA
 70
64
 10
0
 20
0
 30
0
  3
AIGNBL020101CA
  0
POLYLINE
  8
LAYER_2
 40
0.2469
 41
0.2469
 66
1
 10
0
 20
0
 30
0
  0
VERTEX
  8
LAYER_2
 10
82.854
 20
206.2355
  0
VERTEX
  8
LAYER_2
 10
82.854
 20
220.775
  0
SEQEND
  0
ENDBLK
  0
BLOCK
  8
LAYER_2
  2
AIGNBL020101CB
 70
64
 10
0
 20
0
 30
0
  3
AIGNBL020101CB
  0
POLYLINE
  8
LAYER_2
 40
0.2469
 41
0.2469
 66
1
 10
0
 20
0
 30
0
  0
VERTEX
  8
LAYER_2
 10
82.854
 20
206.2355
 42
0.1809324276
  0
VERTEX
  8
LAYER_2
 10
83.2865
 20
205.2651
 42
0.1045787115
  0
VERTEX
  8
LAYER_2
 10
83.9302
 20
204.8275
 42
0.1101367
  0
VERTEX
  8
LAYER_2
 10
84.8487
 20
204.6659
 42
0.102611167
  0
VERTEX
  8
LAYER_2
 10
85.6943
 20
204.8766
 42
0.1029016624
  0
VERTEX
  8
LAYER_2
 10
86.301
 20
205.345
 42
0.1118100801
  0
VERTEX
  8
LAYER_2
 10
86.6206
 20
205.9621
 42
0.04755441294
  0
VERTEX
  8
LAYER_2
 10
86.6619
 20
206.2339
  0
SEQEND
  0
ENDBLK
  0
BLOCK
  8
LAYER_2
  2
AIGNBL020101CC
 70
64
 10
0
 20
0
 30
0
  3
AIGNBL020101CC
  0
POLYLINE
  8
LAYER_2
 40
0.2469
 41
0.2469
 66
1
 10
0
 20
0
 30
0
  0
VERTEX
  8
LAYER_2
 10
82.854
 20
206.2339
 42
0.1824660297
  0
VERTEX
  8
LAYER_2
 10
83.2328
 20
205.2494
 42
0.1059320089
  0
VERTEX
  8
LAYER_2
 10
83.8514
 20
204.787
 42
0.1107116064
  0
VERTEX
  8
LAYER_2
 10
84.7595
 20
204.5884
 42
0.1032049195
  0
VERTEX
  8
LAYER_2
 10
85.6244
 20
204.7675
 42
0.09955705483
  0
VERTEX
  8
LAYER_2
 10
86.2429
 20
205.2016
 42
0.1108562661
  0
VERTEX
  8
LAYER_2
 10
86.5985
 20
205.8047
 42
0.06337925677
  0
VERTEX
  8
LAYER_2
 10
86.6622
 20
206.1638
  0
SEQEND
  0
ENDBLK
  0
BLOCK
  8
LAYER_2
  2
AIGNBL020101CD
 70
64
 10
0
 20
0
 30
0
  3
AIGNBL020101CD
  0
POLYLINE
  8
LAYER_2
 40
0.2469
 41
0.2469
 66
1
 10
0
 20
0
 30
0
  0
VERTEX
  8
LAYER_2
 10
82.854
 20
206.1638
 42
0.1824966295
  0
VERTEX
  8
LAYER_2
 10
83.2323
 20
205.1794
 42
0.1059481924
  0
VERTEX
  8
LAYER_2
 10
83.8506
 20
204.717
 42
0.1107663024
  0
VERTEX
  8
LAYER_2
 10
84.7581
 20
204.5184
 42
0.1035033881
  0
VERTEX
  8
LAYER_2
 10
85.6248
 20
204.6984
 42
0.1024129086
  0
VERTEX
  8
LAYER_2
 10
86.2559
 20
205.148
 42
0.1107631587
  0
VERTEX
  8
LAYER_2
 10
86.602
 20
205.7526
 42
0.07248932032
  0
VERTEX
  8
LAYER_2
 10
86.6619
 20
206.1638
  0
VERTEX
  8
LAYER_2
 10
86.6609
 20
206.2182
  0
SEQEND
  0
ENDBLK
  0
BLOCK
  8
LAYER_2
  2
AIGNBL020101CE
 70
64
 10
0
 20
0
 30
0
  3
AIGNBL020101CE
  0
POLYLINE
  8
LAYER_2
 40
0.2469
 41
0.2469
 66
1
 10
0
 20
0
 30
0
  0
VERTEX
  8
LAYER_2
 10
83.0724
 20
205.3987
 42
0.1209220979
  0
VERTEX
  8
LAYER_2
 10
83.5756
 20
204.8291
 42
0.09873795224
  0
VERTEX
  8
LAYER_2
 10
84.2766
 20
204.5193
 42
0.1443800076
  0
VERTEX
  8
LAYER_2
 10
85.4961
 20
204.596
 42
0.111608404
  0
VERTEX
  8
LAYER_2
 10
86.1875
 20
205.0423
 42
0.07137502542
  0
VERTEX
  8
LAYER_2
 10
86.4435
 20
205.3987
  0
SEQEND
  0
ENDBLK
  0
BLOCK
  8
LAYER_2
  2
AIGNBL020101CF
 70
64
 10
0
 20
0
 30
0
  3
AIGNBL020101CF
  0
POLYLINE
  8
LAYER_2
 40
0.2469
 41
0.2469
 66
1
 10
0
 20
0
 30
0
  0
VERTEX
  8
LAYER_2
 10
83.3253
 20
205.0802
 42
0.1125164349
  0
VERTEX
  8
LAYER_2
 10
83.9586
 20
204.6268
 42
0.1426071438
  0
VERTEX
  8
LAYER_2
 10
85.0978
 20
204.4927
 42
0.1035152564
  0
VERTEX
  8
LAYER_2
 10
85.8478
 20
204.7832
 42
0.067307224
  0
VERTEX
  8
LAYER_2
 10
86.1906
 20
205.0802
  0
SEQEND
  0
ENDBLK
  0
BLOCK
  8
LAYER_2
  2
AIGNBL020101D0
 70
64
 10
0
 20
0
 30
0
  3
AIGNBL020101D0
  0
POLYLINE
  8
LAYER_2
 40
0.2469
 41
0.2469
 66
1
 10
0
 20
0
 30
0
  0
VERTEX
  8
LAYER_2
 10
82.854
 20
205.974
 42
0.1824576282
  0
VERTEX
  8
LAYER_2
 10
83.2328
 20
204.9894
 42
0.1059295288
  0
VERTEX
  8
LAYER_2
 10
83.8514
 20
204.527
 42
0.1107208656
  0
VERTEX
  8
LAYER_2
 10
84.7595
 20
204.3284
 42
0.1034569454
  0
VERTEX
  8
LAYER_2
 10
85.6267
 20
204.5084
 42
0.1024183391
  0
VERTEX
  8
LAYER_2
 10
86.258
 20
204.958
 42
0.1108264132
  0
VERTEX
  8
LAYER_2
 10
86.6042
 20
205.5628
 42
0.07253600469
  0
VERTEX
  8
LAYER_2
 10
86.664
 20
205.974
  0
SEQEND
  0
ENDBLK
  0
BLOCK
  8
LAYER_2
  2
AIGNBL020101D1
 70
64
 10
0
 20
0
 30
0
  3
AIGNBL020101D1
  0
POLYLINE
  8
LAYER_2
 40
0.2469
 41
0.2469
 66
1
 10
0
 20
0
 30
0
  0
VERTEX
  8
LAYER_2
 10
82.854
 20
203.9217
 42
0.1873769329
  0
VERTEX
  8
LAYER_2
 10
83.2168
 20
202.9613
 42
0.1058781543
  0
VERTEX
  8
LAYER_2
 10
83.8277
 20
202.5053
 42
0.09737973035
  0
VERTEX
  8
LAYER_2
 10
84.6341
 20
202.3052
 42
0.01074489729
  0
VERTEX
  8
LAYER_2
 10
84.732
 20
202.302
 42
0.103065323
  0
VERTEX
  8
LAYER_2
 10
85.6209
 20
202.475
 42
0.1008392303
  0
VERTEX
  8
LAYER_2
 10
86.2523
 20
202.9093
 42
0.1119116355
  0
VERTEX
  8
LAYER_2
 10
86.6005
 20
203.4952
 42
0.07061976097
  0
VERTEX
  8
LAYER_2
 10
86.6619
 20
203.8739
  0
SEQEND
  0
ENDBLK
  0
BLOCK
  8
LAYER_2
  2
AIGNBL020101D2
 70
64
 10
0
 20
0
 30
0
  3
AIGNBL020101D2
  0
POLYLINE
  8
LAYER_2
 40
0.2469
 41
0.2469
 66
1
 10
0
 20
0
 30
0
  0
VERTEX
  8
LAYER_2
 10
176.5722
 20
137.4197
  0
VERTEX
  8
LAYER_2
 10
167.5722
 20
137.4197
  0
SEQEND
  0
ENDBLK
  0
BLOCK
  8
LAYER_2
  2
AIGNBL020101D3
 70
64
 10
0
 20
0
 30
0
  3
AIGNBL020101D3
  0
POLYLINE
  8
LAYER_2
 40
0.2469
 41
0.2469
 66
1
 10
0
 20
0
 30
0
  0
VERTEX
  8
LAYER_2
 10
80.2592
 20
137.4197
  0
VERTEX
  8
LAYER_2
 10
89.2592
 20
137.4197
  0
SEQEND
  0
ENDBLK
  0
BLOCK
  8
LAYER_2
  2
AIGNBL020101D4
 70
64
 10
0
 20
0
 30
0
  3
AIGNBL020101D4
  0
POLYLINE
  8
LAYER_2
 40
0.2469
 41
0.2469
 66
1
 10
0
 20
0
 30
0
  0
VERTEX
  8
LAYER_2
 10
89.2592
 20
159.7995
  0
VERTEX
  8
LAYER_2
 10
80.2592
 20
159.7995
  0
SEQEND
  0
ENDBLK
  0
BLOCK
  8
LAYER_2
  2
AIGNBL020101D5
 70
64
 10
0
 20
0
 30
0
  3
AIGNBL020101D5
  0
POLYLINE
  8
LAYER_2
 40
0.2469
 41
0.2469
 66
1
 10
0
 20
0
 30
0
  0
VERTEX
  8
LAYER_2
 10
167.5722
 20
159.8996
  0
VERTEX
  8
LAYER_2
 10
176.5722
 20
159.8996
  0
SEQEND
  0
ENDBLK
  0
BLOCK
  8
LAYER_2
  2
AIGNBL020101D6
 70
64
 10
0
 20
0
 30
0
  3
AIGNBL020101D6
  0
POLYLINE
  8
LAYER_2
  6
AIGENLINE002
 40
0.2469
 41
0.2469
 66
1
 10
0
 20
0
 30
0
 70
128
  0
VERTEX
  8
LAYER_2
 10
71.6619
 20
215.1676
  0
VERTEX
  8
LAYER_2
 10
80.7546
 20
222.7973
  0
SEQEND
  0
ENDBLK
  0
BLOCK
  8
LAYER_2
  2
AIGNBL020101D7
 70
64
 10
0
 20
0
 30
0
  3
AIGNBL020101D7
  0
POLYLINE
  8
LAYER_2
  6
AIGENLINE002
 40
0.2469
 41
0.2469
 66
1
 10
0
 20
0
 30
0
 70
128
  0
VERTEX
  8
LAYER_2
 10
82.0406
 20
221.2656
 42
0.4142209378
  0
VERTEX
  8
LAYER_2
 10
88.3452
 20
222.1337
 42
0.4142331582
  0
VERTEX
  8
LAYER_2
 10
87.4773
 20
228.4381
 42
0.4142552566
  0
VERTEX
  8
LAYER_2
 10
81.1728
 20
227.5701
 42
0.2882988514
  0
VERTEX
  8
LAYER_2
 10
80.7553
 20
222.7978
  0
SEQEND
  0
ENDBLK
  0
BLOCK
  8
LAYER_2
  2
AIGNBL020101D8
 70
64
 10
0
 20
0
 30
0
  3
AIGNBL020101D8
  0
POLYLINE
  8
LAYER_2
  6
AIGENLINE001
 40
0.127
 41
0.127
 66
1
 10
0
 20
0
 30
0
 70
128
  0
VERTEX
  8
LAYER_2
 10
88.6828
 20
228.1442
  0
VERTEX
  8
LAYER_2
 10
71.7377
 20
213.9258
  0
SEQEND
  0
ENDBLK
  0
BLOCK
  8
LAYER_2
  2
AIGNBL020101D9
 70
64
 10
0
 20
0
 30
0
  3
AIGNBL020101D9
  0
POLYLINE
  8
LAYER_2
  6
AIGENLINE002
 40
0.2469
 41
0.2469
 66
1
 10
0
 20
0
 30
0
 70
128
  0
VERTEX
  8
LAYER_2
 10
82.0403
 20
221.2652
  0
VERTEX
  8
LAYER_2
 10
72.9477
 20
213.6355
  0
SEQEND
  0
ENDBLK
  0
BLOCK
  8
LAYER_2
  2
AIGNBL020101DA
 70
64
 10
0
 20
0
 30
0
  3
AIGNBL020101DA
  0
POLYLINE
  8
LAYER_2
  6
AIGENLINE002
 40
0.2469
 41
0.2469
 66
1
 10
0
 20
0
 30
0
 70
128
  0
VERTEX
  8
LAYER_2
 10
72.9477
 20
213.6355
  0
VERTEX
  8
LAYER_2
 10
71.6619
 20
215.1676
  0
SEQEND
  0
ENDBLK
  0
BLOCK
  8
LAYER_2
  2
AIGNBL020101DB
 70
64
 10
0
 20
0
 30
0
  3
AIGNBL020101DB
  0
POLYLINE
  8
LAYER_2
 40
0.2469
 41
0.2469
 66
1
 10
0
 20
0
 30
0
  0
VERTEX
  8
LAYER_2
 10
83.758
 20
208.5947
  0
VERTEX
  8
LAYER_2
 10
83.758
 20
220.9018
  0
SEQEND
  0
ENDBLK
  0
BLOCK
  8
LAYER_2
  2
AIGNBL020101DC
 70
64
 10
0
 20
0
 30
0
  3
AIGNBL020101DC
  0
POLYLINE
  8
LAYER_2
 40
0.2469
 41
0.2469
 66
1
 10
0
 20
0
 30
0
  0
VERTEX
  8
LAYER_2
 10
85.7579
 20
220.4649
 42
0.4142202031
  0
VERTEX
  8
LAYER_2
 10
89.1455
 20
225.8524
 42
0.4142278796
  0
VERTEX
  8
LAYER_2
 10
83.758
 20
229.2398
 42
0.4142187491
  0
VERTEX
  8
LAYER_2
 10
80.3705
 20
223.8523
 42
0.2882506003
  0
VERTEX
  8
LAYER_2
 10
83.758
 20
220.4649
  0
SEQEND
  0
ENDBLK
  0
BLOCK
  8
LAYER_2
  2
AIGNBL020101DD
 70
64
 10
0
 20
0
 30
0
  3
AIGNBL020101DD
  0
POLYLINE
  8
LAYER_2
  6
AIGENLINE001
 40
0.127
 41
0.127
 66
1
 10
0
 20
0
 30
0
 70
128
  0
VERTEX
  8
LAYER_2
 10
89.9058
 20
224.8524
  0
VERTEX
  8
LAYER_2
 10
79.6122
 20
224.8524
  0
SEQEND
  0
ENDBLK
  0
BLOCK
  8
LAYER_2
  2
AIGNBL020101DE
 70
64
 10
0
 20
0
 30
0
  3
AIGNBL020101DE
  0
POLYLINE
  8
LAYER_2
  6
AIGENLINE001
 40
0.127
 41
0.127
 66
1
 10
0
 20
0
 30
0
 70
128
  0
VERTEX
  8
LAYER_2
 10
84.7581
 20
229.9742
  0
VERTEX
  8
LAYER_2
 10
84.7581
 20
201.2105
  0
SEQEND
  0
ENDBLK
  0
BLOCK
  8
LAYER_2
  2
AIGNBL020101DF
 70
64
 10
0
 20
0
 30
0
  3
AIGNBL020101DF
  0
POLYLINE
  8
LAYER_2
 40
0.2469
 41
0.2469
 66
1
 10
0
 20
0
 30
0
  0
VERTEX
  8
LAYER_2
 10
85.7579
 20
220.9018
  0
VERTEX
  8
LAYER_2
 10
85.7579
 20
208.5947
  0
SEQEND
  0
ENDBLK
  0
BLOCK
  8
LAYER_2
  2
AIGNBL020101E0
 70
64
 10
0
 20
0
 30
0
  3
AIGNBL020101E0
  0
POLYLINE
  8
LAYER_2
 40
0.2469
 41
0.2469
 66
1
 10
0
 20
0
 30
0
  0
VERTEX
  8
LAYER_2
 10
85.7579
 20
208.5947
  0
VERTEX
  8
LAYER_2
 10
83.758
 20
208.5947
  0
SEQEND
  0
ENDBLK
  0
BLOCK
  8
LAYER_2
  2
AIGNBL020101E1
 70
64
 10
0
 20
0
 30
0
  3
AIGNBL020101E1
  0
POLYLINE
  8
LAYER_2
 40
0.1482
 41
0.1482
 66
1
 10
0
 20
0
 30
0
  0
VERTEX
  8
LAYER_2
 10
169.7722
 20
68.1674
  0
VERTEX
  8
LAYER_2
 10
169.8721
 20
68.1502
  0
SEQEND
  0
ENDBLK
  0
BLOCK
  8
LAYER_2
  2
AIGNBL020101E2
 70
64
 10
0
 20
0
 30
0
  3
AIGNBL020101E2
  0
POLYLINE
  8
LAYER_2
 40
0.1482
 41
0.1482
 66
1
 10
0
 20
0
 30
0
  0
VERTEX
  8
LAYER_2
 10
174.2722
 20
68.1502
  0
VERTEX
  8
LAYER_2
 10
174.3721
 20
68.1674
  0
SEQEND
  0
ENDBLK
  0
BLOCK
  8
LAYER_2
  2
AIGNBL020101E3
 70
64
 10
0
 20
0
 30
0
  3
AIGNBL020101E3
  0
POLYLINE
  8
LAYER_2
 40
0.1482
 41
0.1482
 66
1
 10
0
 20
0
 30
0
  0
VERTEX
  8
LAYER_2
 10
169.8721
 20
72.1503
  0
VERTEX
  8
LAYER_2
 10
169.7722
 20
72.1331
  0
SEQEND
  0
ENDBLK
  0
BLOCK
  8
LAYER_2
  2
AIGNBL020101E4
 70
64
 10
0
 20
0
 30
0
  3
AIGNBL020101E4
  0
POLYLINE
  8
LAYER_2
 40
0.1482
 41
0.1482
 66
1
 10
0
 20
0
 30
0
  0
VERTEX
  8
LAYER_2
 10
174.3721
 20
72.1331
  0
VERTEX
  8
LAYER_2
 10
174.2722
 20
72.1503
  0
SEQEND
  0
ENDBLK
  0
BLOCK
  8
LAYER_2
  2
AIGNBL020101E5
 70
64
 10
0
 20
0
 30
0
  3
AIGNBL020101E5
  0
POLYLINE
  8
LAYER_2
 40
0.1482
 41
0.1482
 66
1
 10
0
 20
0
 30
0
  0
VERTEX
  8
LAYER_2
 10
169.7722
 20
68.4503
  0
VERTEX
  8
LAYER_2
 10
169.7722
 20
68.3848
  0
VERTEX
  8
LAYER_2
 10
169.7722
 20
68.3328
  0
VERTEX
  8
LAYER_2
 10
169.7722
 20
68.2639
  0
VERTEX
  8
LAYER_2
 10
169.7722
 20
68.2232
  0
VERTEX
  8
LAYER_2
 10
169.7722
 20
68.1977
  0
VERTEX
  8
LAYER_2
 10
169.7722
 20
68.1733
  0
VERTEX
  8
LAYER_2
 10
169.7722
 20
68.1674
  0
SEQEND
  0
ENDBLK
  0
BLOCK
  8
LAYER_2
  2
AIGNBL020101E6
 70
64
 10
0
 20
0
 30
0
  3
AIGNBL020101E6
  0
POLYLINE
  8
LAYER_2
 40
0.1482
 41
0.1482
 66
1
 10
0
 20
0
 30
0
  0
VERTEX
  8
LAYER_2
 10
169.7722
 20
68.4503
  0
VERTEX
  8
LAYER_2
 10
170.074
 20
68.4503
  0
SEQEND
  0
ENDBLK
  0
BLOCK
  8
LAYER_2
  2
AIGNBL020101E7
 70
64
 10
0
 20
0
 30
0
  3
AIGNBL020101E7
  0
POLYLINE
  8
LAYER_2
 40
0.1482
 41
0.1482
 66
1
 10
0
 20
0
 30
0
  0
VERTEX
  8
LAYER_2
 10
171.7711
 20
68.4503
  0
VERTEX
  8
LAYER_2
 10
171.7545
 20
68.3848
  0
VERTEX
  8
LAYER_2
 10
171.7167
 20
68.3324
  0
VERTEX
  8
LAYER_2
 10
171.6677
 20
68.2932
  0
VERTEX
  8
LAYER_2
 10
171.6147
 20
68.2635
  0
VERTEX
  8
LAYER_2
 10
171.5017
 20
68.2225
  0
VERTEX
  8
LAYER_2
 10
171.3873
 20
68.1974
  0
VERTEX
  8
LAYER_2
 10
171.1551
 20
68.1733
  0
VERTEX
  8
LAYER_2
 10
170.9208
 20
68.1674
  0
VERTEX
  8
LAYER_2
 10
170.6866
 20
68.1736
  0
VERTEX
  8
LAYER_2
 10
170.4537
 20
68.1981
  0
VERTEX
  8
LAYER_2
 10
170.3386
 20
68.2236
  0
VERTEX
  8
LAYER_2
 10
170.2277
 20
68.2649
  0
VERTEX
  8
LAYER_2
 10
170.1271
 20
68.3338
  0
VERTEX
  8
LAYER_2
 10
170.0899
 20
68.3851
  0
VERTEX
  8
LAYER_2
 10
170.074
 20
68.4503
  0
SEQEND
  0
ENDBLK
  0
BLOCK
  8
LAYER_2
  2
AIGNBL020101E8
 70
64
 10
0
 20
0
 30
0
  3
AIGNBL020101E8
  0
POLYLINE
  8
LAYER_2
 40
0.1482
 41
0.1482
 66
1
 10
0
 20
0
 30
0
  0
VERTEX
  8
LAYER_2
 10
171.7711
 20
68.4503
  0
VERTEX
  8
LAYER_2
 10
172.374
 20
68.4503
  0
SEQEND
  0
ENDBLK
  0
BLOCK
  8
LAYER_2
  2
AIGNBL020101E9
 70
64
 10
0
 20
0
 30
0
  3
AIGNBL020101E9
  0
POLYLINE
  8
LAYER_2
 40
0.1482
 41
0.1482
 66
1
 10
0
 20
0
 30
0
  0
VERTEX
  8
LAYER_2
 10
174.071
 20
68.4503
  0
VERTEX
  8
LAYER_2
 10
174.0545
 20
68.3848
  0
VERTEX
  8
LAYER_2
 10
174.0166
 20
68.3324
  0
VERTEX
  8
LAYER_2
 10
173.9677
 20
68.2932
  0
VERTEX
  8
LAYER_2
 10
173.9146
 20
68.2635
  0
VERTEX
  8
LAYER_2
 10
173.8016
 20
68.2225
  0
VERTEX
  8
LAYER_2
 10
173.6872
 20
68.1974
  0
VERTEX
  8
LAYER_2
 10
173.455
 20
68.1733
  0
VERTEX
  8
LAYER_2
 10
173.2208
 20
68.1674
  0
VERTEX
  8
LAYER_2
 10
172.9872
 20
68.1736
  0
VERTEX
  8
LAYER_2
 10
172.7536
 20
68.1981
  0
VERTEX
  8
LAYER_2
 10
172.6392
 20
68.2236
  0
VERTEX
  8
LAYER_2
 10
172.5276
 20
68.2649
  0
VERTEX
  8
LAYER_2
 10
172.427
 20
68.3338
  0
VERTEX
  8
LAYER_2
 10
172.3898
 20
68.3851
  0
VERTEX
  8
LAYER_2
 10
172.374
 20
68.4503
  0
SEQEND
  0
ENDBLK
  0
BLOCK
  8
LAYER_2
  2
AIGNBL020101EA
 70
64
 10
0
 20
0
 30
0
  3
AIGNBL020101EA
  0
POLYLINE
  8
LAYER_2
 40
0.1482
 41
0.1482
 66
1
 10
0
 20
0
 30
0
  0
VERTEX
  8
LAYER_2
 10
174.071
 20
68.4503
  0
VERTEX
  8
LAYER_2
 10
174.3721
 20
68.4503
  0
SEQEND
  0
ENDBLK
  0
BLOCK
  8
LAYER_2
  2
AIGNBL020101EB
 70
64
 10
0
 20
0
 30
0
  3
AIGNBL020101EB
  0
POLYLINE
  8
LAYER_2
 40
0.1482
 41
0.1482
 66
1
 10
0
 20
0
 30
0
  0
VERTEX
  8
LAYER_2
 10
174.3721
 20
68.1674
  0
VERTEX
  8
LAYER_2
 10
174.3721
 20
68.1733
  0
VERTEX
  8
LAYER_2
 10
174.3721
 20
68.1977
  0
VERTEX
  8
LAYER_2
 10
174.3721
 20
68.2232
  0
VERTEX
  8
LAYER_2
 10
174.3721
 20
68.2642
  0
VERTEX
  8
LAYER_2
 10
174.3721
 20
68.3328
  0
VERTEX
  8
LAYER_2
 10
174.3721
 20
68.3848
  0
VERTEX
  8
LAYER_2
 10
174.3721
 20
68.4503
  0
SEQEND
  0
ENDBLK
  0
BLOCK
  8
LAYER_2
  2
AIGNBL020101EC
 70
64
 10
0
 20
0
 30
0
  3
AIGNBL020101EC
  0
POLYLINE
  8
LAYER_2
 40
0.1482
 41
0.1482
 66
1
 10
0
 20
0
 30
0
  0
VERTEX
  8
LAYER_2
 10
169.8721
 20
68.1502
  0
VERTEX
  8
LAYER_2
 10
174.2722
 20
68.1502
  0
SEQEND
  0
ENDBLK
  0
BLOCK
  8
LAYER_2
  2
AIGNBL020101ED
 70
64
 10
0
 20
0
 30
0
  3
AIGNBL020101ED
  0
POLYLINE
  8
LAYER_2
 40
0.1482
 41
0.1482
 66
1
 10
0
 20
0
 30
0
  0
VERTEX
  8
LAYER_2
 10
174.071
 20
71.8502
  0
VERTEX
  8
LAYER_2
 10
174.3721
 20
71.8502
  0
SEQEND
  0
ENDBLK
  0
BLOCK
  8
LAYER_2
  2
AIGNBL020101EE
 70
64
 10
0
 20
0
 30
0
  3
AIGNBL020101EE
  0
POLYLINE
  8
LAYER_2
 40
0.1482
 41
0.1482
 66
1
 10
0
 20
0
 30
0
  0
VERTEX
  8
LAYER_2
 10
172.374
 20
71.8502
  0
VERTEX
  8
LAYER_2
 10
172.3898
 20
71.9157
  0
VERTEX
  8
LAYER_2
 10
172.4284
 20
71.9677
  0
VERTEX
  8
LAYER_2
 10
172.4773
 20
72.007
  0
VERTEX
  8
LAYER_2
 10
172.5304
 20
72.0366
  0
VERTEX
  8
LAYER_2
 10
172.6427
 20
72.0779
  0
VERTEX
  8
LAYER_2
 10
172.7578
 20
72.1027
  0
VERTEX
  8
LAYER_2
 10
172.99
 20
72.1269
  0
VERTEX
  8
LAYER_2
 10
173.2235
 20
72.1331
  0
VERTEX
  8
LAYER_2
 10
173.4578
 20
72.1269
  0
VERTEX
  8
LAYER_2
 10
173.6907
 20
72.1021
  0
VERTEX
  8
LAYER_2
 10
173.8058
 20
72.0766
  0
VERTEX
  8
LAYER_2
 10
173.9174
 20
72.0356
  0
VERTEX
  8
LAYER_2
 10
174.0173
 20
71.9667
  0
VERTEX
  8
LAYER_2
 10
174.0552
 20
71.915
  0
VERTEX
  8
LAYER_2
 10
174.071
 20
71.8502
  0
SEQEND
  0
ENDBLK
  0
BLOCK
  8
LAYER_2
  2
AIGNBL020101EF
 70
64
 10
0
 20
0
 30
0
  3
AIGNBL020101EF
  0
POLYLINE
  8
LAYER_2
 40
0.1482
 41
0.1482
 66
1
 10
0
 20
0
 30
0
  0
VERTEX
  8
LAYER_2
 10
171.7711
 20
71.8502
  0
VERTEX
  8
LAYER_2
 10
172.374
 20
71.8502
  0
SEQEND
  0
ENDBLK
  0
BLOCK
  8
LAYER_2
  2
AIGNBL020101F0
 70
64
 10
0
 20
0
 30
0
  3
AIGNBL020101F0
  0
POLYLINE
  8
LAYER_2
 40
0.1482
 41
0.1482
 66
1
 10
0
 20
0
 30
0
  0
VERTEX
  8
LAYER_2
 10
170.074
 20
71.8502
  0
VERTEX
  8
LAYER_2
 10
170.0899
 20
71.9157
  0
VERTEX
  8
LAYER_2
 10
170.1285
 20
71.9677
  0
VERTEX
  8
LAYER_2
 10
170.1767
 20
72.007
  0
VERTEX
  8
LAYER_2
 10
170.2297
 20
72.0366
  0
VERTEX
  8
LAYER_2
 10
170.3427
 20
72.0779
  0
VERTEX
  8
LAYER_2
 10
170.4578
 20
72.1027
  0
VERTEX
  8
LAYER_2
 10
170.69
 20
72.1269
  0
VERTEX
  8
LAYER_2
 10
170.9236
 20
72.1331
  0
VERTEX
  8
LAYER_2
 10
171.1579
 20
72.1269
  0
VERTEX
  8
LAYER_2
 10
171.3907
 20
72.1021
  0
VERTEX
  8
LAYER_2
 10
171.5058
 20
72.0766
  0
VERTEX
  8
LAYER_2
 10
171.6174
 20
72.0356
  0
VERTEX
  8
LAYER_2
 10
171.7173
 20
71.9667
  0
VERTEX
  8
LAYER_2
 10
171.7552
 20
71.915
  0
VERTEX
  8
LAYER_2
 10
171.7711
 20
71.8502
  0
SEQEND
  0
ENDBLK
  0
BLOCK
  8
LAYER_2
  2
AIGNBL020101F1
 70
64
 10
0
 20
0
 30
0
  3
AIGNBL020101F1
  0
POLYLINE
  8
LAYER_2
 40
0.1482
 41
0.1482
 66
1
 10
0
 20
0
 30
0
  0
VERTEX
  8
LAYER_2
 10
169.7722
 20
71.8502
  0
VERTEX
  8
LAYER_2
 10
170.074
 20
71.8502
  0
SEQEND
  0
ENDBLK
  0
BLOCK
  8
LAYER_2
  2
AIGNBL020101F2
 70
64
 10
0
 20
0
 30
0
  3
AIGNBL020101F2
  0
POLYLINE
  8
LAYER_2
 40
0.1482
 41
0.1482
 66
1
 10
0
 20
0
 30
0
  0
VERTEX
  8
LAYER_2
 10
169.7722
 20
72.1331
  0
VERTEX
  8
LAYER_2
 10
169.7722
 20
72.1269
  0
VERTEX
  8
LAYER_2
 10
169.7722
 20
72.1024
  0
VERTEX
  8
LAYER_2
 10
169.7722
 20
72.0773
  0
VERTEX
  8
LAYER_2
 10
169.7722
 20
72.0363
  0
VERTEX
  8
LAYER_2
 10
169.7722
 20
71.9674
  0
VERTEX
  8
LAYER_2
 10
169.7722
 20
71.9157
  0
VERTEX
  8
LAYER_2
 10
169.7722
 20
71.8502
  0
SEQEND
  0
ENDBLK
  0
BLOCK
  8
LAYER_2
  2
AIGNBL020101F3
 70
64
 10
0
 20
0
 30
0
  3
AIGNBL020101F3
  0
POLYLINE
  8
LAYER_2
 40
0.1482
 41
0.1482
 66
1
 10
0
 20
0
 30
0
  0
VERTEX
  8
LAYER_2
 10
174.3721
 20
71.8502
  0
VERTEX
  8
LAYER_2
 10
174.3721
 20
71.9153
  0
VERTEX
  8
LAYER_2
 10
174.3721
 20
71.9674
  0
VERTEX
  8
LAYER_2
 10
174.3721
 20
72.0363
  0
VERTEX
  8
LAYER_2
 10
174.3721
 20
72.0773
  0
VERTEX
  8
LAYER_2
 10
174.3721
 20
72.1024
  0
VERTEX
  8
LAYER_2
 10
174.3721
 20
72.1269
  0
VERTEX
  8
LAYER_2
 10
174.3721
 20
72.1331
  0
SEQEND
  0
ENDBLK
  0
BLOCK
  8
LAYER_2
  2
AIGNBL020101F4
 70
64
 10
0
 20
0
 30
0
  3
AIGNBL020101F4
  0
POLYLINE
  8
LAYER_2
 40
0.1482
 41
0.1482
 66
1
 10
0
 20
0
 30
0
  0
VERTEX
  8
LAYER_2
 10
169.8721
 20
72.1503
  0
VERTEX
  8
LAYER_2
 10
174.2722
 20
72.1503
  0
SEQEND
  0
ENDBLK
  0
BLOCK
  8
LAYER_2
  2
AIGNBL020101F5
 70
64
 10
0
 20
0
 30
0
  3
AIGNBL020101F5
  0
POLYLINE
  8
LAYER_2
 40
0.1482
 41
0.1482
 66
1
 10
0
 20
0
 30
0
  0
VERTEX
  8
LAYER_2
 10
172.374
 20
71.8502
  0
VERTEX
  8
LAYER_2
 10
172.374
 20
68.4503
  0
SEQEND
  0
ENDBLK
  0
BLOCK
  8
LAYER_2
  2
AIGNBL020101F6
 70
64
 10
0
 20
0
 30
0
  3
AIGNBL020101F6
  0
POLYLINE
  8
LAYER_2
 40
0.1482
 41
0.1482
 66
1
 10
0
 20
0
 30
0
  0
VERTEX
  8
LAYER_2
 10
171.7711
 20
71.8502
  0
VERTEX
  8
LAYER_2
 10
171.7711
 20
68.4503
  0
SEQEND
  0
ENDBLK
  0
BLOCK
  8
LAYER_2
  2
AIGNBL020101F7
 70
64
 10
0
 20
0
 30
0
  3
AIGNBL020101F7
  0
POLYLINE
  8
LAYER_2
 40
0.1482
 41
0.1482
 66
1
 10
0
 20
0
 30
0
  0
VERTEX
  8
LAYER_2
 10
170.074
 20
71.8502
  0
VERTEX
  8
LAYER_2
 10
170.074
 20
68.4503
  0
SEQEND
  0
ENDBLK
  0
BLOCK
  8
LAYER_2
  2
AIGNBL020101F8
 70
64
 10
0
 20
0
 30
0
  3
AIGNBL020101F8
  0
POLYLINE
  8
LAYER_2
 40
0.1482
 41
0.1482
 66
1
 10
0
 20
0
 30
0
  0
VERTEX
  8
LAYER_2
 10
174.071
 20
71.8502
  0
VERTEX
  8
LAYER_2
 10
174.071
 20
68.4503
  0
SEQEND
  0
ENDBLK
  0
BLOCK
  8
LAYER_2
  2
AIGNBL020101F9
 70
64
 10
0
 20
0
 30
0
  3
AIGNBL020101F9
  0
POLYLINE
  8
LAYER_2
 40
0.1482
 41
0.1482
 66
1
 10
0
 20
0
 30
0
  0
VERTEX
  8
LAYER_2
 10
169.7722
 20
71.8502
  0
VERTEX
  8
LAYER_2
 10
169.7722
 20
68.4503
  0
SEQEND
  0
ENDBLK
  0
BLOCK
  8
LAYER_2
  2
AIGNBL020101FA
 70
64
 10
0
 20
0
 30
0
  3
AIGNBL020101FA
  0
POLYLINE
  8
LAYER_2
 40
0.1482
 41
0.1482
 66
1
 10
0
 20
0
 30
0
  0
VERTEX
  8
LAYER_2
 10
174.3721
 20
71.8502
  0
VERTEX
  8
LAYER_2
 10
174.3721
 20
68.4503
  0
SEQEND
  0
ENDBLK
  0
BLOCK
  8
LAYER_2
  2
AIGNBL020101FB
 70
64
 10
0
 20
0
 30
0
  3
AIGNBL020101FB
  0
POLYLINE
  8
LAYER_2
 40
0.2469
 41
0.2469
 66
1
 10
0
 20
0
 30
0
  0
VERTEX
  8
LAYER_2
 10
89.1592
 20
136.7596
  0
VERTEX
  8
LAYER_2
 10
84.7592
 20
136.7596
  0
SEQEND
  0
ENDBLK
  0
BLOCK
  8
LAYER_2
  2
AIGNBL020101FC
 70
64
 10
0
 20
0
 30
0
  3
AIGNBL020101FC
  0
POLYLINE
  8
LAYER_2
 40
0.2469
 41
0.2469
 66
1
 10
0
 20
0
 30
0
  0
VERTEX
  8
LAYER_2
 10
84.7592
 20
136.7596
  0
VERTEX
  8
LAYER_2
 10
80.3591
 20
136.7596
  0
SEQEND
  0
ENDBLK
  0
BLOCK
  8
LAYER_2
  2
AIGNBL020101FD
 70
64
 10
0
 20
0
 30
0
  3
AIGNBL020101FD
  0
POLYLINE
  8
LAYER_2
 40
0.2469
 41
0.2469
 66
1
 10
0
 20
0
 30
0
  0
VERTEX
  8
LAYER_2
 10
89.1592
 20
137.3594
  0
VERTEX
  8
LAYER_2
 10
89.1592
 20
136.7596
  0
SEQEND
  0
ENDBLK
  0
BLOCK
  8
LAYER_2
  2
AIGNBL020101FE
 70
64
 10
0
 20
0
 30
0
  3
AIGNBL020101FE
  0
POLYLINE
  8
LAYER_2
 40
0.2469
 41
0.2469
 66
1
 10
0
 20
0
 30
0
  0
VERTEX
  8
LAYER_2
 10
80.3591
 20
136.7596
  0
VERTEX
  8
LAYER_2
 10
80.3591
 20
137.3594
  0
SEQEND
  0
ENDBLK
  0
BLOCK
  8
LAYER_2
  2
AIGNBL020101FF
 70
64
 10
0
 20
0
 30
0
  3
AIGNBL020101FF
  0
POLYLINE
  8
LAYER_2
 40
0.2469
 41
0.2469
 66
1
 10
0
 20
0
 30
0
  0
VERTEX
  8
LAYER_2
 10
82.6218
 20
128.9596
  0
VERTEX
  8
LAYER_2
 10
82.4592
 20
129.1222
  0
SEQEND
  0
ENDBLK
  0
BLOCK
  8
LAYER_2
  2
AIGNBL02010200
 70
64
 10
0
 20
0
 30
0
  3
AIGNBL02010200
  0
POLYLINE
  8
LAYER_2
 40
0.2469
 41
0.2469
 66
1
 10
0
 20
0
 30
0
  0
VERTEX
  8
LAYER_2
 10
89.1992
 20
137.3594
  0
VERTEX
  8
LAYER_2
 10
84.7592
 20
137.3594
  0
SEQEND
  0
ENDBLK
  0
BLOCK
  8
LAYER_2
  2
AIGNBL02010201
 70
64
 10
0
 20
0
 30
0
  3
AIGNBL02010201
  0
POLYLINE
  8
LAYER_2
 40
0.2469
 41
0.2469
 66
1
 10
0
 20
0
 30
0
  0
VERTEX
  8
LAYER_2
 10
80.3191
 20
137.3594
  0
VERTEX
  8
LAYER_2
 10
84.7592
 20
137.3594
  0
SEQEND
  0
ENDBLK
  0
BLOCK
  8
LAYER_2
  2
AIGNBL02010202
 70
64
 10
0
 20
0
 30
0
  3
AIGNBL02010202
  0
POLYLINE
  8
LAYER_2
 40
0.2469
 41
0.2469
 66
1
 10
0
 20
0
 30
0
  0
VERTEX
  8
LAYER_2
 10
89.2592
 20
137.4197
  0
VERTEX
  8
LAYER_2
 10
89.1992
 20
137.3594
  0
SEQEND
  0
ENDBLK
  0
BLOCK
  8
LAYER_2
  2
AIGNBL02010203
 70
64
 10
0
 20
0
 30
0
  3
AIGNBL02010203
  0
POLYLINE
  8
LAYER_2
 40
0.2469
 41
0.2469
 66
1
 10
0
 20
0
 30
0
  0
VERTEX
  8
LAYER_2
 10
80.3191
 20
137.3594
  0
VERTEX
  8
LAYER_2
 10
80.2592
 20
137.4197
  0
SEQEND
  0
ENDBLK
  0
BLOCK
  8
LAYER_2
  2
AIGNBL02010204
 70
64
 10
0
 20
0
 30
0
  3
AIGNBL02010204
  0
POLYLINE
  8
LAYER_2
 40
0.127
 41
0.127
 66
1
 10
0
 20
0
 30
0
  0
VERTEX
  8
LAYER_2
 10
86.8965
 20
136.7596
  0
VERTEX
  8
LAYER_2
 10
86.8965
 20
135.8098
  0
SEQEND
  0
ENDBLK
  0
BLOCK
  8
LAYER_2
  2
AIGNBL02010205
 70
64
 10
0
 20
0
 30
0
  3
AIGNBL02010205
  0
POLYLINE
  8
LAYER_2
 40
0.2469
 41
0.2469
 66
1
 10
0
 20
0
 30
0
  0
VERTEX
  8
LAYER_2
 10
82.4592
 20
136.7596
  0
VERTEX
  8
LAYER_2
 10
82.4592
 20
135.8098
  0
SEQEND
  0
ENDBLK
  0
BLOCK
  8
LAYER_2
  2
AIGNBL02010206
 70
64
 10
0
 20
0
 30
0
  3
AIGNBL02010206
  0
POLYLINE
  8
LAYER_2
 40
0.2469
 41
0.2469
 66
1
 10
0
 20
0
 30
0
  0
VERTEX
  8
LAYER_2
 10
87.0591
 20
129.1222
  0
VERTEX
  8
LAYER_2
 10
87.0591
 20
133.6098
  0
SEQEND
  0
ENDBLK
  0
BLOCK
  8
LAYER_2
  2
AIGNBL02010207
 70
64
 10
0
 20
0
 30
0
  3
AIGNBL02010207
  0
POLYLINE
  8
LAYER_2
 40
0.127
 41
0.127
 66
1
 10
0
 20
0
 30
0
  0
VERTEX
  8
LAYER_2
 10
82.6218
 20
128.9596
  0
VERTEX
  8
LAYER_2
 10
82.6218
 20
133.6098
  0
SEQEND
  0
ENDBLK
  0
BLOCK
  8
LAYER_2
  2
AIGNBL02010208
 70
64
 10
0
 20
0
 30
0
  3
AIGNBL02010208
  0
POLYLINE
  8
LAYER_2
 40
0.2469
 41
0.2469
 66
1
 10
0
 20
0
 30
0
  0
VERTEX
  8
LAYER_2
 10
82.4592
 20
133.6098
  0
VERTEX
  8
LAYER_2
 10
82.4592
 20
129.1222
  0
SEQEND
  0
ENDBLK
  0
BLOCK
  8
LAYER_2
  2
AIGNBL02010209
 70
64
 10
0
 20
0
 30
0
  3
AIGNBL02010209
  0
POLYLINE
  8
LAYER_2
 40
0.127
 41
0.127
 66
1
 10
0
 20
0
 30
0
  0
VERTEX
  8
LAYER_2
 10
82.6218
 20
135.8098
  0
VERTEX
  8
LAYER_2
 10
82.6218
 20
136.7596
  0
SEQEND
  0
ENDBLK
  0
BLOCK
  8
LAYER_2
  2
AIGNBL0201020A
 70
64
 10
0
 20
0
 30
0
  3
AIGNBL0201020A
  0
POLYLINE
  8
LAYER_2
 40
0.2469
 41
0.2469
 66
1
 10
0
 20
0
 30
0
  0
VERTEX
  8
LAYER_2
 10
87.0591
 20
135.8098
  0
VERTEX
  8
LAYER_2
 10
87.0591
 20
136.7596
  0
SEQEND
  0
ENDBLK
  0
BLOCK
  8
LAYER_2
  2
AIGNBL0201020B
 70
64
 10
0
 20
0
 30
0
  3
AIGNBL0201020B
  0
POLYLINE
  8
LAYER_2
 40
0.2469
 41
0.2469
 66
1
 10
0
 20
0
 30
0
  0
VERTEX
  8
LAYER_2
 10
84.7592
 20
135.8098
  0
VERTEX
  8
LAYER_2
 10
88.7593
 20
135.8098
  0
SEQEND
  0
ENDBLK
  0
BLOCK
  8
LAYER_2
  2
AIGNBL0201020C
 70
64
 10
0
 20
0
 30
0
  3
AIGNBL0201020C
  0
POLYLINE
  8
LAYER_2
 40
0.2469
 41
0.2469
 66
1
 10
0
 20
0
 30
0
  0
VERTEX
  8
LAYER_2
 10
88.7593
 20
135.4098
  0
VERTEX
  8
LAYER_2
 10
88.7593
 20
135.8098
  0
SEQEND
  0
ENDBLK
  0
BLOCK
  8
LAYER_2
  2
AIGNBL0201020D
 70
64
 10
0
 20
0
 30
0
  3
AIGNBL0201020D
  0
POLYLINE
  8
LAYER_2
 40
0.2469
 41
0.2469
 66
1
 10
0
 20
0
 30
0
  0
VERTEX
  8
LAYER_2
 10
84.7592
 20
135.4098
  0
VERTEX
  8
LAYER_2
 10
88.7593
 20
135.4098
  0
SEQEND
  0
ENDBLK
  0
BLOCK
  8
LAYER_2
  2
AIGNBL0201020E
 70
64
 10
0
 20
0
 30
0
  3
AIGNBL0201020E
  0
POLYLINE
  8
LAYER_2
 40
0.2469
 41
0.2469
 66
1
 10
0
 20
0
 30
0
  0
VERTEX
  8
LAYER_2
 10
88.659
 20
135.4098
  0
VERTEX
  8
LAYER_2
 10
88.659
 20
135.2097
  0
SEQEND
  0
ENDBLK
  0
BLOCK
  8
LAYER_2
  2
AIGNBL0201020F
 70
64
 10
0
 20
0
 30
0
  3
AIGNBL0201020F
  0
POLYLINE
  8
LAYER_2
 40
0.2469
 41
0.2469
 66
1
 10
0
 20
0
 30
0
  0
VERTEX
  8
LAYER_2
 10
88.659
 20
135.2097
  0
VERTEX
  8
LAYER_2
 10
84.7592
 20
135.2097
  0
SEQEND
  0
ENDBLK
  0
BLOCK
  8
LAYER_2
  2
AIGNBL02010210
 70
64
 10
0
 20
0
 30
0
  3
AIGNBL02010210
  0
POLYLINE
  8
LAYER_2
 40
0.2469
 41
0.2469
 66
1
 10
0
 20
0
 30
0
  0
VERTEX
  8
LAYER_2
 10
80.7591
 20
135.8098
  0
VERTEX
  8
LAYER_2
 10
84.7592
 20
135.8098
  0
SEQEND
  0
ENDBLK
  0
BLOCK
  8
LAYER_2
  2
AIGNBL02010211
 70
64
 10
0
 20
0
 30
0
  3
AIGNBL02010211
  0
POLYLINE
  8
LAYER_2
 40
0.2469
 41
0.2469
 66
1
 10
0
 20
0
 30
0
  0
VERTEX
  8
LAYER_2
 10
80.7591
 20
135.8098
  0
VERTEX
  8
LAYER_2
 10
80.7591
 20
135.4098
  0
SEQEND
  0
ENDBLK
  0
BLOCK
  8
LAYER_2
  2
AIGNBL02010212
 70
64
 10
0
 20
0
 30
0
  3
AIGNBL02010212
  0
POLYLINE
  8
LAYER_2
 40
0.2469
 41
0.2469
 66
1
 10
0
 20
0
 30
0
  0
VERTEX
  8
LAYER_2
 10
80.7591
 20
135.4098
  0
VERTEX
  8
LAYER_2
 10
84.7592
 20
135.4098
  0
SEQEND
  0
ENDBLK
  0
BLOCK
  8
LAYER_2
  2
AIGNBL02010213
 70
64
 10
0
 20
0
 30
0
  3
AIGNBL02010213
  0
POLYLINE
  8
LAYER_2
 40
0.2469
 41
0.2469
 66
1
 10
0
 20
0
 30
0
  0
VERTEX
  8
LAYER_2
 10
80.859
 20
135.4098
  0
VERTEX
  8
LAYER_2
 10
80.859
 20
135.2097
  0
SEQEND
  0
ENDBLK
  0
BLOCK
  8
LAYER_2
  2
AIGNBL02010214
 70
64
 10
0
 20
0
 30
0
  3
AIGNBL02010214
  0
POLYLINE
  8
LAYER_2
 40
0.2469
 41
0.2469
 66
1
 10
0
 20
0
 30
0
  0
VERTEX
  8
LAYER_2
 10
80.859
 20
135.2097
  0
VERTEX
  8
LAYER_2
 10
84.7592
 20
135.2097
  0
SEQEND
  0
ENDBLK
  0
BLOCK
  8
LAYER_2
  2
AIGNBL02010215
 70
64
 10
0
 20
0
 30
0
  3
AIGNBL02010215
  0
POLYLINE
  8
LAYER_2
 40
0.2469
 41
0.2469
 66
1
 10
0
 20
0
 30
0
  0
VERTEX
  8
LAYER_2
 10
86.8965
 20
128.9596
  0
VERTEX
  8
LAYER_2
 10
87.0588
 20
129.1222
  0
SEQEND
  0
ENDBLK
  0
BLOCK
  8
LAYER_2
  2
AIGNBL02010216
 70
64
 10
0
 20
0
 30
0
  3
AIGNBL02010216
  0
POLYLINE
  8
LAYER_2
 40
0.2469
 41
0.2469
 66
1
 10
0
 20
0
 30
0
  0
VERTEX
  8
LAYER_2
 10
86.8965
 20
128.9596
  0
VERTEX
  8
LAYER_2
 10
86.819
 20
128.9596
  0
SEQEND
  0
ENDBLK
  0
BLOCK
  8
LAYER_2
  2
AIGNBL02010217
 70
64
 10
0
 20
0
 30
0
  3
AIGNBL02010217
  0
POLYLINE
  8
LAYER_2
 40
0.2469
 41
0.2469
 66
1
 10
0
 20
0
 30
0
  0
VERTEX
  8
LAYER_2
 10
84.7592
 20
128.9596
  0
VERTEX
  8
LAYER_2
 10
82.6218
 20
128.9596
  0
SEQEND
  0
ENDBLK
  0
BLOCK
  8
LAYER_2
  2
AIGNBL02010218
 70
64
 10
0
 20
0
 30
0
  3
AIGNBL02010218
  0
POLYLINE
  8
LAYER_2
 40
0.2469
 41
0.2469
 66
1
 10
0
 20
0
 30
0
  0
VERTEX
  8
LAYER_2
 10
82.9991
 20
127.7593
  0
VERTEX
  8
LAYER_2
 10
82.9991
 20
124.4641
  0
SEQEND
  0
ENDBLK
  0
BLOCK
  8
LAYER_2
  2
AIGNBL02010219
 70
64
 10
0
 20
0
 30
0
  3
AIGNBL02010219
  0
POLYLINE
  8
LAYER_2
 40
0.2469
 41
0.2469
 66
1
 10
0
 20
0
 30
0
  0
VERTEX
  8
LAYER_2
 10
84.3988
 20
124.4641
  0
VERTEX
  8
LAYER_2
 10
84.3988
 20
127.7593
  0
SEQEND
  0
ENDBLK
  0
BLOCK
  8
LAYER_2
  2
AIGNBL0201021A
 70
64
 10
0
 20
0
 30
0
  3
AIGNBL0201021A
  0
POLYLINE
  8
LAYER_2
 40
0.2469
 41
0.2469
 66
1
 10
0
 20
0
 30
0
  0
VERTEX
  8
LAYER_2
 10
83.6988
 20
127.7593
  0
VERTEX
  8
LAYER_2
 10
82.699
 20
127.7593
  0
SEQEND
  0
ENDBLK
  0
BLOCK
  8
LAYER_2
  2
AIGNBL0201021B
 70
64
 10
0
 20
0
 30
0
  3
AIGNBL0201021B
  0
POLYLINE
  8
LAYER_2
 40
0.2469
 41
0.2469
 66
1
 10
0
 20
0
 30
0
  0
VERTEX
  8
LAYER_2
 10
82.699
 20
127.7593
  0
VERTEX
  8
LAYER_2
 10
82.699
 20
128.9596
  0
SEQEND
  0
ENDBLK
  0
BLOCK
  8
LAYER_2
  2
AIGNBL0201021C
 70
64
 10
0
 20
0
 30
0
  3
AIGNBL0201021C
  0
POLYLINE
  8
LAYER_2
 40
0.2469
 41
0.2469
 66
1
 10
0
 20
0
 30
0
  0
VERTEX
  8
LAYER_2
 10
84.6989
 20
128.9592
  0
VERTEX
  8
LAYER_2
 10
84.6989
 20
127.7593
  0
SEQEND
  0
ENDBLK
  0
BLOCK
  8
LAYER_2
  2
AIGNBL0201021D
 70
64
 10
0
 20
0
 30
0
  3
AIGNBL0201021D
  0
POLYLINE
  8
LAYER_2
 40
0.2469
 41
0.2469
 66
1
 10
0
 20
0
 30
0
  0
VERTEX
  8
LAYER_2
 10
84.6989
 20
127.7593
  0
VERTEX
  8
LAYER_2
 10
83.6988
 20
127.7593
  0
SEQEND
  0
ENDBLK
  0
BLOCK
  8
LAYER_2
  2
AIGNBL0201021E
 70
64
 10
0
 20
0
 30
0
  3
AIGNBL0201021E
  0
POLYLINE
  8
LAYER_2
 40
0.2469
 41
0.2469
 66
1
 10
0
 20
0
 30
0
  0
VERTEX
  8
LAYER_2
 10
86.5189
 20
124.4641
  0
VERTEX
  8
LAYER_2
 10
86.5189
 20
127.7596
  0
SEQEND
  0
ENDBLK
  0
BLOCK
  8
LAYER_2
  2
AIGNBL0201021F
 70
64
 10
0
 20
0
 30
0
  3
AIGNBL0201021F
  0
POLYLINE
  8
LAYER_2
 40
0.2469
 41
0.2469
 66
1
 10
0
 20
0
 30
0
  0
VERTEX
  8
LAYER_2
 10
86.819
 20
128.9596
  0
VERTEX
  8
LAYER_2
 10
86.819
 20
127.7596
  0
SEQEND
  0
ENDBLK
  0
BLOCK
  8
LAYER_2
  2
AIGNBL02010220
 70
64
 10
0
 20
0
 30
0
  3
AIGNBL02010220
  0
POLYLINE
  8
LAYER_2
 40
0.2469
 41
0.2469
 66
1
 10
0
 20
0
 30
0
  0
VERTEX
  8
LAYER_2
 10
86.819
 20
127.7596
  0
VERTEX
  8
LAYER_2
 10
85.8189
 20
127.7596
  0
SEQEND
  0
ENDBLK
  0
BLOCK
  8
LAYER_2
  2
AIGNBL02010221
 70
64
 10
0
 20
0
 30
0
  3
AIGNBL02010221
  0
POLYLINE
  8
LAYER_2
 40
0.2469
 41
0.2469
 66
1
 10
0
 20
0
 30
0
  0
VERTEX
  8
LAYER_2
 10
84.7592
 20
128.9596
  0
VERTEX
  8
LAYER_2
 10
86.819
 20
128.9596
  0
SEQEND
  0
ENDBLK
  0
BLOCK
  8
LAYER_2
  2
AIGNBL02010222
 70
64
 10
0
 20
0
 30
0
  3
AIGNBL02010222
  0
POLYLINE
  8
LAYER_2
 40
0.2469
 41
0.2469
 66
1
 10
0
 20
0
 30
0
  0
VERTEX
  8
LAYER_2
 10
85.1188
 20
124.4641
  0
VERTEX
  8
LAYER_2
 10
85.1188
 20
127.7596
  0
SEQEND
  0
ENDBLK
  0
BLOCK
  8
LAYER_2
  2
AIGNBL02010223
 70
64
 10
0
 20
0
 30
0
  3
AIGNBL02010223
  0
POLYLINE
  8
LAYER_2
 40
0.2469
 41
0.2469
 66
1
 10
0
 20
0
 30
0
  0
VERTEX
  8
LAYER_2
 10
84.8188
 20
128.9596
  0
VERTEX
  8
LAYER_2
 10
84.8188
 20
127.7596
  0
SEQEND
  0
ENDBLK
  0
BLOCK
  8
LAYER_2
  2
AIGNBL02010224
 70
64
 10
0
 20
0
 30
0
  3
AIGNBL02010224
  0
POLYLINE
  8
LAYER_2
 40
0.2469
 41
0.2469
 66
1
 10
0
 20
0
 30
0
  0
VERTEX
  8
LAYER_2
 10
84.8188
 20
127.7596
  0
VERTEX
  8
LAYER_2
 10
85.8189
 20
127.7596
  0
SEQEND
  0
ENDBLK
  0
BLOCK
  8
LAYER_2
  2
AIGNBL02010225
 70
64
 10
0
 20
0
 30
0
  3
AIGNBL02010225
  0
POLYLINE
  8
LAYER_2
 40
0.2469
 41
0.2469
 66
1
 10
0
 20
0
 30
0
  0
VERTEX
  8
LAYER_2
 10
82.9991
 20
127.0441
  0
VERTEX
  8
LAYER_2
 10
82.9991
 20
127.7593
  0
SEQEND
  0
ENDBLK
  0
BLOCK
  8
LAYER_2
  2
AIGNBL02010226
 70
64
 10
0
 20
0
 30
0
  3
AIGNBL02010226
  0
POLYLINE
  8
LAYER_2
 40
0.2469
 41
0.2469
 66
1
 10
0
 20
0
 30
0
  0
VERTEX
  8
LAYER_2
 10
81.6589
 20
135.2097
  0
VERTEX
  8
LAYER_2
 10
87.8591
 20
135.2097
  0
SEQEND
  0
ENDBLK
  0
BLOCK
  8
LAYER_2
  2
AIGNBL02010227
 70
64
 10
0
 20
0
 30
0
  3
AIGNBL02010227
  0
POLYLINE
  8
LAYER_2
 40
0.2469
 41
0.2469
 66
1
 10
0
 20
0
 30
0
  0
VERTEX
  8
LAYER_2
 10
87.8591
 20
133.6098
  0
VERTEX
  8
LAYER_2
 10
81.6589
 20
133.6098
  0
SEQEND
  0
ENDBLK
  0
BLOCK
  8
LAYER_2
  2
AIGNBL02010228
 70
64
 10
0
 20
0
 30
0
  3
AIGNBL02010228
  0
POLYLINE
  8
LAYER_2
 40
0.2469
 41
0.2469
 66
1
 10
0
 20
0
 30
0
  0
VERTEX
  8
LAYER_2
 10
87.8591
 20
135.2097
  0
VERTEX
  8
LAYER_2
 10
87.8591
 20
133.6098
  0
SEQEND
  0
ENDBLK
  0
BLOCK
  8
LAYER_2
  2
AIGNBL02010229
 70
64
 10
0
 20
0
 30
0
  3
AIGNBL02010229
  0
POLYLINE
  8
LAYER_2
 40
0.2469
 41
0.2469
 66
1
 10
0
 20
0
 30
0
  0
VERTEX
  8
LAYER_2
 10
81.6589
 20
135.2097
  0
VERTEX
  8
LAYER_2
 10
81.6589
 20
133.6098
  0
SEQEND
  0
ENDBLK
  0
BLOCK
  8
LAYER_2
  2
AIGNBL0201022A
 70
64
 10
0
 20
0
 30
0
  3
AIGNBL0201022A
  0
POLYLINE
  8
LAYER_2
 40
0.2469
 41
0.2469
 66
1
 10
0
 20
0
 30
0
  0
VERTEX
  8
LAYER_2
 10
81.6689
 20
135.2097
  0
VERTEX
  8
LAYER_2
 10
81.6689
 20
133.6098
  0
SEQEND
  0
ENDBLK
  0
BLOCK
  8
LAYER_2
  2
AIGNBL0201022B
 70
64
 10
0
 20
0
 30
0
  3
AIGNBL0201022B
  0
POLYLINE
  8
LAYER_2
 40
0.2469
 41
0.2469
 66
1
 10
0
 20
0
 30
0
  0
VERTEX
  8
LAYER_2
 10
82.9994
 20
135.2097
  0
VERTEX
  8
LAYER_2
 10
82.9994
 20
133.6098
  0
SEQEND
  0
ENDBLK
  0
BLOCK
  8
LAYER_2
  2
AIGNBL0201022C
 70
64
 10
0
 20
0
 30
0
  3
AIGNBL0201022C
  0
POLYLINE
  8
LAYER_2
 40
0.2469
 41
0.2469
 66
1
 10
0
 20
0
 30
0
  0
VERTEX
  8
LAYER_2
 10
83.4287
 20
133.6098
  0
VERTEX
  8
LAYER_2
 10
83.4287
 20
135.2097
  0
SEQEND
  0
ENDBLK
  0
BLOCK
  8
LAYER_2
  2
AIGNBL0201022D
 70
64
 10
0
 20
0
 30
0
  3
AIGNBL0201022D
  0
POLYLINE
  8
LAYER_2
 40
0.2469
 41
0.2469
 66
1
 10
0
 20
0
 30
0
  0
VERTEX
  8
LAYER_2
 10
87.8491
 20
135.2097
  0
VERTEX
  8
LAYER_2
 10
87.8491
 20
133.6098
  0
SEQEND
  0
ENDBLK
  0
BLOCK
  8
LAYER_2
  2
AIGNBL0201022E
 70
64
 10
0
 20
0
 30
0
  3
AIGNBL0201022E
  0
POLYLINE
  8
LAYER_2
 40
0.2469
 41
0.2469
 66
1
 10
0
 20
0
 30
0
  0
VERTEX
  8
LAYER_2
 10
86.5186
 20
135.2097
  0
VERTEX
  8
LAYER_2
 10
86.5186
 20
133.6098
  0
SEQEND
  0
ENDBLK
  0
BLOCK
  8
LAYER_2
  2
AIGNBL0201022F
 70
64
 10
0
 20
0
 30
0
  3
AIGNBL0201022F
  0
POLYLINE
  8
LAYER_2
 40
0.2469
 41
0.2469
 66
1
 10
0
 20
0
 30
0
  0
VERTEX
  8
LAYER_2
 10
86.0897
 20
133.6098
  0
VERTEX
  8
LAYER_2
 10
86.0897
 20
135.2097
  0
SEQEND
  0
ENDBLK
  0
BLOCK
  8
LAYER_2
  2
AIGNBL02010230
 70
64
 10
0
 20
0
 30
0
  3
AIGNBL02010230
  0
INSERT
  8
LAYER_2
  2
AIGNBL02020231
 10
0
 20
0
 30
0
  0
INSERT
  8
LAYER_2
  2
AIGNBL02020232
 10
0
 20
0
 30
0
  0
INSERT
  8
LAYER_2
  2
AIGNBL02020233
 10
0
 20
0
 30
0
  0
ENDBLK
  0
BLOCK
  8
LAYER_2
  2
AIGNBL02010234
 70
64
 10
0
 20
0
 30
0
  3
AIGNBL02010234
  0
INSERT
  8
LAYER_2
  2
AIGNBL02020235
 10
0
 20
0
 30
0
  0
INSERT
  8
LAYER_2
  2
AIGNBL02020236
 10
0
 20
0
 30
0
  0
INSERT
  8
LAYER_2
  2
AIGNBL02020237
 10
0
 20
0
 30
0
  0
ENDBLK
  0
BLOCK
  8
LAYER_2
  2
AIGNBL02010238
 70
64
 10
0
 20
0
 30
0
  3
AIGNBL02010238
  0
POLYLINE
  8
LAYER_2
 40
0.127
 41
0.127
 66
1
 10
0
 20
0
 30
0
  0
VERTEX
  8
LAYER_2
 10
86.8965
 20
128.9596
  0
VERTEX
  8
LAYER_2
 10
86.8965
 20
133.6098
  0
SEQEND
  0
ENDBLK
  0
BLOCK
  8
LAYER_2
  2
AIGNBL02010239
 70
64
 10
0
 20
0
 30
0
  3
AIGNBL02010239
  0
POLYLINE
  8
LAYER_2
 40
0.2469
 41
0.2469
 66
1
 10
0
 20
0
 30
0
  0
VERTEX
  8
LAYER_2
 10
87.0591
 20
129.1222
  0
VERTEX
  8
LAYER_2
 10
82.4592
 20
129.1222
  0
SEQEND
  0
ENDBLK
  0
BLOCK
  8
LAYER_2
  2
AIGNBL0201023A
 70
64
 10
0
 20
0
 30
0
  3
AIGNBL0201023A
  0
POLYLINE
  8
LAYER_2
 40
0.2469
 41
0.2469
 66
1
 10
0
 20
0
 30
0
  0
VERTEX
  8
LAYER_2
 10
80.2592
 20
137.4197
  0
VERTEX
  8
LAYER_2
 10
89.2592
 20
137.4197
  0
SEQEND
  0
ENDBLK
  0
BLOCK
  8
LAYER_2
  2
AIGNBL0201023B
 70
64
 10
0
 20
0
 30
0
  3
AIGNBL0201023B
  0
POLYLINE
  8
LAYER_2
 40
0.2469
 41
0.2469
 66
1
 10
0
 20
0
 30
0
  0
VERTEX
  8
LAYER_2
 10
176.4723
 20
136.7596
  0
VERTEX
  8
LAYER_2
 10
172.0722
 20
136.7596
  0
SEQEND
  0
ENDBLK
  0
BLOCK
  8
LAYER_2
  2
AIGNBL0201023C
 70
64
 10
0
 20
0
 30
0
  3
AIGNBL0201023C
  0
POLYLINE
  8
LAYER_2
 40
0.2469
 41
0.2469
 66
1
 10
0
 20
0
 30
0
  0
VERTEX
  8
LAYER_2
 10
172.0722
 20
136.7596
  0
VERTEX
  8
LAYER_2
 10
167.6721
 20
136.7596
  0
SEQEND
  0
ENDBLK
  0
BLOCK
  8
LAYER_2
  2
AIGNBL0201023D
 70
64
 10
0
 20
0
 30
0
  3
AIGNBL0201023D
  0
POLYLINE
  8
LAYER_2
 40
0.2469
 41
0.2469
 66
1
 10
0
 20
0
 30
0
  0
VERTEX
  8
LAYER_2
 10
176.4723
 20
137.3594
  0
VERTEX
  8
LAYER_2
 10
176.4723
 20
136.7596
  0
SEQEND
  0
ENDBLK
  0
BLOCK
  8
LAYER_2
  2
AIGNBL0201023E
 70
64
 10
0
 20
0
 30
0
  3
AIGNBL0201023E
  0
POLYLINE
  8
LAYER_2
 40
0.2469
 41
0.2469
 66
1
 10
0
 20
0
 30
0
  0
VERTEX
  8
LAYER_2
 10
169.9348
 20
128.9596
  0
VERTEX
  8
LAYER_2
 10
169.7722
 20
129.1222
  0
SEQEND
  0
ENDBLK
  0
BLOCK
  8
LAYER_2
  2
AIGNBL0201023F
 70
64
 10
0
 20
0
 30
0
  3
AIGNBL0201023F
  0
POLYLINE
  8
LAYER_2
 40
0.2469
 41
0.2469
 66
1
 10
0
 20
0
 30
0
  0
VERTEX
  8
LAYER_2
 10
176.5122
 20
137.3594
  0
VERTEX
  8
LAYER_2
 10
172.0722
 20
137.3594
  0
SEQEND
  0
ENDBLK
  0
BLOCK
  8
LAYER_2
  2
AIGNBL02010240
 70
64
 10
0
 20
0
 30
0
  3
AIGNBL02010240
  0
POLYLINE
  8
LAYER_2
 40
0.2469
 41
0.2469
 66
1
 10
0
 20
0
 30
0
  0
VERTEX
  8
LAYER_2
 10
167.6321
 20
137.3594
  0
VERTEX
  8
LAYER_2
 10
172.0722
 20
137.3594
  0
SEQEND
  0
ENDBLK
  0
BLOCK
  8
LAYER_2
  2
AIGNBL02010241
 70
64
 10
0
 20
0
 30
0
  3
AIGNBL02010241
  0
POLYLINE
  8
LAYER_2
 40
0.127
 41
0.127
 66
1
 10
0
 20
0
 30
0
  0
VERTEX
  8
LAYER_2
 10
174.2095
 20
136.7596
  0
VERTEX
  8
LAYER_2
 10
174.2095
 20
135.8098
  0
SEQEND
  0
ENDBLK
  0
BLOCK
  8
LAYER_2
  2
AIGNBL02010242
 70
64
 10
0
 20
0
 30
0
  3
AIGNBL02010242
  0
POLYLINE
  8
LAYER_2
 40
0.2469
 41
0.2469
 66
1
 10
0
 20
0
 30
0
  0
VERTEX
  8
LAYER_2
 10
169.7722
 20
136.7596
  0
VERTEX
  8
LAYER_2
 10
169.7722
 20
135.8098
  0
SEQEND
  0
ENDBLK
  0
BLOCK
  8
LAYER_2
  2
AIGNBL02010243
 70
64
 10
0
 20
0
 30
0
  3
AIGNBL02010243
  0
POLYLINE
  8
LAYER_2
 40
0.2469
 41
0.2469
 66
1
 10
0
 20
0
 30
0
  0
VERTEX
  8
LAYER_2
 10
174.3721
 20
129.1222
  0
VERTEX
  8
LAYER_2
 10
174.3721
 20
133.6098
  0
SEQEND
  0
ENDBLK
  0
BLOCK
  8
LAYER_2
  2
AIGNBL02010244
 70
64
 10
0
 20
0
 30
0
  3
AIGNBL02010244
  0
POLYLINE
  8
LAYER_2
 40
0.127
 41
0.127
 66
1
 10
0
 20
0
 30
0
  0
VERTEX
  8
LAYER_2
 10
169.9348
 20
128.9596
  0
VERTEX
  8
LAYER_2
 10
169.9348
 20
133.6098
  0
SEQEND
  0
ENDBLK
  0
BLOCK
  8
LAYER_2
  2
AIGNBL02010245
 70
64
 10
0
 20
0
 30
0
  3
AIGNBL02010245
  0
POLYLINE
  8
LAYER_2
 40
0.2469
 41
0.2469
 66
1
 10
0
 20
0
 30
0
  0
VERTEX
  8
LAYER_2
 10
169.7722
 20
133.6098
  0
VERTEX
  8
LAYER_2
 10
169.7722
 20
129.1222
  0
SEQEND
  0
ENDBLK
  0
BLOCK
  8
LAYER_2
  2
AIGNBL02010246
 70
64
 10
0
 20
0
 30
0
  3
AIGNBL02010246
  0
POLYLINE
  8
LAYER_2
 40
0.127
 41
0.127
 66
1
 10
0
 20
0
 30
0
  0
VERTEX
  8
LAYER_2
 10
169.9348
 20
135.8098
  0
VERTEX
  8
LAYER_2
 10
169.9348
 20
136.7596
  0
SEQEND
  0
ENDBLK
  0
BLOCK
  8
LAYER_2
  2
AIGNBL02010247
 70
64
 10
0
 20
0
 30
0
  3
AIGNBL02010247
  0
POLYLINE
  8
LAYER_2
 40
0.2469
 41
0.2469
 66
1
 10
0
 20
0
 30
0
  0
VERTEX
  8
LAYER_2
 10
174.3721
 20
135.8098
  0
VERTEX
  8
LAYER_2
 10
174.3721
 20
136.7596
  0
SEQEND
  0
ENDBLK
  0
BLOCK
  8
LAYER_2
  2
AIGNBL02010248
 70
64
 10
0
 20
0
 30
0
  3
AIGNBL02010248
  0
POLYLINE
  8
LAYER_2
 40
0.2469
 41
0.2469
 66
1
 10
0
 20
0
 30
0
  0
VERTEX
  8
LAYER_2
 10
172.0722
 20
135.8098
  0
VERTEX
  8
LAYER_2
 10
176.0726
 20
135.8098
  0
SEQEND
  0
ENDBLK
  0
BLOCK
  8
LAYER_2
  2
AIGNBL02010249
 70
64
 10
0
 20
0
 30
0
  3
AIGNBL02010249
  0
POLYLINE
  8
LAYER_2
 40
0.2469
 41
0.2469
 66
1
 10
0
 20
0
 30
0
  0
VERTEX
  8
LAYER_2
 10
176.0726
 20
135.4098
  0
VERTEX
  8
LAYER_2
 10
176.0726
 20
135.8098
  0
SEQEND
  0
ENDBLK
  0
BLOCK
  8
LAYER_2
  2
AIGNBL0201024A
 70
64
 10
0
 20
0
 30
0
  3
AIGNBL0201024A
  0
POLYLINE
  8
LAYER_2
 40
0.2469
 41
0.2469
 66
1
 10
0
 20
0
 30
0
  0
VERTEX
  8
LAYER_2
 10
172.0722
 20
135.4098
  0
VERTEX
  8
LAYER_2
 10
176.0726
 20
135.4098
  0
SEQEND
  0
ENDBLK
  0
BLOCK
  8
LAYER_2
  2
AIGNBL0201024B
 70
64
 10
0
 20
0
 30
0
  3
AIGNBL0201024B
  0
POLYLINE
  8
LAYER_2
 40
0.2469
 41
0.2469
 66
1
 10
0
 20
0
 30
0
  0
VERTEX
  8
LAYER_2
 10
175.972
 20
135.4098
  0
VERTEX
  8
LAYER_2
 10
175.972
 20
135.2097
  0
SEQEND
  0
ENDBLK
  0
BLOCK
  8
LAYER_2
  2
AIGNBL0201024C
 70
64
 10
0
 20
0
 30
0
  3
AIGNBL0201024C
  0
POLYLINE
  8
LAYER_2
 40
0.2469
 41
0.2469
 66
1
 10
0
 20
0
 30
0
  0
VERTEX
  8
LAYER_2
 10
175.972
 20
135.2097
  0
VERTEX
  8
LAYER_2
 10
172.0722
 20
135.2097
  0
SEQEND
  0
ENDBLK
  0
BLOCK
  8
LAYER_2
  2
AIGNBL0201024D
 70
64
 10
0
 20
0
 30
0
  3
AIGNBL0201024D
  0
POLYLINE
  8
LAYER_2
 40
0.2469
 41
0.2469
 66
1
 10
0
 20
0
 30
0
  0
VERTEX
  8
LAYER_2
 10
168.0724
 20
135.8098
  0
VERTEX
  8
LAYER_2
 10
172.0722
 20
135.8098
  0
SEQEND
  0
ENDBLK
  0
BLOCK
  8
LAYER_2
  2
AIGNBL0201024E
 70
64
 10
0
 20
0
 30
0
  3
AIGNBL0201024E
  0
POLYLINE
  8
LAYER_2
 40
0.2469
 41
0.2469
 66
1
 10
0
 20
0
 30
0
  0
VERTEX
  8
LAYER_2
 10
168.0724
 20
135.8098
  0
VERTEX
  8
LAYER_2
 10
168.0724
 20
135.4098
  0
SEQEND
  0
ENDBLK
  0
BLOCK
  8
LAYER_2
  2
AIGNBL0201024F
 70
64
 10
0
 20
0
 30
0
  3
AIGNBL0201024F
  0
POLYLINE
  8
LAYER_2
 40
0.2469
 41
0.2469
 66
1
 10
0
 20
0
 30
0
  0
VERTEX
  8
LAYER_2
 10
168.0724
 20
135.4098
  0
VERTEX
  8
LAYER_2
 10
172.0722
 20
135.4098
  0
SEQEND
  0
ENDBLK
  0
BLOCK
  8
LAYER_2
  2
AIGNBL02010250
 70
64
 10
0
 20
0
 30
0
  3
AIGNBL02010250
  0
POLYLINE
  8
LAYER_2
 40
0.2469
 41
0.2469
 66
1
 10
0
 20
0
 30
0
  0
VERTEX
  8
LAYER_2
 10
168.1723
 20
135.4098
  0
VERTEX
  8
LAYER_2
 10
168.1723
 20
135.2097
  0
SEQEND
  0
ENDBLK
  0
BLOCK
  8
LAYER_2
  2
AIGNBL02010251
 70
64
 10
0
 20
0
 30
0
  3
AIGNBL02010251
  0
POLYLINE
  8
LAYER_2
 40
0.2469
 41
0.2469
 66
1
 10
0
 20
0
 30
0
  0
VERTEX
  8
LAYER_2
 10
168.1723
 20
135.2097
  0
VERTEX
  8
LAYER_2
 10
172.0722
 20
135.2097
  0
SEQEND
  0
ENDBLK
  0
BLOCK
  8
LAYER_2
  2
AIGNBL02010252
 70
64
 10
0
 20
0
 30
0
  3
AIGNBL02010252
  0
POLYLINE
  8
LAYER_2
 40
0.2469
 41
0.2469
 66
1
 10
0
 20
0
 30
0
  0
VERTEX
  8
LAYER_2
 10
174.2095
 20
128.9596
  0
VERTEX
  8
LAYER_2
 10
174.3721
 20
129.1222
  0
SEQEND
  0
ENDBLK
  0
BLOCK
  8
LAYER_2
  2
AIGNBL02010253
 70
64
 10
0
 20
0
 30
0
  3
AIGNBL02010253
  0
POLYLINE
  8
LAYER_2
 40
0.2469
 41
0.2469
 66
1
 10
0
 20
0
 30
0
  0
VERTEX
  8
LAYER_2
 10
174.2095
 20
128.9596
  0
VERTEX
  8
LAYER_2
 10
174.1324
 20
128.9596
  0
SEQEND
  0
ENDBLK
  0
BLOCK
  8
LAYER_2
  2
AIGNBL02010254
 70
64
 10
0
 20
0
 30
0
  3
AIGNBL02010254
  0
POLYLINE
  8
LAYER_2
 40
0.2469
 41
0.2469
 66
1
 10
0
 20
0
 30
0
  0
VERTEX
  8
LAYER_2
 10
172.0722
 20
128.9596
  0
VERTEX
  8
LAYER_2
 10
169.9348
 20
128.9596
  0
SEQEND
  0
ENDBLK
  0
BLOCK
  8
LAYER_2
  2
AIGNBL02010255
 70
64
 10
0
 20
0
 30
0
  3
AIGNBL02010255
  0
POLYLINE
  8
LAYER_2
 40
0.2469
 41
0.2469
 66
1
 10
0
 20
0
 30
0
  0
VERTEX
  8
LAYER_2
 10
170.3124
 20
127.7593
  0
VERTEX
  8
LAYER_2
 10
170.3124
 20
124.4641
  0
SEQEND
  0
ENDBLK
  0
BLOCK
  8
LAYER_2
  2
AIGNBL02010256
 70
64
 10
0
 20
0
 30
0
  3
AIGNBL02010256
  0
POLYLINE
  8
LAYER_2
 40
0.2469
 41
0.2469
 66
1
 10
0
 20
0
 30
0
  0
VERTEX
  8
LAYER_2
 10
171.7118
 20
124.4641
  0
VERTEX
  8
LAYER_2
 10
171.7118
 20
127.7593
  0
SEQEND
  0
ENDBLK
  0
BLOCK
  8
LAYER_2
  2
AIGNBL02010257
 70
64
 10
0
 20
0
 30
0
  3
AIGNBL02010257
  0
POLYLINE
  8
LAYER_2
 40
0.2469
 41
0.2469
 66
1
 10
0
 20
0
 30
0
  0
VERTEX
  8
LAYER_2
 10
171.0118
 20
127.7593
  0
VERTEX
  8
LAYER_2
 10
170.012
 20
127.7593
  0
SEQEND
  0
ENDBLK
  0
BLOCK
  8
LAYER_2
  2
AIGNBL02010258
 70
64
 10
0
 20
0
 30
0
  3
AIGNBL02010258
  0
POLYLINE
  8
LAYER_2
 40
0.2469
 41
0.2469
 66
1
 10
0
 20
0
 30
0
  0
VERTEX
  8
LAYER_2
 10
170.012
 20
127.7593
  0
VERTEX
  8
LAYER_2
 10
170.012
 20
128.9596
  0
SEQEND
  0
ENDBLK
  0
BLOCK
  8
LAYER_2
  2
AIGNBL02010259
 70
64
 10
0
 20
0
 30
0
  3
AIGNBL02010259
  0
POLYLINE
  8
LAYER_2
 40
0.2469
 41
0.2469
 66
1
 10
0
 20
0
 30
0
  0
VERTEX
  8
LAYER_2
 10
172.0122
 20
128.9592
  0
VERTEX
  8
LAYER_2
 10
172.0122
 20
127.7593
  0
SEQEND
  0
ENDBLK
  0
BLOCK
  8
LAYER_2
  2
AIGNBL0201025A
 70
64
 10
0
 20
0
 30
0
  3
AIGNBL0201025A
  0
POLYLINE
  8
LAYER_2
 40
0.2469
 41
0.2469
 66
1
 10
0
 20
0
 30
0
  0
VERTEX
  8
LAYER_2
 10
172.0122
 20
127.7593
  0
VERTEX
  8
LAYER_2
 10
171.0118
 20
127.7593
  0
SEQEND
  0
ENDBLK
  0
BLOCK
  8
LAYER_2
  2
AIGNBL0201025B
 70
64
 10
0
 20
0
 30
0
  3
AIGNBL0201025B
  0
POLYLINE
  8
LAYER_2
 40
0.2469
 41
0.2469
 66
1
 10
0
 20
0
 30
0
  0
VERTEX
  8
LAYER_2
 10
173.8319
 20
124.4641
  0
VERTEX
  8
LAYER_2
 10
173.8319
 20
127.7596
  0
SEQEND
  0
ENDBLK
  0
BLOCK
  8
LAYER_2
  2
AIGNBL0201025C
 70
64
 10
0
 20
0
 30
0
  3
AIGNBL0201025C
  0
POLYLINE
  8
LAYER_2
 40
0.2469
 41
0.2469
 66
1
 10
0
 20
0
 30
0
  0
VERTEX
  8
LAYER_2
 10
174.1324
 20
128.9596
  0
VERTEX
  8
LAYER_2
 10
174.1324
 20
127.7596
  0
SEQEND
  0
ENDBLK
  0
BLOCK
  8
LAYER_2
  2
AIGNBL0201025D
 70
64
 10
0
 20
0
 30
0
  3
AIGNBL0201025D
  0
POLYLINE
  8
LAYER_2
 40
0.2469
 41
0.2469
 66
1
 10
0
 20
0
 30
0
  0
VERTEX
  8
LAYER_2
 10
174.1324
 20
127.7596
  0
VERTEX
  8
LAYER_2
 10
173.1319
 20
127.7596
  0
SEQEND
  0
ENDBLK
  0
BLOCK
  8
LAYER_2
  2
AIGNBL0201025E
 70
64
 10
0
 20
0
 30
0
  3
AIGNBL0201025E
  0
POLYLINE
  8
LAYER_2
 40
0.2469
 41
0.2469
 66
1
 10
0
 20
0
 30
0
  0
VERTEX
  8
LAYER_2
 10
172.0722
 20
128.9596
  0
VERTEX
  8
LAYER_2
 10
174.1324
 20
128.9596
  0
SEQEND
  0
ENDBLK
  0
BLOCK
  8
LAYER_2
  2
AIGNBL0201025F
 70
64
 10
0
 20
0
 30
0
  3
AIGNBL0201025F
  0
POLYLINE
  8
LAYER_2
 40
0.2469
 41
0.2469
 66
1
 10
0
 20
0
 30
0
  0
VERTEX
  8
LAYER_2
 10
172.4319
 20
124.4641
  0
VERTEX
  8
LAYER_2
 10
172.4319
 20
127.7596
  0
SEQEND
  0
ENDBLK
  0
BLOCK
  8
LAYER_2
  2
AIGNBL02010260
 70
64
 10
0
 20
0
 30
0
  3
AIGNBL02010260
  0
POLYLINE
  8
LAYER_2
 40
0.2469
 41
0.2469
 66
1
 10
0
 20
0
 30
0
  0
VERTEX
  8
LAYER_2
 10
172.1321
 20
128.9596
  0
VERTEX
  8
LAYER_2
 10
172.1321
 20
127.7596
  0
SEQEND
  0
ENDBLK
  0
BLOCK
  8
LAYER_2
  2
AIGNBL02010261
 70
64
 10
0
 20
0
 30
0
  3
AIGNBL02010261
  0
POLYLINE
  8
LAYER_2
 40
0.2469
 41
0.2469
 66
1
 10
0
 20
0
 30
0
  0
VERTEX
  8
LAYER_2
 10
172.1321
 20
127.7596
  0
VERTEX
  8
LAYER_2
 10
173.1319
 20
127.7596
  0
SEQEND
  0
ENDBLK
  0
BLOCK
  8
LAYER_2
  2
AIGNBL02010262
 70
64
 10
0
 20
0
 30
0
  3
AIGNBL02010262
  0
POLYLINE
  8
LAYER_2
 40
0.2469
 41
0.2469
 66
1
 10
0
 20
0
 30
0
  0
VERTEX
  8
LAYER_2
 10
170.3124
 20
127.0441
  0
VERTEX
  8
LAYER_2
 10
170.3124
 20
127.7593
  0
SEQEND
  0
ENDBLK
  0
BLOCK
  8
LAYER_2
  2
AIGNBL02010263
 70
64
 10
0
 20
0
 30
0
  3
AIGNBL02010263
  0
POLYLINE
  8
LAYER_2
 40
0.2469
 41
0.2469
 66
1
 10
0
 20
0
 30
0
  0
VERTEX
  8
LAYER_2
 10
168.9723
 20
135.2097
  0
VERTEX
  8
LAYER_2
 10
175.1721
 20
135.2097
  0
SEQEND
  0
ENDBLK
  0
BLOCK
  8
LAYER_2
  2
AIGNBL02010264
 70
64
 10
0
 20
0
 30
0
  3
AIGNBL02010264
  0
POLYLINE
  8
LAYER_2
 40
0.2469
 41
0.2469
 66
1
 10
0
 20
0
 30
0
  0
VERTEX
  8
LAYER_2
 10
175.1721
 20
133.6098
  0
VERTEX
  8
LAYER_2
 10
168.9723
 20
133.6098
  0
SEQEND
  0
ENDBLK
  0
BLOCK
  8
LAYER_2
  2
AIGNBL02010265
 70
64
 10
0
 20
0
 30
0
  3
AIGNBL02010265
  0
POLYLINE
  8
LAYER_2
 40
0.2469
 41
0.2469
 66
1
 10
0
 20
0
 30
0
  0
VERTEX
  8
LAYER_2
 10
175.1721
 20
135.2097
  0
VERTEX
  8
LAYER_2
 10
175.1721
 20
133.6098
  0
SEQEND
  0
ENDBLK
  0
BLOCK
  8
LAYER_2
  2
AIGNBL02010266
 70
64
 10
0
 20
0
 30
0
  3
AIGNBL02010266
  0
POLYLINE
  8
LAYER_2
 40
0.2469
 41
0.2469
 66
1
 10
0
 20
0
 30
0
  0
VERTEX
  8
LAYER_2
 10
168.9723
 20
135.2097
  0
VERTEX
  8
LAYER_2
 10
168.9723
 20
133.6098
  0
SEQEND
  0
ENDBLK
  0
BLOCK
  8
LAYER_2
  2
AIGNBL02010267
 70
64
 10
0
 20
0
 30
0
  3
AIGNBL02010267
  0
POLYLINE
  8
LAYER_2
 40
0.2469
 41
0.2469
 66
1
 10
0
 20
0
 30
0
  0
VERTEX
  8
LAYER_2
 10
168.9819
 20
135.2097
  0
VERTEX
  8
LAYER_2
 10
168.9819
 20
133.6098
  0
SEQEND
  0
ENDBLK
  0
BLOCK
  8
LAYER_2
  2
AIGNBL02010268
 70
64
 10
0
 20
0
 30
0
  3
AIGNBL02010268
  0
POLYLINE
  8
LAYER_2
 40
0.2469
 41
0.2469
 66
1
 10
0
 20
0
 30
0
  0
VERTEX
  8
LAYER_2
 10
170.3124
 20
135.2097
  0
VERTEX
  8
LAYER_2
 10
170.3124
 20
133.6098
  0
SEQEND
  0
ENDBLK
  0
BLOCK
  8
LAYER_2
  2
AIGNBL02010269
 70
64
 10
0
 20
0
 30
0
  3
AIGNBL02010269
  0
POLYLINE
  8
LAYER_2
 40
0.2469
 41
0.2469
 66
1
 10
0
 20
0
 30
0
  0
VERTEX
  8
LAYER_2
 10
170.7417
 20
133.6098
  0
VERTEX
  8
LAYER_2
 10
170.7417
 20
135.2097
  0
SEQEND
  0
ENDBLK
  0
BLOCK
  8
LAYER_2
  2
AIGNBL0201026A
 70
64
 10
0
 20
0
 30
0
  3
AIGNBL0201026A
  0
POLYLINE
  8
LAYER_2
 40
0.2469
 41
0.2469
 66
1
 10
0
 20
0
 30
0
  0
VERTEX
  8
LAYER_2
 10
175.1624
 20
135.2097
  0
VERTEX
  8
LAYER_2
 10
175.1624
 20
133.6098
  0
SEQEND
  0
ENDBLK
  0
BLOCK
  8
LAYER_2
  2
AIGNBL0201026B
 70
64
 10
0
 20
0
 30
0
  3
AIGNBL0201026B
  0
POLYLINE
  8
LAYER_2
 40
0.2469
 41
0.2469
 66
1
 10
0
 20
0
 30
0
  0
VERTEX
  8
LAYER_2
 10
173.8319
 20
135.2097
  0
VERTEX
  8
LAYER_2
 10
173.8319
 20
133.6098
  0
SEQEND
  0
ENDBLK
  0
BLOCK
  8
LAYER_2
  2
AIGNBL0201026C
 70
64
 10
0
 20
0
 30
0
  3
AIGNBL0201026C
  0
POLYLINE
  8
LAYER_2
 40
0.2469
 41
0.2469
 66
1
 10
0
 20
0
 30
0
  0
VERTEX
  8
LAYER_2
 10
173.4027
 20
133.6098
  0
VERTEX
  8
LAYER_2
 10
173.4027
 20
135.2097
  0
SEQEND
  0
ENDBLK
  0
BLOCK
  8
LAYER_2
  2
AIGNBL0201026D
 70
64
 10
0
 20
0
 30
0
  3
AIGNBL0201026D
  0
INSERT
  8
LAYER_2
  2
AIGNBL0202026E
 10
0
 20
0
 30
0
  0
INSERT
  8
LAYER_2
  2
AIGNBL0202026F
 10
0
 20
0
 30
0
  0
INSERT
  8
LAYER_2
  2
AIGNBL02020270
 10
0
 20
0
 30
0
  0
ENDBLK
  0
BLOCK
  8
LAYER_2
  2
AIGNBL02010271
 70
64
 10
0
 20
0
 30
0
  3
AIGNBL02010271
  0
INSERT
  8
LAYER_2
  2
AIGNBL02020272
 10
0
 20
0
 30
0
  0
INSERT
  8
LAYER_2
  2
AIGNBL02020273
 10
0
 20
0
 30
0
  0
INSERT
  8
LAYER_2
  2
AIGNBL02020274
 10
0
 20
0
 30
0
  0
ENDBLK
  0
BLOCK
  8
LAYER_2
  2
AIGNBL02010275
 70
64
 10
0
 20
0
 30
0
  3
AIGNBL02010275
  0
POLYLINE
  8
LAYER_2
 40
0.127
 41
0.127
 66
1
 10
0
 20
0
 30
0
  0
VERTEX
  8
LAYER_2
 10
174.2095
 20
128.9596
  0
VERTEX
  8
LAYER_2
 10
174.2095
 20
133.6098
  0
SEQEND
  0
ENDBLK
  0
BLOCK
  8
LAYER_2
  2
AIGNBL02010276
 70
64
 10
0
 20
0
 30
0
  3
AIGNBL02010276
  0
POLYLINE
  8
LAYER_2
 40
0.2469
 41
0.2469
 66
1
 10
0
 20
0
 30
0
  0
VERTEX
  8
LAYER_2
 10
174.3721
 20
129.1222
  0
VERTEX
  8
LAYER_2
 10
169.7722
 20
129.1222
  0
SEQEND
  0
ENDBLK
  0
BLOCK
  8
LAYER_2
  2
AIGNBL02010277
 70
64
 10
0
 20
0
 30
0
  3
AIGNBL02010277
  0
POLYLINE
  8
LAYER_2
  6
AIGENLINE001
 40
0.127
 41
0.127
 66
1
 10
0
 20
0
 30
0
 70
128
  0
VERTEX
  8
LAYER_2
 10
104.2787
 20
58.0967
  0
VERTEX
  8
LAYER_2
 10
104.2787
 20
94.1159
  0
SEQEND
  0
ENDBLK
  0
BLOCK
  8
LAYER_2
  2
AIGNBL02010278
 70
64
 10
0
 20
0
 30
0
  3
AIGNBL02010278
  0
POLYLINE
  8
LAYER_2
  6
AIGENLINE001
 40
0.127
 41
0.127
 66
1
 10
0
 20
0
 30
0
 70
128
  0
VERTEX
  8
LAYER_2
 10
65.241
 20
58.0967
  0
VERTEX
  8
LAYER_2
 10
65.241
 20
93.4944
  0
SEQEND
  0
ENDBLK
  0
BLOCK
  8
LAYER_2
  2
AIGNBL02010279
 70
64
 10
0
 20
0
 30
0
  3
AIGNBL02010279
  0
POLYLINE
  8
LAYER_2
 40
0.2469
 41
0.2469
 66
1
 10
0
 20
0
 30
0
  0
VERTEX
  8
LAYER_2
 10
64.543
 20
76.6072
  0
VERTEX
  8
LAYER_2
 10
65.9431
 20
76.6072
  0
SEQEND
  0
ENDBLK
  0
BLOCK
  8
LAYER_2
  2
AIGNBL0201027A
 70
64
 10
0
 20
0
 30
0
  3
AIGNBL0201027A
  0
POLYLINE
  8
LAYER_2
 40
0.2469
 41
0.2469
 66
1
 10
0
 20
0
 30
0
  0
VERTEX
  8
LAYER_2
 10
64.543
 20
78.5072
  0
VERTEX
  8
LAYER_2
 10
65.9431
 20
78.5072
  0
SEQEND
  0
ENDBLK
  0
BLOCK
  8
LAYER_2
  2
AIGNBL0201027B
 70
64
 10
0
 20
0
 30
0
  3
AIGNBL0201027B
  0
INSERT
  8
LAYER_2
  2
AIGNBL0202027C
 10
0
 20
0
 30
0
  0
INSERT
  8
LAYER_2
  2
AIGNBL0202027D
 10
0
 20
0
 30
0
  0
INSERT
  8
LAYER_2
  2
AIGNBL0202027E
 10
0
 20
0
 30
0
  0
ENDBLK
  0
BLOCK
  8
LAYER_2
  2
AIGNBL0201027F
 70
64
 10
0
 20
0
 30
0
  3
AIGNBL0201027F
  0
POLYLINE
  8
LAYER_2
 40
0.2469
 41
0.2469
 66
1
 10
0
 20
0
 30
0
  0
VERTEX
  8
LAYER_2
 10
65.9431
 20
72.1503
  0
VERTEX
  8
LAYER_2
 10
65.9431
 20
75.3243
  0
SEQEND
  0
ENDBLK
  0
BLOCK
  8
LAYER_2
  2
AIGNBL02010280
 70
64
 10
0
 20
0
 30
0
  3
AIGNBL02010280
  0
POLYLINE
  8
LAYER_2
 40
0.2469
 41
0.2469
 66
1
 10
0
 20
0
 30
0
  0
VERTEX
  8
LAYER_2
 10
65.9431
 20
76.0774
  0
VERTEX
  8
LAYER_2
 10
65.9431
 20
80.1491
  0
SEQEND
  0
ENDBLK
  0
BLOCK
  8
LAYER_2
  2
AIGNBL02010281
 70
64
 10
0
 20
0
 30
0
  3
AIGNBL02010281
  0
POLYLINE
  8
LAYER_2
 40
0.2469
 41
0.2469
 66
1
 10
0
 20
0
 30
0
  0
VERTEX
  8
LAYER_2
 10
64.543
 20
80.1491
  0
VERTEX
  8
LAYER_2
 10
64.543
 20
76.0774
  0
SEQEND
  0
ENDBLK
  0
BLOCK
  8
LAYER_2
  2
AIGNBL02010282
 70
64
 10
0
 20
0
 30
0
  3
AIGNBL02010282
  0
POLYLINE
  8
LAYER_2
 40
0.2469
 41
0.2469
 66
1
 10
0
 20
0
 30
0
  0
VERTEX
  8
LAYER_2
 10
64.543
 20
75.3243
  0
VERTEX
  8
LAYER_2
 10
64.543
 20
72.1503
  0
SEQEND
  0
ENDBLK
  0
BLOCK
  8
LAYER_2
  2
AIGNBL02010283
 70
64
 10
0
 20
0
 30
0
  3
AIGNBL02010283
  0
INSERT
  8
LAYER_2
  2
AIGNBL02020284
 10
0
 20
0
 30
0
  0
INSERT
  8
LAYER_2
  2
AIGNBL02020285
 10
0
 20
0
 30
0
  0
INSERT
  8
LAYER_2
  2
AIGNBL02020286
 10
0
 20
0
 30
0
  0
ENDBLK
  0
BLOCK
  8
LAYER_2
  2
AIGNBL02010287
 70
64
 10
0
 20
0
 30
0
  3
AIGNBL02010287
  0
INSERT
  8
LAYER_2
  2
AIGNBL02020288
 10
0
 20
0
 30
0
  0
INSERT
  8
LAYER_2
  2
AIGNBL02020289
 10
0
 20
0
 30
0
  0
INSERT
  8
LAYER_2
  2
AIGNBL0202028A
 10
0
 20
0
 30
0
  0
ENDBLK
  0
BLOCK
  8
LAYER_2
  2
AIGNBL0201028B
 70
64
 10
0
 20
0
 30
0
  3
AIGNBL0201028B
  0
POLYLINE
  8
LAYER_2
 40
0.2469
 41
0.2469
 66
1
 10
0
 20
0
 30
0
  0
VERTEX
  8
LAYER_2
 10
103.5811
 20
76.6072
  0
VERTEX
  8
LAYER_2
 10
104.9808
 20
76.6072
  0
SEQEND
  0
ENDBLK
  0
BLOCK
  8
LAYER_2
  2
AIGNBL0201028C
 70
64
 10
0
 20
0
 30
0
  3
AIGNBL0201028C
  0
POLYLINE
  8
LAYER_2
 40
0.2469
 41
0.2469
 66
1
 10
0
 20
0
 30
0
  0
VERTEX
  8
LAYER_2
 10
103.5811
 20
78.5072
  0
VERTEX
  8
LAYER_2
 10
104.9808
 20
78.5072
  0
SEQEND
  0
ENDBLK
  0
BLOCK
  8
LAYER_2
  2
AIGNBL0201028D
 70
64
 10
0
 20
0
 30
0
  3
AIGNBL0201028D
  0
INSERT
  8
LAYER_2
  2
AIGNBL0202028E
 10
0
 20
0
 30
0
  0
INSERT
  8
LAYER_2
  2
AIGNBL0202028F
 10
0
 20
0
 30
0
  0
INSERT
  8
LAYER_2
  2
AIGNBL02020290
 10
0
 20
0
 30
0
  0
ENDBLK
  0
BLOCK
  8
LAYER_2
  2
AIGNBL02010291
 70
64
 10
0
 20
0
 30
0
  3
AIGNBL02010291
  0
POLYLINE
  8
LAYER_2
 40
0.2469
 41
0.2469
 66
1
 10
0
 20
0
 30
0
  0
VERTEX
  8
LAYER_2
 10
104.9808
 20
72.1503
  0
VERTEX
  8
LAYER_2
 10
104.9808
 20
75.3243
  0
SEQEND
  0
ENDBLK
  0
BLOCK
  8
LAYER_2
  2
AIGNBL02010292
 70
64
 10
0
 20
0
 30
0
  3
AIGNBL02010292
  0
POLYLINE
  8
LAYER_2
 40
0.2469
 41
0.2469
 66
1
 10
0
 20
0
 30
0
  0
VERTEX
  8
LAYER_2
 10
104.9808
 20
76.0774
  0
VERTEX
  8
LAYER_2
 10
104.9808
 20
80.1491
  0
SEQEND
  0
ENDBLK
  0
BLOCK
  8
LAYER_2
  2
AIGNBL02010293
 70
64
 10
0
 20
0
 30
0
  3
AIGNBL02010293
  0
POLYLINE
  8
LAYER_2
 40
0.2469
 41
0.2469
 66
1
 10
0
 20
0
 30
0
  0
VERTEX
  8
LAYER_2
 10
103.5811
 20
80.1491
  0
VERTEX
  8
LAYER_2
 10
103.5811
 20
76.0774
  0
SEQEND
  0
ENDBLK
  0
BLOCK
  8
LAYER_2
  2
AIGNBL02010294
 70
64
 10
0
 20
0
 30
0
  3
AIGNBL02010294
  0
POLYLINE
  8
LAYER_2
 40
0.2469
 41
0.2469
 66
1
 10
0
 20
0
 30
0
  0
VERTEX
  8
LAYER_2
 10
103.5811
 20
75.3243
  0
VERTEX
  8
LAYER_2
 10
103.5811
 20
72.1503
  0
SEQEND
  0
ENDBLK
  0
BLOCK
  8
LAYER_2
  2
AIGNBL02010295
 70
64
 10
0
 20
0
 30
0
  3
AIGNBL02010295
  0
INSERT
  8
LAYER_2
  2
AIGNBL02020296
 10
0
 20
0
 30
0
  0
INSERT
  8
LAYER_2
  2
AIGNBL02020297
 10
0
 20
0
 30
0
  0
INSERT
  8
LAYER_2
  2
AIGNBL02020298
 10
0
 20
0
 30
0
  0
ENDBLK
  0
BLOCK
  8
LAYER_2
  2
AIGNBL02010299
 70
64
 10
0
 20
0
 30
0
  3
AIGNBL02010299
  0
INSERT
  8
LAYER_2
  2
AIGNBL0202029A
 10
0
 20
0
 30
0
  0
INSERT
  8
LAYER_2
  2
AIGNBL0202029B
 10
0
 20
0
 30
0
  0
INSERT
  8
LAYER_2
  2
AIGNBL0202029C
 10
0
 20
0
 30
0
  0
ENDBLK
  0
BLOCK
  8
LAYER_2
  2
AIGNBL0201029D
 70
64
 10
0
 20
0
 30
0
  3
AIGNBL0201029D
  0
INSERT
  8
LAYER_2
  2
AIGNBL0202029E
 10
0
 20
0
 30
0
  0
INSERT
  8
LAYER_2
  2
AIGNBL0202029F
 10
0
 20
0
 30
0
  0
INSERT
  8
LAYER_2
  2
AIGNBL020202A0
 10
0
 20
0
 30
0
  0
ENDBLK
  0
BLOCK
  8
LAYER_2
  2
AIGNBL020102A1
 70
64
 10
0
 20
0
 30
0
  3
AIGNBL020102A1
  0
POLYLINE
  8
LAYER_2
 40
0.2469
 41
0.2469
 66
1
 10
0
 20
0
 30
0
  0
VERTEX
  8
LAYER_2
 10
172.7722
 20
76.0774
  0
VERTEX
  8
LAYER_2
 10
172.7722
 20
80.1491
  0
SEQEND
  0
ENDBLK
  0
BLOCK
  8
LAYER_2
  2
AIGNBL020102A2
 70
64
 10
0
 20
0
 30
0
  3
AIGNBL020102A2
  0
POLYLINE
  8
LAYER_2
 40
0.2469
 41
0.2469
 66
1
 10
0
 20
0
 30
0
  0
VERTEX
  8
LAYER_2
 10
171.3721
 20
80.1491
  0
VERTEX
  8
LAYER_2
 10
171.3721
 20
76.0774
  0
SEQEND
  0
ENDBLK
  0
BLOCK
  8
LAYER_2
  2
AIGNBL020102A3
 70
64
 10
0
 20
0
 30
0
  3
AIGNBL020102A3
  0
POLYLINE
  8
LAYER_2
 40
0.2469
 41
0.2469
 66
1
 10
0
 20
0
 30
0
  0
VERTEX
  8
LAYER_2
 10
171.3721
 20
76.6072
  0
VERTEX
  8
LAYER_2
 10
172.7722
 20
76.6072
  0
SEQEND
  0
ENDBLK
  0
BLOCK
  8
LAYER_2
  2
AIGNBL020102A4
 70
64
 10
0
 20
0
 30
0
  3
AIGNBL020102A4
  0
POLYLINE
  8
LAYER_2
 40
0.2469
 41
0.2469
 66
1
 10
0
 20
0
 30
0
  0
VERTEX
  8
LAYER_2
 10
171.3721
 20
78.5072
  0
VERTEX
  8
LAYER_2
 10
172.7722
 20
78.5072
  0
SEQEND
  0
ENDBLK
  0
BLOCK
  8
LAYER_2
  2
AIGNBL020102A5
 70
64
 10
0
 20
0
 30
0
  3
AIGNBL020102A5
  0
INSERT
  8
LAYER_2
  2
AIGNBL020202A6
 10
0
 20
0
 30
0
  0
INSERT
  8
LAYER_2
  2
AIGNBL020202A7
 10
0
 20
0
 30
0
  0
INSERT
  8
LAYER_2
  2
AIGNBL020202A8
 10
0
 20
0
 30
0
  0
ENDBLK
  0
BLOCK
  8
LAYER_2
  2
AIGNBL020102A9
 70
64
 10
0
 20
0
 30
0
  3
AIGNBL020102A9
  0
INSERT
  8
LAYER_2
  2
AIGNBL020202AA
 10
0
 20
0
 30
0
  0
INSERT
  8
LAYER_2
  2
AIGNBL020202AB
 10
0
 20
0
 30
0
  0
INSERT
  8
LAYER_2
  2
AIGNBL020202AC
 10
0
 20
0
 30
0
  0
ENDBLK
  0
BLOCK
  8
LAYER_2
  2
AIGNBL020102AD
 70
64
 10
0
 20
0
 30
0
  3
AIGNBL020102AD
  0
POLYLINE
  8
LAYER_2
 40
0.2469
 41
0.2469
 66
1
 10
0
 20
0
 30
0
  0
VERTEX
  8
LAYER_2
 10
171.3721
 20
76.6072
  0
VERTEX
  8
LAYER_2
 10
172.7722
 20
76.6072
  0
SEQEND
  0
ENDBLK
  0
BLOCK
  8
LAYER_2
  2
AIGNBL020102AE
 70
64
 10
0
 20
0
 30
0
  3
AIGNBL020102AE
  0
POLYLINE
  8
LAYER_2
 40
0.2469
 41
0.2469
 66
1
 10
0
 20
0
 30
0
  0
VERTEX
  8
LAYER_2
 10
172.7722
 20
72.1503
  0
VERTEX
  8
LAYER_2
 10
172.7722
 20
75.3243
  0
SEQEND
  0
ENDBLK
  0
BLOCK
  8
LAYER_2
  2
AIGNBL020102AF
 70
64
 10
0
 20
0
 30
0
  3
AIGNBL020102AF
  0
POLYLINE
  8
LAYER_2
 40
0.2469
 41
0.2469
 66
1
 10
0
 20
0
 30
0
  0
VERTEX
  8
LAYER_2
 10
171.3721
 20
75.3243
  0
VERTEX
  8
LAYER_2
 10
171.3721
 20
72.1503
  0
SEQEND
  0
ENDBLK
  0
BLOCK
  8
LAYER_2
  2
AIGNBL020102B0
 70
64
 10
0
 20
0
 30
0
  3
AIGNBL020102B0
  0
INSERT
  8
LAYER_2
  2
AIGNBL020202B1
 10
0
 20
0
 30
0
  0
INSERT
  8
LAYER_2
  2
AIGNBL020202B2
 10
0
 20
0
 30
0
  0
INSERT
  8
LAYER_2
  2
AIGNBL020202B3
 10
0
 20
0
 30
0
  0
ENDBLK
  0
BLOCK
  8
LAYER_2
  2
AIGNBL020102B4
 70
64
 10
0
 20
0
 30
0
  3
AIGNBL020102B4
  0
INSERT
  8
LAYER_2
  2
AIGNBL020202B5
 10
0
 20
0
 30
0
  0
INSERT
  8
LAYER_2
  2
AIGNBL020202B6
 10
0
 20
0
 30
0
  0
INSERT
  8
LAYER_2
  2
AIGNBL020202B7
 10
0
 20
0
 30
0
  0
ENDBLK
  0
BLOCK
  8
LAYER_2
  2
AIGNBL020102B8
 70
64
 10
0
 20
0
 30
0
  3
AIGNBL020102B8
  0
POLYLINE
  8
LAYER_2
  6
AIGENLINE001
 40
0.2469
 41
0.2469
 66
1
 10
0
 20
0
 30
0
 70
128
  0
VERTEX
  8
LAYER_2
 10
86.3288
 20
117.341
 42
0.3413939565
  0
VERTEX
  8
LAYER_2
 10
95.3039
 20
105.7283
  0
SEQEND
  0
ENDBLK
  0
BLOCK
  8
LAYER_2
  2
AIGNBL020102B9
 70
64
 10
0
 20
0
 30
0
  3
AIGNBL020102B9
  0
POLYLINE
  8
LAYER_2
  6
AIGENLINE001
 40
0.2469
 41
0.2469
 66
1
 10
0
 20
0
 30
0
 70
128
  0
VERTEX
  8
LAYER_2
 10
104.2787
 20
94.1159
 42
0.3414112735
  0
VERTEX
  8
LAYER_2
 10
95.3039
 20
105.7283
  0
SEQEND
  0
ENDBLK
  0
BLOCK
  8
LAYER_2
  2
AIGNBL020102BA
 70
64
 10
0
 20
0
 30
0
  3
AIGNBL020102BA
  0
POLYLINE
  8
LAYER_2
  6
AIGENLINE001
 40
0.2469
 41
0.2469
 66
1
 10
0
 20
0
 30
0
 70
128
  0
VERTEX
  8
LAYER_2
 10
74.2144
 20
105.7283
 42
0.3413947432
  0
VERTEX
  8
LAYER_2
 10
83.1892
 20
117.341
  0
SEQEND
  0
ENDBLK
  0
BLOCK
  8
LAYER_2
  2
AIGNBL020102BB
 70
64
 10
0
 20
0
 30
0
  3
AIGNBL020102BB
  0
POLYLINE
  8
LAYER_2
  6
AIGENLINE001
 40
0.2469
 41
0.2469
 66
1
 10
0
 20
0
 30
0
 70
128
  0
VERTEX
  8
LAYER_2
 10
74.2144
 20
105.7283
 42
0.3414149236
  0
VERTEX
  8
LAYER_2
 10
65.2393
 20
94.1159
  0
SEQEND
  0
ENDBLK
  0
BLOCK
  8
LAYER_2
  2
AIGNBL020102BC
 70
64
 10
0
 20
0
 30
0
  3
AIGNBL020102BC
  0
POLYLINE
  8
LAYER_2
 40
0.2469
 41
0.2469
 66
1
 10
0
 20
0
 30
0
  0
VERTEX
  8
LAYER_2
 10
64.2612
 20
71.8502
  0
VERTEX
  8
LAYER_2
 10
64.2612
 20
68.4503
  0
SEQEND
  0
ENDBLK
  0
BLOCK
  8
LAYER_2
  2
AIGNBL020102BD
 70
64
 10
0
 20
0
 30
0
  3
AIGNBL020102BD
  0
POLYLINE
  8
LAYER_2
 40
0.2469
 41
0.2469
 66
1
 10
0
 20
0
 30
0
  0
VERTEX
  8
LAYER_2
 10
65.241
 20
72.1503
  0
VERTEX
  8
LAYER_2
 10
63.0409
 20
72.1503
  0
SEQEND
  0
ENDBLK
  0
BLOCK
  8
LAYER_2
  2
AIGNBL020102BE
 70
64
 10
0
 20
0
 30
0
  3
AIGNBL020102BE
  0
POLYLINE
  8
LAYER_2
 40
0.2469
 41
0.2469
 66
1
 10
0
 20
0
 30
0
  0
VERTEX
  8
LAYER_2
 10
63.0409
 20
68.1502
  0
VERTEX
  8
LAYER_2
 10
65.241
 20
68.1502
  0
SEQEND
  0
ENDBLK
  0
BLOCK
  8
LAYER_2
  2
AIGNBL020102BF
 70
64
 10
0
 20
0
 30
0
  3
AIGNBL020102BF
  0
POLYLINE
  8
LAYER_2
 40
0.2469
 41
0.2469
 66
1
 10
0
 20
0
 30
0
  0
VERTEX
  8
LAYER_2
 10
63.7391
 20
68.4503
  0
VERTEX
  8
LAYER_2
 10
64.2612
 20
68.4503
  0
SEQEND
  0
ENDBLK
  0
BLOCK
  8
LAYER_2
  2
AIGNBL020102C0
 70
64
 10
0
 20
0
 30
0
  3
AIGNBL020102C0
  0
POLYLINE
  8
LAYER_2
 40
0.2469
 41
0.2469
 66
1
 10
0
 20
0
 30
0
  0
VERTEX
  8
LAYER_2
 10
62.741
 20
71.8502
  0
VERTEX
  8
LAYER_2
 10
62.741
 20
68.4503
  0
SEQEND
  0
ENDBLK
  0
BLOCK
  8
LAYER_2
  2
AIGNBL020102C1
 70
64
 10
0
 20
0
 30
0
  3
AIGNBL020102C1
  0
POLYLINE
  8
LAYER_2
 40
0.2469
 41
0.2469
 66
1
 10
0
 20
0
 30
0
  0
VERTEX
  8
LAYER_2
 10
63.7391
 20
71.8502
  0
VERTEX
  8
LAYER_2
 10
63.7391
 20
68.4503
  0
SEQEND
  0
ENDBLK
  0
BLOCK
  8
LAYER_2
  2
AIGNBL020102C2
 70
64
 10
0
 20
0
 30
0
  3
AIGNBL020102C2
  0
POLYLINE
  8
LAYER_2
 40
0.2469
 41
0.2469
 66
1
 10
0
 20
0
 30
0
  0
VERTEX
  8
LAYER_2
 10
63.7391
 20
71.8502
  0
VERTEX
  8
LAYER_2
 10
64.2612
 20
71.8502
  0
SEQEND
  0
ENDBLK
  0
BLOCK
  8
LAYER_2
  2
AIGNBL020102C3
 70
64
 10
0
 20
0
 30
0
  3
AIGNBL020102C3
  0
POLYLINE
  8
LAYER_2
 40
0.2469
 41
0.2469
 66
1
 10
0
 20
0
 30
0
  0
VERTEX
  8
LAYER_2
 10
62.741
 20
68.4503
 42
0.4142148179
  0
VERTEX
  8
LAYER_2
 10
63.0409
 20
68.1502
  0
SEQEND
  0
ENDBLK
  0
BLOCK
  8
LAYER_2
  2
AIGNBL020102C4
 70
64
 10
0
 20
0
 30
0
  3
AIGNBL020102C4
  0
POLYLINE
  8
LAYER_2
 40
0.2469
 41
0.2469
 66
1
 10
0
 20
0
 30
0
  0
VERTEX
  8
LAYER_2
 10
62.741
 20
68.4503
 42
0.4143910529
  0
VERTEX
  8
LAYER_2
 10
63.505
 20
68.216
 42
0.149713358
  0
VERTEX
  8
LAYER_2
 10
63.7391
 20
68.4503
  0
SEQEND
  0
ENDBLK
  0
BLOCK
  8
LAYER_2
  2
AIGNBL020102C5
 70
64
 10
0
 20
0
 30
0
  3
AIGNBL020102C5
  0
POLYLINE
  8
LAYER_2
 40
0.2469
 41
0.2469
 66
1
 10
0
 20
0
 30
0
  0
VERTEX
  8
LAYER_2
 10
64.2612
 20
68.4503
 42
0.1497520288
  0
VERTEX
  8
LAYER_2
 10
65.241
 20
68.1502
  0
SEQEND
  0
ENDBLK
  0
BLOCK
  8
LAYER_2
  2
AIGNBL020102C6
 70
64
 10
0
 20
0
 30
0
  3
AIGNBL020102C6
  0
POLYLINE
  8
LAYER_2
 40
0.2469
 41
0.2469
 66
1
 10
0
 20
0
 30
0
  0
VERTEX
  8
LAYER_2
 10
63.0409
 20
72.1503
 42
0.4141954305
  0
VERTEX
  8
LAYER_2
 10
62.741
 20
71.8502
  0
SEQEND
  0
ENDBLK
  0
BLOCK
  8
LAYER_2
  2
AIGNBL020102C7
 70
64
 10
0
 20
0
 30
0
  3
AIGNBL020102C7
  0
POLYLINE
  8
LAYER_2
 40
0.2469
 41
0.2469
 66
1
 10
0
 20
0
 30
0
  0
VERTEX
  8
LAYER_2
 10
65.241
 20
72.1503
 42
0.1495414702
  0
VERTEX
  8
LAYER_2
 10
64.2612
 20
71.8502
  0
SEQEND
  0
ENDBLK
  0
BLOCK
  8
LAYER_2
  2
AIGNBL020102C8
 70
64
 10
0
 20
0
 30
0
  3
AIGNBL020102C8
  0
POLYLINE
  8
LAYER_2
 40
0.2469
 41
0.2469
 66
1
 10
0
 20
0
 30
0
  0
VERTEX
  8
LAYER_2
 10
63.7391
 20
71.8502
 42
0.4143981709
  0
VERTEX
  8
LAYER_2
 10
62.9751
 20
72.0841
 42
0.1501983825
  0
VERTEX
  8
LAYER_2
 10
62.741
 20
71.8502
  0
SEQEND
  0
ENDBLK
  0
BLOCK
  8
LAYER_2
  2
AIGNBL020102C9
 70
64
 10
0
 20
0
 30
0
  3
AIGNBL020102C9
  0
POLYLINE
  8
LAYER_2
 40
0.2469
 41
0.2469
 66
1
 10
0
 20
0
 30
0
  0
VERTEX
  8
LAYER_2
 10
65.241
 20
64.6892
 42
0.1442146665
  0
VERTEX
  8
LAYER_2
 10
64.2612
 20
64.4005
  0
SEQEND
  0
ENDBLK
  0
BLOCK
  8
LAYER_2
  2
AIGNBL020102CA
 70
64
 10
0
 20
0
 30
0
  3
AIGNBL020102CA
  0
POLYLINE
  8
LAYER_2
 40
0.2469
 41
0.2469
 66
1
 10
0
 20
0
 30
0
  0
VERTEX
  8
LAYER_2
 10
63.7391
 20
64.4005
 42
0.268998164
  0
VERTEX
  8
LAYER_2
 10
63.2411
 20
64.6892
  0
SEQEND
  0
ENDBLK
  0
BLOCK
  8
LAYER_2
  2
AIGNBL020102CB
 70
64
 10
0
 20
0
 30
0
  3
AIGNBL020102CB
  0
POLYLINE
  8
LAYER_2
 40
0.2469
 41
0.2469
 66
1
 10
0
 20
0
 30
0
  0
VERTEX
  8
LAYER_2
 10
63.2411
 20
67.5893
  0
VERTEX
  8
LAYER_2
 10
65.241
 20
67.5893
  0
SEQEND
  0
ENDBLK
  0
BLOCK
  8
LAYER_2
  2
AIGNBL020102CC
 70
64
 10
0
 20
0
 30
0
  3
AIGNBL020102CC
  0
POLYLINE
  8
LAYER_2
 40
0.2469
 41
0.2469
 66
1
 10
0
 20
0
 30
0
  0
VERTEX
  8
LAYER_2
 10
63.2411
 20
64.6892
  0
VERTEX
  8
LAYER_2
 10
63.2411
 20
68.1502
  0
SEQEND
  0
ENDBLK
  0
BLOCK
  8
LAYER_2
  2
AIGNBL020102CD
 70
64
 10
0
 20
0
 30
0
  3
AIGNBL020102CD
  0
POLYLINE
  8
LAYER_2
 40
0.2469
 41
0.2469
 66
1
 10
0
 20
0
 30
0
  0
VERTEX
  8
LAYER_2
 10
63.2411
 20
64.6892
  0
VERTEX
  8
LAYER_2
 10
62.741
 20
64.4005
  0
SEQEND
  0
ENDBLK
  0
BLOCK
  8
LAYER_2
  2
AIGNBL020102CE
 70
64
 10
0
 20
0
 30
0
  3
AIGNBL020102CE
  0
POLYLINE
  8
LAYER_2
 40
0.2469
 41
0.2469
 66
1
 10
0
 20
0
 30
0
  0
VERTEX
  8
LAYER_2
 10
63.141
 20
61.7892
  0
VERTEX
  8
LAYER_2
 10
62.741
 20
62.0203
  0
SEQEND
  0
ENDBLK
  0
BLOCK
  8
LAYER_2
  2
AIGNBL020102CF
 70
64
 10
0
 20
0
 30
0
  3
AIGNBL020102CF
  0
POLYLINE
  8
LAYER_2
 40
0.2469
 41
0.2469
 66
1
 10
0
 20
0
 30
0
  0
VERTEX
  8
LAYER_2
 10
63.141
 20
61.7892
  0
VERTEX
  8
LAYER_2
 10
65.241
 20
61.7892
  0
SEQEND
  0
ENDBLK
  0
BLOCK
  8
LAYER_2
  2
AIGNBL020102D0
 70
64
 10
0
 20
0
 30
0
  3
AIGNBL020102D0
  0
POLYLINE
  8
LAYER_2
 40
0.2469
 41
0.2469
 66
1
 10
0
 20
0
 30
0
  0
VERTEX
  8
LAYER_2
 10
65.241
 20
64.6892
  0
VERTEX
  8
LAYER_2
 10
63.2411
 20
64.6892
  0
SEQEND
  0
ENDBLK
  0
BLOCK
  8
LAYER_2
  2
AIGNBL020102D1
 70
64
 10
0
 20
0
 30
0
  3
AIGNBL020102D1
  0
POLYLINE
  8
LAYER_2
 40
0.2469
 41
0.2469
 66
1
 10
0
 20
0
 30
0
  0
VERTEX
  8
LAYER_2
 10
62.741
 20
64.4005
  0
VERTEX
  8
LAYER_2
 10
62.741
 20
62.0203
  0
SEQEND
  0
ENDBLK
  0
BLOCK
  8
LAYER_2
  2
AIGNBL020102D2
 70
64
 10
0
 20
0
 30
0
  3
AIGNBL020102D2
  0
POLYLINE
  8
LAYER_2
 40
0.2469
 41
0.2469
 66
1
 10
0
 20
0
 30
0
  0
VERTEX
  8
LAYER_2
 10
63.7391
 20
62.0203
  0
VERTEX
  8
LAYER_2
 10
64.2612
 20
62.0203
  0
SEQEND
  0
ENDBLK
  0
BLOCK
  8
LAYER_2
  2
AIGNBL020102D3
 70
64
 10
0
 20
0
 30
0
  3
AIGNBL020102D3
  0
POLYLINE
  8
LAYER_2
 40
0.2469
 41
0.2469
 66
1
 10
0
 20
0
 30
0
  0
VERTEX
  8
LAYER_2
 10
64.2612
 20
62.0203
  0
VERTEX
  8
LAYER_2
 10
64.2612
 20
64.4005
  0
SEQEND
  0
ENDBLK
  0
BLOCK
  8
LAYER_2
  2
AIGNBL020102D4
 70
64
 10
0
 20
0
 30
0
  3
AIGNBL020102D4
  0
POLYLINE
  8
LAYER_2
 40
0.2469
 41
0.2469
 66
1
 10
0
 20
0
 30
0
  0
VERTEX
  8
LAYER_2
 10
64.2612
 20
64.4005
  0
VERTEX
  8
LAYER_2
 10
63.7391
 20
64.4005
  0
SEQEND
  0
ENDBLK
  0
BLOCK
  8
LAYER_2
  2
AIGNBL020102D5
 70
64
 10
0
 20
0
 30
0
  3
AIGNBL020102D5
  0
POLYLINE
  8
LAYER_2
 40
0.2469
 41
0.2469
 66
1
 10
0
 20
0
 30
0
  0
VERTEX
  8
LAYER_2
 10
63.7391
 20
64.4005
  0
VERTEX
  8
LAYER_2
 10
63.7391
 20
62.0203
  0
SEQEND
  0
ENDBLK
  0
BLOCK
  8
LAYER_2
  2
AIGNBL020102D6
 70
64
 10
0
 20
0
 30
0
  3
AIGNBL020102D6
  0
POLYLINE
  8
LAYER_2
 40
0.127
 41
0.127
 66
1
 10
0
 20
0
 30
0
  0
VERTEX
  8
LAYER_2
 10
63.2408
 20
67.3075
  0
VERTEX
  8
LAYER_2
 10
63.4034
 20
67.5893
  0
SEQEND
  0
ENDBLK
  0
BLOCK
  8
LAYER_2
  2
AIGNBL020102D7
 70
64
 10
0
 20
0
 30
0
  3
AIGNBL020102D7
  0
POLYLINE
  8
LAYER_2
 40
0.127
 41
0.127
 66
1
 10
0
 20
0
 30
0
  0
VERTEX
  8
LAYER_2
 10
63.4034
 20
67.5893
  0
VERTEX
  8
LAYER_2
 10
63.4034
 20
68.1502
  0
SEQEND
  0
ENDBLK
  0
BLOCK
  8
LAYER_2
  2
AIGNBL020102D8
 70
64
 10
0
 20
0
 30
0
  3
AIGNBL020102D8
  0
POLYLINE
  8
LAYER_2
 40
0.2469
 41
0.2469
 66
1
 10
0
 20
0
 30
0
  0
VERTEX
  8
LAYER_2
 10
63.2492
 20
61.7892
 42
0.216616236
  0
VERTEX
  8
LAYER_2
 10
63.7391
 20
62.0203
  0
SEQEND
  0
ENDBLK
  0
BLOCK
  8
LAYER_2
  2
AIGNBL020102D9
 70
64
 10
0
 20
0
 30
0
  3
AIGNBL020102D9
  0
POLYLINE
  8
LAYER_2
 40
0.2469
 41
0.2469
 66
1
 10
0
 20
0
 30
0
  0
VERTEX
  8
LAYER_2
 10
64.2612
 20
62.0203
 42
0.1162618503
  0
VERTEX
  8
LAYER_2
 10
65.241
 20
61.7892
  0
SEQEND
  0
ENDBLK
  0
BLOCK
  8
LAYER_2
  2
AIGNBL020102DA
 70
64
 10
0
 20
0
 30
0
  3
AIGNBL020102DA
  0
POLYLINE
  8
LAYER_2
 40
0.2469
 41
0.2469
 66
1
 10
0
 20
0
 30
0
  0
VERTEX
  8
LAYER_2
 10
66.2208
 20
71.8502
  0
VERTEX
  8
LAYER_2
 10
66.2208
 20
68.4503
  0
SEQEND
  0
ENDBLK
  0
BLOCK
  8
LAYER_2
  2
AIGNBL020102DB
 70
64
 10
0
 20
0
 30
0
  3
AIGNBL020102DB
  0
POLYLINE
  8
LAYER_2
 40
0.2469
 41
0.2469
 66
1
 10
0
 20
0
 30
0
  0
VERTEX
  8
LAYER_2
 10
65.241
 20
72.1503
  0
VERTEX
  8
LAYER_2
 10
67.441
 20
72.1503
  0
SEQEND
  0
ENDBLK
  0
BLOCK
  8
LAYER_2
  2
AIGNBL020102DC
 70
64
 10
0
 20
0
 30
0
  3
AIGNBL020102DC
  0
POLYLINE
  8
LAYER_2
 40
0.2469
 41
0.2469
 66
1
 10
0
 20
0
 30
0
  0
VERTEX
  8
LAYER_2
 10
67.441
 20
68.1502
  0
VERTEX
  8
LAYER_2
 10
65.241
 20
68.1502
  0
SEQEND
  0
ENDBLK
  0
BLOCK
  8
LAYER_2
  2
AIGNBL020102DD
 70
64
 10
0
 20
0
 30
0
  3
AIGNBL020102DD
  0
POLYLINE
  8
LAYER_2
 40
0.2469
 41
0.2469
 66
1
 10
0
 20
0
 30
0
  0
VERTEX
  8
LAYER_2
 10
66.743
 20
68.4503
  0
VERTEX
  8
LAYER_2
 10
66.2208
 20
68.4503
  0
SEQEND
  0
ENDBLK
  0
BLOCK
  8
LAYER_2
  2
AIGNBL020102DE
 70
64
 10
0
 20
0
 30
0
  3
AIGNBL020102DE
  0
POLYLINE
  8
LAYER_2
 40
0.2469
 41
0.2469
 66
1
 10
0
 20
0
 30
0
  0
VERTEX
  8
LAYER_2
 10
67.7411
 20
71.8502
  0
VERTEX
  8
LAYER_2
 10
67.7411
 20
68.4503
  0
SEQEND
  0
ENDBLK
  0
BLOCK
  8
LAYER_2
  2
AIGNBL020102DF
 70
64
 10
0
 20
0
 30
0
  3
AIGNBL020102DF
  0
POLYLINE
  8
LAYER_2
 40
0.2469
 41
0.2469
 66
1
 10
0
 20
0
 30
0
  0
VERTEX
  8
LAYER_2
 10
66.743
 20
71.8502
  0
VERTEX
  8
LAYER_2
 10
66.743
 20
68.4503
  0
SEQEND
  0
ENDBLK
  0
BLOCK
  8
LAYER_2
  2
AIGNBL020102E0
 70
64
 10
0
 20
0
 30
0
  3
AIGNBL020102E0
  0
POLYLINE
  8
LAYER_2
 40
0.2469
 41
0.2469
 66
1
 10
0
 20
0
 30
0
  0
VERTEX
  8
LAYER_2
 10
66.743
 20
71.8502
  0
VERTEX
  8
LAYER_2
 10
66.2208
 20
71.8502
  0
SEQEND
  0
ENDBLK
  0
BLOCK
  8
LAYER_2
  2
AIGNBL020102E1
 70
64
 10
0
 20
0
 30
0
  3
AIGNBL020102E1
  0
POLYLINE
  8
LAYER_2
 40
0.2469
 41
0.2469
 66
1
 10
0
 20
0
 30
0
  0
VERTEX
  8
LAYER_2
 10
67.441
 20
68.1502
 42
0.4142714221
  0
VERTEX
  8
LAYER_2
 10
67.7411
 20
68.4503
  0
SEQEND
  0
ENDBLK
  0
BLOCK
  8
LAYER_2
  2
AIGNBL020102E2
 70
64
 10
0
 20
0
 30
0
  3
AIGNBL020102E2
  0
POLYLINE
  8
LAYER_2
 40
0.2469
 41
0.2469
 66
1
 10
0
 20
0
 30
0
  0
VERTEX
  8
LAYER_2
 10
66.743
 20
68.4503
 42
0.4143793937
  0
VERTEX
  8
LAYER_2
 10
67.5068
 20
68.216
 42
0.1495627785
  0
VERTEX
  8
LAYER_2
 10
67.7411
 20
68.4503
  0
SEQEND
  0
ENDBLK
  0
BLOCK
  8
LAYER_2
  2
AIGNBL020102E3
 70
64
 10
0
 20
0
 30
0
  3
AIGNBL020102E3
  0
POLYLINE
  8
LAYER_2
 40
0.2469
 41
0.2469
 66
1
 10
0
 20
0
 30
0
  0
VERTEX
  8
LAYER_2
 10
65.241
 20
68.1502
 42
0.1497509753
  0
VERTEX
  8
LAYER_2
 10
66.2208
 20
68.4503
  0
SEQEND
  0
ENDBLK
  0
BLOCK
  8
LAYER_2
  2
AIGNBL020102E4
 70
64
 10
0
 20
0
 30
0
  3
AIGNBL020102E4
  0
POLYLINE
  8
LAYER_2
 40
0.2469
 41
0.2469
 66
1
 10
0
 20
0
 30
0
  0
VERTEX
  8
LAYER_2
 10
67.7411
 20
71.8502
 42
0.4142520393
  0
VERTEX
  8
LAYER_2
 10
67.441
 20
72.1503
  0
SEQEND
  0
ENDBLK
  0
BLOCK
  8
LAYER_2
  2
AIGNBL020102E5
 70
64
 10
0
 20
0
 30
0
  3
AIGNBL020102E5
  0
POLYLINE
  8
LAYER_2
 40
0.2469
 41
0.2469
 66
1
 10
0
 20
0
 30
0
  0
VERTEX
  8
LAYER_2
 10
66.2208
 20
71.8502
 42
0.1495404225
  0
VERTEX
  8
LAYER_2
 10
65.241
 20
72.1503
  0
SEQEND
  0
ENDBLK
  0
BLOCK
  8
LAYER_2
  2
AIGNBL020102E6
 70
64
 10
0
 20
0
 30
0
  3
AIGNBL020102E6
  0
POLYLINE
  8
LAYER_2
 40
0.2469
 41
0.2469
 66
1
 10
0
 20
0
 30
0
  0
VERTEX
  8
LAYER_2
 10
67.7411
 20
71.8502
 42
0.414254306
  0
VERTEX
  8
LAYER_2
 10
66.9771
 20
72.0841
 42
0.1501992916
  0
VERTEX
  8
LAYER_2
 10
66.743
 20
71.8502
  0
SEQEND
  0
ENDBLK
  0
BLOCK
  8
LAYER_2
  2
AIGNBL020102E7
 70
64
 10
0
 20
0
 30
0
  3
AIGNBL020102E7
  0
POLYLINE
  8
LAYER_2
 40
0.2469
 41
0.2469
 66
1
 10
0
 20
0
 30
0
  0
VERTEX
  8
LAYER_2
 10
66.2208
 20
64.4005
 42
0.1442822938
  0
VERTEX
  8
LAYER_2
 10
65.241
 20
64.6892
  0
SEQEND
  0
ENDBLK
  0
BLOCK
  8
LAYER_2
  2
AIGNBL020102E8
 70
64
 10
0
 20
0
 30
0
  3
AIGNBL020102E8
  0
POLYLINE
  8
LAYER_2
 40
0.2469
 41
0.2469
 66
1
 10
0
 20
0
 30
0
  0
VERTEX
  8
LAYER_2
 10
67.241
 20
64.6892
 42
0.2691856904
  0
VERTEX
  8
LAYER_2
 10
66.743
 20
64.4005
  0
SEQEND
  0
ENDBLK
  0
BLOCK
  8
LAYER_2
  2
AIGNBL020102E9
 70
64
 10
0
 20
0
 30
0
  3
AIGNBL020102E9
  0
POLYLINE
  8
LAYER_2
 40
0.2469
 41
0.2469
 66
1
 10
0
 20
0
 30
0
  0
VERTEX
  8
LAYER_2
 10
67.241
 20
67.5893
  0
VERTEX
  8
LAYER_2
 10
65.241
 20
67.5893
  0
SEQEND
  0
ENDBLK
  0
BLOCK
  8
LAYER_2
  2
AIGNBL020102EA
 70
64
 10
0
 20
0
 30
0
  3
AIGNBL020102EA
  0
POLYLINE
  8
LAYER_2
 40
0.2469
 41
0.2469
 66
1
 10
0
 20
0
 30
0
  0
VERTEX
  8
LAYER_2
 10
67.241
 20
64.6892
  0
VERTEX
  8
LAYER_2
 10
67.241
 20
68.1502
  0
SEQEND
  0
ENDBLK
  0
BLOCK
  8
LAYER_2
  2
AIGNBL020102EB
 70
64
 10
0
 20
0
 30
0
  3
AIGNBL020102EB
  0
POLYLINE
  8
LAYER_2
 40
0.2469
 41
0.2469
 66
1
 10
0
 20
0
 30
0
  0
VERTEX
  8
LAYER_2
 10
67.241
 20
64.6892
  0
VERTEX
  8
LAYER_2
 10
67.7411
 20
64.4005
  0
SEQEND
  0
ENDBLK
  0
BLOCK
  8
LAYER_2
  2
AIGNBL020102EC
 70
64
 10
0
 20
0
 30
0
  3
AIGNBL020102EC
  0
POLYLINE
  8
LAYER_2
 40
0.2469
 41
0.2469
 66
1
 10
0
 20
0
 30
0
  0
VERTEX
  8
LAYER_2
 10
67.3411
 20
61.7892
  0
VERTEX
  8
LAYER_2
 10
67.7411
 20
62.0203
  0
SEQEND
  0
ENDBLK
  0
BLOCK
  8
LAYER_2
  2
AIGNBL020102ED
 70
64
 10
0
 20
0
 30
0
  3
AIGNBL020102ED
  0
POLYLINE
  8
LAYER_2
 40
0.2469
 41
0.2469
 66
1
 10
0
 20
0
 30
0
  0
VERTEX
  8
LAYER_2
 10
67.3411
 20
61.7892
  0
VERTEX
  8
LAYER_2
 10
65.241
 20
61.7892
  0
SEQEND
  0
ENDBLK
  0
BLOCK
  8
LAYER_2
  2
AIGNBL020102EE
 70
64
 10
0
 20
0
 30
0
  3
AIGNBL020102EE
  0
POLYLINE
  8
LAYER_2
 40
0.2469
 41
0.2469
 66
1
 10
0
 20
0
 30
0
  0
VERTEX
  8
LAYER_2
 10
65.241
 20
64.6892
  0
VERTEX
  8
LAYER_2
 10
67.241
 20
64.6892
  0
SEQEND
  0
ENDBLK
  0
BLOCK
  8
LAYER_2
  2
AIGNBL020102EF
 70
64
 10
0
 20
0
 30
0
  3
AIGNBL020102EF
  0
POLYLINE
  8
LAYER_2
 40
0.2469
 41
0.2469
 66
1
 10
0
 20
0
 30
0
  0
VERTEX
  8
LAYER_2
 10
67.7411
 20
64.4005
  0
VERTEX
  8
LAYER_2
 10
67.7411
 20
62.0203
  0
SEQEND
  0
ENDBLK
  0
BLOCK
  8
LAYER_2
  2
AIGNBL020102F0
 70
64
 10
0
 20
0
 30
0
  3
AIGNBL020102F0
  0
POLYLINE
  8
LAYER_2
 40
0.2469
 41
0.2469
 66
1
 10
0
 20
0
 30
0
  0
VERTEX
  8
LAYER_2
 10
66.743
 20
62.0203
  0
VERTEX
  8
LAYER_2
 10
66.2208
 20
62.0203
  0
SEQEND
  0
ENDBLK
  0
BLOCK
  8
LAYER_2
  2
AIGNBL020102F1
 70
64
 10
0
 20
0
 30
0
  3
AIGNBL020102F1
  0
POLYLINE
  8
LAYER_2
 40
0.2469
 41
0.2469
 66
1
 10
0
 20
0
 30
0
  0
VERTEX
  8
LAYER_2
 10
66.2208
 20
62.0203
  0
VERTEX
  8
LAYER_2
 10
66.2208
 20
64.4005
  0
SEQEND
  0
ENDBLK
  0
BLOCK
  8
LAYER_2
  2
AIGNBL020102F2
 70
64
 10
0
 20
0
 30
0
  3
AIGNBL020102F2
  0
POLYLINE
  8
LAYER_2
 40
0.2469
 41
0.2469
 66
1
 10
0
 20
0
 30
0
  0
VERTEX
  8
LAYER_2
 10
66.2208
 20
64.4005
  0
VERTEX
  8
LAYER_2
 10
66.743
 20
64.4005
  0
SEQEND
  0
ENDBLK
  0
BLOCK
  8
LAYER_2
  2
AIGNBL020102F3
 70
64
 10
0
 20
0
 30
0
  3
AIGNBL020102F3
  0
POLYLINE
  8
LAYER_2
 40
0.2469
 41
0.2469
 66
1
 10
0
 20
0
 30
0
  0
VERTEX
  8
LAYER_2
 10
66.743
 20
64.4005
  0
VERTEX
  8
LAYER_2
 10
66.743
 20
62.0203
  0
SEQEND
  0
ENDBLK
  0
BLOCK
  8
LAYER_2
  2
AIGNBL020102F4
 70
64
 10
0
 20
0
 30
0
  3
AIGNBL020102F4
  0
POLYLINE
  8
LAYER_2
 40
0.127
 41
0.127
 66
1
 10
0
 20
0
 30
0
  0
VERTEX
  8
LAYER_2
 10
67.2412
 20
67.3075
  0
VERTEX
  8
LAYER_2
 10
67.0786
 20
67.5893
  0
SEQEND
  0
ENDBLK
  0
BLOCK
  8
LAYER_2
  2
AIGNBL020102F5
 70
64
 10
0
 20
0
 30
0
  3
AIGNBL020102F5
  0
POLYLINE
  8
LAYER_2
 40
0.127
 41
0.127
 66
1
 10
0
 20
0
 30
0
  0
VERTEX
  8
LAYER_2
 10
67.0786
 20
67.5893
  0
VERTEX
  8
LAYER_2
 10
67.0786
 20
68.1502
  0
SEQEND
  0
ENDBLK
  0
BLOCK
  8
LAYER_2
  2
AIGNBL020102F6
 70
64
 10
0
 20
0
 30
0
  3
AIGNBL020102F6
  0
POLYLINE
  8
LAYER_2
 40
0.2469
 41
0.2469
 66
1
 10
0
 20
0
 30
0
  0
VERTEX
  8
LAYER_2
 10
66.743
 20
62.0203
 42
0.2166154302
  0
VERTEX
  8
LAYER_2
 10
67.2329
 20
61.7892
  0
SEQEND
  0
ENDBLK
  0
BLOCK
  8
LAYER_2
  2
AIGNBL020102F7
 70
64
 10
0
 20
0
 30
0
  3
AIGNBL020102F7
  0
POLYLINE
  8
LAYER_2
 40
0.2469
 41
0.2469
 66
1
 10
0
 20
0
 30
0
  0
VERTEX
  8
LAYER_2
 10
65.241
 20
61.7892
 42
0.1163186645
  0
VERTEX
  8
LAYER_2
 10
66.2208
 20
62.0203
  0
SEQEND
  0
ENDBLK
  0
BLOCK
  8
LAYER_2
  2
AIGNBL020102F8
 70
64
 10
0
 20
0
 30
0
  3
AIGNBL020102F8
  0
POLYLINE
  8
LAYER_2
 40
0.2469
 41
0.2469
 66
1
 10
0
 20
0
 30
0
  0
VERTEX
  8
LAYER_2
 10
103.2989
 20
71.8502
  0
VERTEX
  8
LAYER_2
 10
103.2989
 20
68.4503
  0
SEQEND
  0
ENDBLK
  0
BLOCK
  8
LAYER_2
  2
AIGNBL020102F9
 70
64
 10
0
 20
0
 30
0
  3
AIGNBL020102F9
  0
POLYLINE
  8
LAYER_2
 40
0.2469
 41
0.2469
 66
1
 10
0
 20
0
 30
0
  0
VERTEX
  8
LAYER_2
 10
104.2787
 20
72.1503
  0
VERTEX
  8
LAYER_2
 10
102.079
 20
72.1503
  0
SEQEND
  0
ENDBLK
  0
BLOCK
  8
LAYER_2
  2
AIGNBL020102FA
 70
64
 10
0
 20
0
 30
0
  3
AIGNBL020102FA
  0
POLYLINE
  8
LAYER_2
 40
0.2469
 41
0.2469
 66
1
 10
0
 20
0
 30
0
  0
VERTEX
  8
LAYER_2
 10
102.079
 20
68.1502
  0
VERTEX
  8
LAYER_2
 10
104.2787
 20
68.1502
  0
SEQEND
  0
ENDBLK
  0
BLOCK
  8
LAYER_2
  2
AIGNBL020102FB
 70
64
 10
0
 20
0
 30
0
  3
AIGNBL020102FB
  0
POLYLINE
  8
LAYER_2
 40
0.2469
 41
0.2469
 66
1
 10
0
 20
0
 30
0
  0
VERTEX
  8
LAYER_2
 10
102.777
 20
68.4503
  0
VERTEX
  8
LAYER_2
 10
103.2989
 20
68.4503
  0
SEQEND
  0
ENDBLK
  0
BLOCK
  8
LAYER_2
  2
AIGNBL020102FC
 70
64
 10
0
 20
0
 30
0
  3
AIGNBL020102FC
  0
POLYLINE
  8
LAYER_2
 40
0.2469
 41
0.2469
 66
1
 10
0
 20
0
 30
0
  0
VERTEX
  8
LAYER_2
 10
101.779
 20
71.8502
  0
VERTEX
  8
LAYER_2
 10
101.779
 20
68.4503
  0
SEQEND
  0
ENDBLK
  0
BLOCK
  8
LAYER_2
  2
AIGNBL020102FD
 70
64
 10
0
 20
0
 30
0
  3
AIGNBL020102FD
  0
POLYLINE
  8
LAYER_2
 40
0.2469
 41
0.2469
 66
1
 10
0
 20
0
 30
0
  0
VERTEX
  8
LAYER_2
 10
102.777
 20
71.8502
  0
VERTEX
  8
LAYER_2
 10
102.777
 20
68.4503
  0
SEQEND
  0
ENDBLK
  0
BLOCK
  8
LAYER_2
  2
AIGNBL020102FE
 70
64
 10
0
 20
0
 30
0
  3
AIGNBL020102FE
  0
POLYLINE
  8
LAYER_2
 40
0.2469
 41
0.2469
 66
1
 10
0
 20
0
 30
0
  0
VERTEX
  8
LAYER_2
 10
102.777
 20
71.8502
  0
VERTEX
  8
LAYER_2
 10
103.2989
 20
71.8502
  0
SEQEND
  0
ENDBLK
  0
BLOCK
  8
LAYER_2
  2
AIGNBL020102FF
 70
64
 10
0
 20
0
 30
0
  3
AIGNBL020102FF
  0
POLYLINE
  8
LAYER_2
 40
0.2469
 41
0.2469
 66
1
 10
0
 20
0
 30
0
  0
VERTEX
  8
LAYER_2
 10
101.779
 20
68.4503
 42
0.4142152914
  0
VERTEX
  8
LAYER_2
 10
102.079
 20
68.1502
  0
SEQEND
  0
ENDBLK
  0
BLOCK
  8
LAYER_2
  2
AIGNBL02010300
 70
64
 10
0
 20
0
 30
0
  3
AIGNBL02010300
  0
POLYLINE
  8
LAYER_2
 40
0.2469
 41
0.2469
 66
1
 10
0
 20
0
 30
0
  0
VERTEX
  8
LAYER_2
 10
101.779
 20
68.4503
 42
0.4145369055
  0
VERTEX
  8
LAYER_2
 10
102.5428
 20
68.216
 42
0.1493456601
  0
VERTEX
  8
LAYER_2
 10
102.777
 20
68.4503
  0
SEQEND
  0
ENDBLK
  0
BLOCK
  8
LAYER_2
  2
AIGNBL02010301
 70
64
 10
0
 20
0
 30
0
  3
AIGNBL02010301
  0
POLYLINE
  8
LAYER_2
 40
0.2469
 41
0.2469
 66
1
 10
0
 20
0
 30
0
  0
VERTEX
  8
LAYER_2
 10
103.2989
 20
68.4503
 42
0.1497506492
  0
VERTEX
  8
LAYER_2
 10
104.2787
 20
68.1502
  0
SEQEND
  0
ENDBLK
  0
BLOCK
  8
LAYER_2
  2
AIGNBL02010302
 70
64
 10
0
 20
0
 30
0
  3
AIGNBL02010302
  0
POLYLINE
  8
LAYER_2
 40
0.2469
 41
0.2469
 66
1
 10
0
 20
0
 30
0
  0
VERTEX
  8
LAYER_2
 10
102.079
 20
72.1503
 42
0.4141959104
  0
VERTEX
  8
LAYER_2
 10
101.779
 20
71.8502
  0
SEQEND
  0
ENDBLK
  0
BLOCK
  8
LAYER_2
  2
AIGNBL02010303
 70
64
 10
0
 20
0
 30
0
  3
AIGNBL02010303
  0
POLYLINE
  8
LAYER_2
 40
0.2469
 41
0.2469
 66
1
 10
0
 20
0
 30
0
  0
VERTEX
  8
LAYER_2
 10
104.2787
 20
72.1503
 42
0.1495400981
  0
VERTEX
  8
LAYER_2
 10
103.2989
 20
71.8502
  0
SEQEND
  0
ENDBLK
  0
BLOCK
  8
LAYER_2
  2
AIGNBL02010304
 70
64
 10
0
 20
0
 30
0
  3
AIGNBL02010304
  0
POLYLINE
  8
LAYER_2
 40
0.2469
 41
0.2469
 66
1
 10
0
 20
0
 30
0
  0
VERTEX
  8
LAYER_2
 10
102.777
 20
71.8502
 42
0.4142281056
  0
VERTEX
  8
LAYER_2
 10
102.0129
 20
72.0841
 42
0.1503635213
  0
VERTEX
  8
LAYER_2
 10
101.779
 20
71.8502
  0
SEQEND
  0
ENDBLK
  0
BLOCK
  8
LAYER_2
  2
AIGNBL02010305
 70
64
 10
0
 20
0
 30
0
  3
AIGNBL02010305
  0
POLYLINE
  8
LAYER_2
 40
0.2469
 41
0.2469
 66
1
 10
0
 20
0
 30
0
  0
VERTEX
  8
LAYER_2
 10
104.2787
 20
64.6892
 42
0.1442134271
  0
VERTEX
  8
LAYER_2
 10
103.2989
 20
64.4005
  0
SEQEND
  0
ENDBLK
  0
BLOCK
  8
LAYER_2
  2
AIGNBL02010306
 70
64
 10
0
 20
0
 30
0
  3
AIGNBL02010306
  0
POLYLINE
  8
LAYER_2
 40
0.2469
 41
0.2469
 66
1
 10
0
 20
0
 30
0
  0
VERTEX
  8
LAYER_2
 10
102.777
 20
64.4005
 42
0.2689708046
  0
VERTEX
  8
LAYER_2
 10
102.2789
 20
64.6892
  0
SEQEND
  0
ENDBLK
  0
BLOCK
  8
LAYER_2
  2
AIGNBL02010307
 70
64
 10
0
 20
0
 30
0
  3
AIGNBL02010307
  0
POLYLINE
  8
LAYER_2
 40
0.2469
 41
0.2469
 66
1
 10
0
 20
0
 30
0
  0
VERTEX
  8
LAYER_2
 10
102.2789
 20
67.5893
  0
VERTEX
  8
LAYER_2
 10
104.2787
 20
67.5893
  0
SEQEND
  0
ENDBLK
  0
BLOCK
  8
LAYER_2
  2
AIGNBL02010308
 70
64
 10
0
 20
0
 30
0
  3
AIGNBL02010308
  0
POLYLINE
  8
LAYER_2
 40
0.2469
 41
0.2469
 66
1
 10
0
 20
0
 30
0
  0
VERTEX
  8
LAYER_2
 10
102.2789
 20
64.6892
  0
VERTEX
  8
LAYER_2
 10
102.2789
 20
68.1502
  0
SEQEND
  0
ENDBLK
  0
BLOCK
  8
LAYER_2
  2
AIGNBL02010309
 70
64
 10
0
 20
0
 30
0
  3
AIGNBL02010309
  0
POLYLINE
  8
LAYER_2
 40
0.2469
 41
0.2469
 66
1
 10
0
 20
0
 30
0
  0
VERTEX
  8
LAYER_2
 10
102.2789
 20
64.6892
  0
VERTEX
  8
LAYER_2
 10
101.779
 20
64.4005
  0
SEQEND
  0
ENDBLK
  0
BLOCK
  8
LAYER_2
  2
AIGNBL0201030A
 70
64
 10
0
 20
0
 30
0
  3
AIGNBL0201030A
  0
POLYLINE
  8
LAYER_2
 40
0.2469
 41
0.2469
 66
1
 10
0
 20
0
 30
0
  0
VERTEX
  8
LAYER_2
 10
102.1789
 20
61.7892
  0
VERTEX
  8
LAYER_2
 10
101.779
 20
62.0203
  0
SEQEND
  0
ENDBLK
  0
BLOCK
  8
LAYER_2
  2
AIGNBL0201030B
 70
64
 10
0
 20
0
 30
0
  3
AIGNBL0201030B
  0
POLYLINE
  8
LAYER_2
 40
0.2469
 41
0.2469
 66
1
 10
0
 20
0
 30
0
  0
VERTEX
  8
LAYER_2
 10
102.1789
 20
61.7892
  0
VERTEX
  8
LAYER_2
 10
104.2787
 20
61.7892
  0
SEQEND
  0
ENDBLK
  0
BLOCK
  8
LAYER_2
  2
AIGNBL0201030C
 70
64
 10
0
 20
0
 30
0
  3
AIGNBL0201030C
  0
POLYLINE
  8
LAYER_2
 40
0.2469
 41
0.2469
 66
1
 10
0
 20
0
 30
0
  0
VERTEX
  8
LAYER_2
 10
104.2787
 20
64.6892
  0
VERTEX
  8
LAYER_2
 10
102.2789
 20
64.6892
  0
SEQEND
  0
ENDBLK
  0
BLOCK
  8
LAYER_2
  2
AIGNBL0201030D
 70
64
 10
0
 20
0
 30
0
  3
AIGNBL0201030D
  0
POLYLINE
  8
LAYER_2
 40
0.2469
 41
0.2469
 66
1
 10
0
 20
0
 30
0
  0
VERTEX
  8
LAYER_2
 10
101.779
 20
64.4005
  0
VERTEX
  8
LAYER_2
 10
101.779
 20
62.0203
  0
SEQEND
  0
ENDBLK
  0
BLOCK
  8
LAYER_2
  2
AIGNBL0201030E
 70
64
 10
0
 20
0
 30
0
  3
AIGNBL0201030E
  0
POLYLINE
  8
LAYER_2
 40
0.2469
 41
0.2469
 66
1
 10
0
 20
0
 30
0
  0
VERTEX
  8
LAYER_2
 10
102.777
 20
62.0203
  0
VERTEX
  8
LAYER_2
 10
103.2989
 20
62.0203
  0
SEQEND
  0
ENDBLK
  0
BLOCK
  8
LAYER_2
  2
AIGNBL0201030F
 70
64
 10
0
 20
0
 30
0
  3
AIGNBL0201030F
  0
POLYLINE
  8
LAYER_2
 40
0.2469
 41
0.2469
 66
1
 10
0
 20
0
 30
0
  0
VERTEX
  8
LAYER_2
 10
103.2989
 20
62.0203
  0
VERTEX
  8
LAYER_2
 10
103.2989
 20
64.4005
  0
SEQEND
  0
ENDBLK
  0
BLOCK
  8
LAYER_2
  2
AIGNBL02010310
 70
64
 10
0
 20
0
 30
0
  3
AIGNBL02010310
  0
POLYLINE
  8
LAYER_2
 40
0.2469
 41
0.2469
 66
1
 10
0
 20
0
 30
0
  0
VERTEX
  8
LAYER_2
 10
103.2989
 20
64.4005
  0
VERTEX
  8
LAYER_2
 10
102.777
 20
64.4005
  0
SEQEND
  0
ENDBLK
  0
BLOCK
  8
LAYER_2
  2
AIGNBL02010311
 70
64
 10
0
 20
0
 30
0
  3
AIGNBL02010311
  0
POLYLINE
  8
LAYER_2
 40
0.2469
 41
0.2469
 66
1
 10
0
 20
0
 30
0
  0
VERTEX
  8
LAYER_2
 10
102.777
 20
64.4005
  0
VERTEX
  8
LAYER_2
 10
102.777
 20
62.0203
  0
SEQEND
  0
ENDBLK
  0
BLOCK
  8
LAYER_2
  2
AIGNBL02010312
 70
64
 10
0
 20
0
 30
0
  3
AIGNBL02010312
  0
POLYLINE
  8
LAYER_2
 40
0.127
 41
0.127
 66
1
 10
0
 20
0
 30
0
  0
VERTEX
  8
LAYER_2
 10
102.2785
 20
67.3075
  0
VERTEX
  8
LAYER_2
 10
102.4411
 20
67.5893
  0
SEQEND
  0
ENDBLK
  0
BLOCK
  8
LAYER_2
  2
AIGNBL02010313
 70
64
 10
0
 20
0
 30
0
  3
AIGNBL02010313
  0
POLYLINE
  8
LAYER_2
 40
0.127
 41
0.127
 66
1
 10
0
 20
0
 30
0
  0
VERTEX
  8
LAYER_2
 10
102.4411
 20
67.5893
  0
VERTEX
  8
LAYER_2
 10
102.4411
 20
68.1502
  0
SEQEND
  0
ENDBLK
  0
BLOCK
  8
LAYER_2
  2
AIGNBL02010314
 70
64
 10
0
 20
0
 30
0
  3
AIGNBL02010314
  0
POLYLINE
  8
LAYER_2
 40
0.2469
 41
0.2469
 66
1
 10
0
 20
0
 30
0
  0
VERTEX
  8
LAYER_2
 10
102.2871
 20
61.7892
 42
0.2166166081
  0
VERTEX
  8
LAYER_2
 10
102.777
 20
62.0203
  0
SEQEND
  0
ENDBLK
  0
BLOCK
  8
LAYER_2
  2
AIGNBL02010315
 70
64
 10
0
 20
0
 30
0
  3
AIGNBL02010315
  0
POLYLINE
  8
LAYER_2
 40
0.2469
 41
0.2469
 66
1
 10
0
 20
0
 30
0
  0
VERTEX
  8
LAYER_2
 10
103.2989
 20
62.0203
 42
0.1162039106
  0
VERTEX
  8
LAYER_2
 10
104.2787
 20
61.7892
  0
SEQEND
  0
ENDBLK
  0
BLOCK
  8
LAYER_2
  2
AIGNBL02010316
 70
64
 10
0
 20
0
 30
0
  3
AIGNBL02010316
  0
POLYLINE
  8
LAYER_2
 40
0.2469
 41
0.2469
 66
1
 10
0
 20
0
 30
0
  0
VERTEX
  8
LAYER_2
 10
105.2585
 20
71.8502
  0
VERTEX
  8
LAYER_2
 10
105.2585
 20
68.4503
  0
SEQEND
  0
ENDBLK
  0
BLOCK
  8
LAYER_2
  2
AIGNBL02010317
 70
64
 10
0
 20
0
 30
0
  3
AIGNBL02010317
  0
POLYLINE
  8
LAYER_2
 40
0.2469
 41
0.2469
 66
1
 10
0
 20
0
 30
0
  0
VERTEX
  8
LAYER_2
 10
104.2787
 20
72.1503
  0
VERTEX
  8
LAYER_2
 10
106.4788
 20
72.1503
  0
SEQEND
  0
ENDBLK
  0
BLOCK
  8
LAYER_2
  2
AIGNBL02010318
 70
64
 10
0
 20
0
 30
0
  3
AIGNBL02010318
  0
POLYLINE
  8
LAYER_2
 40
0.2469
 41
0.2469
 66
1
 10
0
 20
0
 30
0
  0
VERTEX
  8
LAYER_2
 10
106.4788
 20
68.1502
  0
VERTEX
  8
LAYER_2
 10
104.2787
 20
68.1502
  0
SEQEND
  0
ENDBLK
  0
BLOCK
  8
LAYER_2
  2
AIGNBL02010319
 70
64
 10
0
 20
0
 30
0
  3
AIGNBL02010319
  0
POLYLINE
  8
LAYER_2
 40
0.2469
 41
0.2469
 66
1
 10
0
 20
0
 30
0
  0
VERTEX
  8
LAYER_2
 10
105.7808
 20
68.4503
  0
VERTEX
  8
LAYER_2
 10
105.2585
 20
68.4503
  0
SEQEND
  0
ENDBLK
  0
BLOCK
  8
LAYER_2
  2
AIGNBL0201031A
 70
64
 10
0
 20
0
 30
0
  3
AIGNBL0201031A
  0
POLYLINE
  8
LAYER_2
 40
0.2469
 41
0.2469
 66
1
 10
0
 20
0
 30
0
  0
VERTEX
  8
LAYER_2
 10
106.7788
 20
71.8502
  0
VERTEX
  8
LAYER_2
 10
106.7788
 20
68.4503
  0
SEQEND
  0
ENDBLK
  0
BLOCK
  8
LAYER_2
  2
AIGNBL0201031B
 70
64
 10
0
 20
0
 30
0
  3
AIGNBL0201031B
  0
POLYLINE
  8
LAYER_2
 40
0.2469
 41
0.2469
 66
1
 10
0
 20
0
 30
0
  0
VERTEX
  8
LAYER_2
 10
105.7808
 20
71.8502
  0
VERTEX
  8
LAYER_2
 10
105.7808
 20
68.4503
  0
SEQEND
  0
ENDBLK
  0
BLOCK
  8
LAYER_2
  2
AIGNBL0201031C
 70
64
 10
0
 20
0
 30
0
  3
AIGNBL0201031C
  0
POLYLINE
  8
LAYER_2
 40
0.2469
 41
0.2469
 66
1
 10
0
 20
0
 30
0
  0
VERTEX
  8
LAYER_2
 10
105.7808
 20
71.8502
  0
VERTEX
  8
LAYER_2
 10
105.2585
 20
71.8502
  0
SEQEND
  0
ENDBLK
  0
BLOCK
  8
LAYER_2
  2
AIGNBL0201031D
 70
64
 10
0
 20
0
 30
0
  3
AIGNBL0201031D
  0
POLYLINE
  8
LAYER_2
 40
0.2469
 41
0.2469
 66
1
 10
0
 20
0
 30
0
  0
VERTEX
  8
LAYER_2
 10
106.4788
 20
68.1502
 42
0.4142274945
  0
VERTEX
  8
LAYER_2
 10
106.7788
 20
68.4503
  0
SEQEND
  0
ENDBLK
  0
BLOCK
  8
LAYER_2
  2
AIGNBL0201031E
 70
64
 10
0
 20
0
 30
0
  3
AIGNBL0201031E
  0
POLYLINE
  8
LAYER_2
 40
0.2469
 41
0.2469
 66
1
 10
0
 20
0
 30
0
  0
VERTEX
  8
LAYER_2
 10
105.7808
 20
68.4503
 42
0.4142258559
  0
VERTEX
  8
LAYER_2
 10
106.5449
 20
68.216
 42
0.150056279
  0
VERTEX
  8
LAYER_2
 10
106.7788
 20
68.4503
  0
SEQEND
  0
ENDBLK
  0
BLOCK
  8
LAYER_2
  2
AIGNBL0201031F
 70
64
 10
0
 20
0
 30
0
  3
AIGNBL0201031F
  0
POLYLINE
  8
LAYER_2
 40
0.2469
 41
0.2469
 66
1
 10
0
 20
0
 30
0
  0
VERTEX
  8
LAYER_2
 10
104.2787
 20
68.1502
 42
0.149893682
  0
VERTEX
  8
LAYER_2
 10
105.2585
 20
68.4503
  0
SEQEND
  0
ENDBLK
  0
BLOCK
  8
LAYER_2
  2
AIGNBL02010320
 70
64
 10
0
 20
0
 30
0
  3
AIGNBL02010320
  0
POLYLINE
  8
LAYER_2
 40
0.2469
 41
0.2469
 66
1
 10
0
 20
0
 30
0
  0
VERTEX
  8
LAYER_2
 10
106.7788
 20
71.8502
 42
0.4142081117
  0
VERTEX
  8
LAYER_2
 10
106.4788
 20
72.1503
  0
SEQEND
  0
ENDBLK
  0
BLOCK
  8
LAYER_2
  2
AIGNBL02010321
 70
64
 10
0
 20
0
 30
0
  3
AIGNBL02010321
  0
POLYLINE
  8
LAYER_2
 40
0.2469
 41
0.2469
 66
1
 10
0
 20
0
 30
0
  0
VERTEX
  8
LAYER_2
 10
105.2585
 20
71.8502
 42
0.1496830175
  0
VERTEX
  8
LAYER_2
 10
104.2787
 20
72.1503
  0
SEQEND
  0
ENDBLK
  0
BLOCK
  8
LAYER_2
  2
AIGNBL02010322
 70
64
 10
0
 20
0
 30
0
  3
AIGNBL02010322
  0
POLYLINE
  8
LAYER_2
 40
0.2469
 41
0.2469
 66
1
 10
0
 20
0
 30
0
  0
VERTEX
  8
LAYER_2
 10
106.7788
 20
71.8502
 42
0.4142076191
  0
VERTEX
  8
LAYER_2
 10
106.0151
 20
72.0841
 42
0.1500563254
  0
VERTEX
  8
LAYER_2
 10
105.7808
 20
71.8502
  0
SEQEND
  0
ENDBLK
  0
BLOCK
  8
LAYER_2
  2
AIGNBL02010323
 70
64
 10
0
 20
0
 30
0
  3
AIGNBL02010323
  0
POLYLINE
  8
LAYER_2
 40
0.2469
 41
0.2469
 66
1
 10
0
 20
0
 30
0
  0
VERTEX
  8
LAYER_2
 10
105.2585
 20
64.4005
 42
0.1443521698
  0
VERTEX
  8
LAYER_2
 10
104.2787
 20
64.6892
  0
SEQEND
  0
ENDBLK
  0
BLOCK
  8
LAYER_2
  2
AIGNBL02010324
 70
64
 10
0
 20
0
 30
0
  3
AIGNBL02010324
  0
POLYLINE
  8
LAYER_2
 40
0.2469
 41
0.2469
 66
1
 10
0
 20
0
 30
0
  0
VERTEX
  8
LAYER_2
 10
106.279
 20
64.6892
 42
0.2690145911
  0
VERTEX
  8
LAYER_2
 10
105.7808
 20
64.4005
  0
SEQEND
  0
ENDBLK
  0
BLOCK
  8
LAYER_2
  2
AIGNBL02010325
 70
64
 10
0
 20
0
 30
0
  3
AIGNBL02010325
  0
POLYLINE
  8
LAYER_2
 40
0.2469
 41
0.2469
 66
1
 10
0
 20
0
 30
0
  0
VERTEX
  8
LAYER_2
 10
106.279
 20
67.5893
  0
VERTEX
  8
LAYER_2
 10
104.2787
 20
67.5893
  0
SEQEND
  0
ENDBLK
  0
BLOCK
  8
LAYER_2
  2
AIGNBL02010326
 70
64
 10
0
 20
0
 30
0
  3
AIGNBL02010326
  0
POLYLINE
  8
LAYER_2
 40
0.2469
 41
0.2469
 66
1
 10
0
 20
0
 30
0
  0
VERTEX
  8
LAYER_2
 10
106.279
 20
64.6892
  0
VERTEX
  8
LAYER_2
 10
106.279
 20
68.1502
  0
SEQEND
  0
ENDBLK
  0
BLOCK
  8
LAYER_2
  2
AIGNBL02010327
 70
64
 10
0
 20
0
 30
0
  3
AIGNBL02010327
  0
POLYLINE
  8
LAYER_2
 40
0.2469
 41
0.2469
 66
1
 10
0
 20
0
 30
0
  0
VERTEX
  8
LAYER_2
 10
106.279
 20
64.6892
  0
VERTEX
  8
LAYER_2
 10
106.7788
 20
64.4005
  0
SEQEND
  0
ENDBLK
  0
BLOCK
  8
LAYER_2
  2
AIGNBL02010328
 70
64
 10
0
 20
0
 30
0
  3
AIGNBL02010328
  0
POLYLINE
  8
LAYER_2
 40
0.2469
 41
0.2469
 66
1
 10
0
 20
0
 30
0
  0
VERTEX
  8
LAYER_2
 10
106.3789
 20
61.7892
  0
VERTEX
  8
LAYER_2
 10
106.7788
 20
62.0203
  0
SEQEND
  0
ENDBLK
  0
BLOCK
  8
LAYER_2
  2
AIGNBL02010329
 70
64
 10
0
 20
0
 30
0
  3
AIGNBL02010329
  0
POLYLINE
  8
LAYER_2
 40
0.2469
 41
0.2469
 66
1
 10
0
 20
0
 30
0
  0
VERTEX
  8
LAYER_2
 10
106.3789
 20
61.7892
  0
VERTEX
  8
LAYER_2
 10
104.2787
 20
61.7892
  0
SEQEND
  0
ENDBLK
  0
BLOCK
  8
LAYER_2
  2
AIGNBL0201032A
 70
64
 10
0
 20
0
 30
0
  3
AIGNBL0201032A
  0
POLYLINE
  8
LAYER_2
 40
0.2469
 41
0.2469
 66
1
 10
0
 20
0
 30
0
  0
VERTEX
  8
LAYER_2
 10
104.2787
 20
64.6892
  0
VERTEX
  8
LAYER_2
 10
106.279
 20
64.6892
  0
SEQEND
  0
ENDBLK
  0
BLOCK
  8
LAYER_2
  2
AIGNBL0201032B
 70
64
 10
0
 20
0
 30
0
  3
AIGNBL0201032B
  0
POLYLINE
  8
LAYER_2
 40
0.2469
 41
0.2469
 66
1
 10
0
 20
0
 30
0
  0
VERTEX
  8
LAYER_2
 10
106.7788
 20
64.4005
  0
VERTEX
  8
LAYER_2
 10
106.7788
 20
62.0203
  0
SEQEND
  0
ENDBLK
  0
BLOCK
  8
LAYER_2
  2
AIGNBL0201032C
 70
64
 10
0
 20
0
 30
0
  3
AIGNBL0201032C
  0
POLYLINE
  8
LAYER_2
 40
0.2469
 41
0.2469
 66
1
 10
0
 20
0
 30
0
  0
VERTEX
  8
LAYER_2
 10
105.7808
 20
62.0203
  0
VERTEX
  8
LAYER_2
 10
105.2585
 20
62.0203
  0
SEQEND
  0
ENDBLK
  0
BLOCK
  8
LAYER_2
  2
AIGNBL0201032D
 70
64
 10
0
 20
0
 30
0
  3
AIGNBL0201032D
  0
POLYLINE
  8
LAYER_2
 40
0.2469
 41
0.2469
 66
1
 10
0
 20
0
 30
0
  0
VERTEX
  8
LAYER_2
 10
105.2585
 20
62.0203
  0
VERTEX
  8
LAYER_2
 10
105.2585
 20
64.4005
  0
SEQEND
  0
ENDBLK
  0
BLOCK
  8
LAYER_2
  2
AIGNBL0201032E
 70
64
 10
0
 20
0
 30
0
  3
AIGNBL0201032E
  0
POLYLINE
  8
LAYER_2
 40
0.2469
 41
0.2469
 66
1
 10
0
 20
0
 30
0
  0
VERTEX
  8
LAYER_2
 10
105.2585
 20
64.4005
  0
VERTEX
  8
LAYER_2
 10
105.7808
 20
64.4005
  0
SEQEND
  0
ENDBLK
  0
BLOCK
  8
LAYER_2
  2
AIGNBL0201032F
 70
64
 10
0
 20
0
 30
0
  3
AIGNBL0201032F
  0
POLYLINE
  8
LAYER_2
 40
0.2469
 41
0.2469
 66
1
 10
0
 20
0
 30
0
  0
VERTEX
  8
LAYER_2
 10
105.7808
 20
64.4005
  0
VERTEX
  8
LAYER_2
 10
105.7808
 20
62.0203
  0
SEQEND
  0
ENDBLK
  0
BLOCK
  8
LAYER_2
  2
AIGNBL02010330
 70
64
 10
0
 20
0
 30
0
  3
AIGNBL02010330
  0
POLYLINE
  8
LAYER_2
 40
0.127
 41
0.127
 66
1
 10
0
 20
0
 30
0
  0
VERTEX
  8
LAYER_2
 10
106.279
 20
67.3075
  0
VERTEX
  8
LAYER_2
 10
106.1163
 20
67.5893
  0
SEQEND
  0
ENDBLK
  0
BLOCK
  8
LAYER_2
  2
AIGNBL02010331
 70
64
 10
0
 20
0
 30
0
  3
AIGNBL02010331
  0
POLYLINE
  8
LAYER_2
 40
0.127
 41
0.127
 66
1
 10
0
 20
0
 30
0
  0
VERTEX
  8
LAYER_2
 10
106.1163
 20
67.5893
  0
VERTEX
  8
LAYER_2
 10
106.1163
 20
68.1502
  0
SEQEND
  0
ENDBLK
  0
BLOCK
  8
LAYER_2
  2
AIGNBL02010332
 70
64
 10
0
 20
0
 30
0
  3
AIGNBL02010332
  0
POLYLINE
  8
LAYER_2
 40
0.2469
 41
0.2469
 66
1
 10
0
 20
0
 30
0
  0
VERTEX
  8
LAYER_2
 10
105.7808
 20
62.0203
 42
0.2166148398
  0
VERTEX
  8
LAYER_2
 10
106.2707
 20
61.7892
  0
SEQEND
  0
ENDBLK
  0
BLOCK
  8
LAYER_2
  2
AIGNBL02010333
 70
64
 10
0
 20
0
 30
0
  3
AIGNBL02010333
  0
POLYLINE
  8
LAYER_2
 40
0.2469
 41
0.2469
 66
1
 10
0
 20
0
 30
0
  0
VERTEX
  8
LAYER_2
 10
104.2787
 20
61.7892
 42
0.1163193339
  0
VERTEX
  8
LAYER_2
 10
105.2585
 20
62.0203
  0
SEQEND
  0
ENDBLK
  0
BLOCK
  8
LAYER_2
  2
AIGNBL02010334
 70
64
 10
0
 20
0
 30
0
  3
AIGNBL02010334
  0
POLYLINE
  8
LAYER_2
 40
0.127
 41
0.127
 66
1
 10
0
 20
0
 30
0
  0
VERTEX
  8
LAYER_2
 10
174.0752
 20
67.2166
  0
VERTEX
  8
LAYER_2
 10
173.9126
 20
67.4984
  0
SEQEND
  0
ENDBLK
  0
BLOCK
  8
LAYER_2
  2
AIGNBL02010335
 70
64
 10
0
 20
0
 30
0
  3
AIGNBL02010335
  0
POLYLINE
  8
LAYER_2
 40
0.2469
 41
0.2469
 66
1
 10
0
 20
0
 30
0
  0
VERTEX
  8
LAYER_2
 10
174.0745
 20
64.6892
  0
VERTEX
  8
LAYER_2
 10
174.0745
 20
68.1502
  0
SEQEND
  0
ENDBLK
  0
BLOCK
  8
LAYER_2
  2
AIGNBL02010336
 70
64
 10
0
 20
0
 30
0
  3
AIGNBL02010336
  0
POLYLINE
  8
LAYER_2
 40
0.127
 41
0.127
 66
1
 10
0
 20
0
 30
0
  0
VERTEX
  8
LAYER_2
 10
173.9126
 20
67.4984
  0
VERTEX
  8
LAYER_2
 10
173.9126
 20
68.1502
  0
SEQEND
  0
ENDBLK
  0
BLOCK
  8
LAYER_2
  2
AIGNBL02010337
 70
64
 10
0
 20
0
 30
0
  3
AIGNBL02010337
  0
POLYLINE
  8
LAYER_2
 40
0.2469
 41
0.2469
 66
1
 10
0
 20
0
 30
0
  0
VERTEX
  8
LAYER_2
 10
174.0793
 20
67.4984
  0
VERTEX
  8
LAYER_2
 10
172.0749
 20
67.4984
  0
SEQEND
  0
ENDBLK
  0
BLOCK
  8
LAYER_2
  2
AIGNBL02010338
 70
64
 10
0
 20
0
 30
0
  3
AIGNBL02010338
  0
POLYLINE
  8
LAYER_2
 40
0.127
 41
0.127
 66
1
 10
0
 20
0
 30
0
  0
VERTEX
  8
LAYER_2
 10
170.2373
 20
67.4984
  0
VERTEX
  8
LAYER_2
 10
170.2373
 20
68.1502
  0
SEQEND
  0
ENDBLK
  0
BLOCK
  8
LAYER_2
  2
AIGNBL02010339
 70
64
 10
0
 20
0
 30
0
  3
AIGNBL02010339
  0
POLYLINE
  8
LAYER_2
 40
0.127
 41
0.127
 66
1
 10
0
 20
0
 30
0
  0
VERTEX
  8
LAYER_2
 10
170.0747
 20
67.2166
  0
VERTEX
  8
LAYER_2
 10
170.2373
 20
67.4984
  0
SEQEND
  0
ENDBLK
  0
BLOCK
  8
LAYER_2
  2
AIGNBL0201033A
 70
64
 10
0
 20
0
 30
0
  3
AIGNBL0201033A
  0
POLYLINE
  8
LAYER_2
 40
0.2469
 41
0.2469
 66
1
 10
0
 20
0
 30
0
  0
VERTEX
  8
LAYER_2
 10
170.0747
 20
64.6892
  0
VERTEX
  8
LAYER_2
 10
170.0747
 20
68.1502
  0
SEQEND
  0
ENDBLK
  0
BLOCK
  8
LAYER_2
  2
AIGNBL0201033B
 70
64
 10
0
 20
0
 30
0
  3
AIGNBL0201033B
  0
POLYLINE
  8
LAYER_2
 40
0.2469
 41
0.2469
 66
1
 10
0
 20
0
 30
0
  0
VERTEX
  8
LAYER_2
 10
170.0699
 20
67.4984
  0
VERTEX
  8
LAYER_2
 10
172.0749
 20
67.4984
  0
SEQEND
  0
ENDBLK
  0
BLOCK
  8
LAYER_2
  2
AIGNBL0201033C
 70
64
 10
0
 20
0
 30
0
  3
AIGNBL0201033C
  0
POLYLINE
  8
LAYER_2
 40
0.1482
 41
0.1482
 66
1
 10
0
 20
0
 30
0
  0
VERTEX
  8
LAYER_2
 10
170.9222
 20
64.6892
  0
VERTEX
  8
LAYER_2
 10
173.2222
 20
64.6892
  0
SEQEND
  0
ENDBLK
  0
BLOCK
  8
LAYER_2
  2
AIGNBL0201033D
 70
64
 10
0
 20
0
 30
0
  3
AIGNBL0201033D
  0
POLYLINE
  8
LAYER_2
 40
0.1482
 41
0.1482
 66
1
 10
0
 20
0
 30
0
  0
VERTEX
  8
LAYER_2
 10
173.2222
 20
64.6892
 42
0.06467171426
  0
VERTEX
  8
LAYER_2
 10
172.9913
 20
64.6586
  0
VERTEX
  8
LAYER_2
 10
172.8797
 20
64.6217
  0
VERTEX
  8
LAYER_2
 10
172.7702
 20
64.5721
 42
0.06680966039
  0
VERTEX
  8
LAYER_2
 10
172.374
 20
64.2893
  0
SEQEND
  0
ENDBLK
  0
BLOCK
  8
LAYER_2
  2
AIGNBL0201033E
 70
64
 10
0
 20
0
 30
0
  3
AIGNBL0201033E
  0
POLYLINE
  8
LAYER_2
 40
0.1482
 41
0.1482
 66
1
 10
0
 20
0
 30
0
  0
VERTEX
  8
LAYER_2
 10
172.374
 20
64.2893
  0
VERTEX
  8
LAYER_2
 10
171.7711
 20
64.2893
  0
SEQEND
  0
ENDBLK
  0
BLOCK
  8
LAYER_2
  2
AIGNBL0201033F
 70
64
 10
0
 20
0
 30
0
  3
AIGNBL0201033F
  0
POLYLINE
  8
LAYER_2
 40
0.1482
 41
0.1482
 66
1
 10
0
 20
0
 30
0
  0
VERTEX
  8
LAYER_2
 10
171.7711
 20
64.2893
 42
0.06749195556
  0
VERTEX
  8
LAYER_2
 10
171.3749
 20
64.5721
  0
VERTEX
  8
LAYER_2
 10
171.2653
 20
64.6217
  0
VERTEX
  8
LAYER_2
 10
171.1537
 20
64.6586
 42
0.06559930154
  0
VERTEX
  8
LAYER_2
 10
170.9222
 20
64.6892
  0
SEQEND
  0
ENDBLK
  0
BLOCK
  8
LAYER_2
  2
AIGNBL02010340
 70
64
 10
0
 20
0
 30
0
  3
AIGNBL02010340
  0
POLYLINE
  8
LAYER_2
 40
0.1482
 41
0.1482
 66
1
 10
0
 20
0
 30
0
  0
VERTEX
  8
LAYER_2
 10
171.7711
 20
64.2893
  0
VERTEX
  8
LAYER_2
 10
171.7711
 20
63.0893
  0
SEQEND
  0
ENDBLK
  0
BLOCK
  8
LAYER_2
  2
AIGNBL02010341
 70
64
 10
0
 20
0
 30
0
  3
AIGNBL02010341
  0
POLYLINE
  8
LAYER_2
 40
0.1482
 41
0.1482
 66
1
 10
0
 20
0
 30
0
  0
VERTEX
  8
LAYER_2
 10
172.374
 20
64.2893
  0
VERTEX
  8
LAYER_2
 10
172.374
 20
63.0893
  0
SEQEND
  0
ENDBLK
  0
BLOCK
  8
LAYER_2
  2
AIGNBL02010342
 70
64
 10
0
 20
0
 30
0
  3
AIGNBL02010342
  0
POLYLINE
  8
LAYER_2
 40
0.1482
 41
0.1482
 66
1
 10
0
 20
0
 30
0
  0
VERTEX
  8
LAYER_2
 10
170.074
 20
64.2893
  0
VERTEX
  8
LAYER_2
 10
170.074
 20
63.0893
  0
SEQEND
  0
ENDBLK
  0
BLOCK
  8
LAYER_2
  2
AIGNBL02010343
 70
64
 10
0
 20
0
 30
0
  3
AIGNBL02010343
  0
POLYLINE
  8
LAYER_2
 40
0.1482
 41
0.1482
 66
1
 10
0
 20
0
 30
0
  0
VERTEX
  8
LAYER_2
 10
170.9222
 20
64.6892
 42
0.06464549642
  0
VERTEX
  8
LAYER_2
 10
170.6914
 20
64.6586
  0
VERTEX
  8
LAYER_2
 10
170.5798
 20
64.6217
  0
VERTEX
  8
LAYER_2
 10
170.4702
 20
64.5721
 42
0.06663123177
  0
VERTEX
  8
LAYER_2
 10
170.074
 20
64.2893
  0
SEQEND
  0
ENDBLK
  0
BLOCK
  8
LAYER_2
  2
AIGNBL02010344
 70
64
 10
0
 20
0
 30
0
  3
AIGNBL02010344
  0
POLYLINE
  8
LAYER_2
 40
0.1482
 41
0.1482
 66
1
 10
0
 20
0
 30
0
  0
VERTEX
  8
LAYER_2
 10
174.071
 20
64.2893
  0
VERTEX
  8
LAYER_2
 10
174.071
 20
63.0893
  0
SEQEND
  0
ENDBLK
  0
BLOCK
  8
LAYER_2
  2
AIGNBL02010345
 70
64
 10
0
 20
0
 30
0
  3
AIGNBL02010345
  0
POLYLINE
  8
LAYER_2
 40
0.1482
 41
0.1482
 66
1
 10
0
 20
0
 30
0
  0
VERTEX
  8
LAYER_2
 10
174.071
 20
64.2893
 42
0.06766218059
  0
VERTEX
  8
LAYER_2
 10
173.6748
 20
64.5721
  0
VERTEX
  8
LAYER_2
 10
173.5653
 20
64.6217
  0
VERTEX
  8
LAYER_2
 10
173.4537
 20
64.6586
 42
0.06559930154
  0
VERTEX
  8
LAYER_2
 10
173.2222
 20
64.6892
  0
SEQEND
  0
ENDBLK
  0
BLOCK
  8
LAYER_2
  2
AIGNBL02010346
 70
64
 10
0
 20
0
 30
0
  3
AIGNBL02010346
  0
POLYLINE
  8
LAYER_2
 40
0.1482
 41
0.1482
 66
1
 10
0
 20
0
 30
0
  0
VERTEX
  8
LAYER_2
 10
170.074
 20
64.2893
  0
VERTEX
  8
LAYER_2
 10
169.7722
 20
64.2893
  0
SEQEND
  0
ENDBLK
  0
BLOCK
  8
LAYER_2
  2
AIGNBL02010347
 70
64
 10
0
 20
0
 30
0
  3
AIGNBL02010347
  0
POLYLINE
  8
LAYER_2
 40
0.1482
 41
0.1482
 66
1
 10
0
 20
0
 30
0
  0
VERTEX
  8
LAYER_2
 10
169.7722
 20
64.2893
  0
VERTEX
  8
LAYER_2
 10
169.7722
 20
64.5721
  0
VERTEX
  8
LAYER_2
 10
169.7722
 20
64.6217
  0
VERTEX
  8
LAYER_2
 10
169.7722
 20
64.6586
  0
VERTEX
  8
LAYER_2
 10
169.7722
 20
64.6892
  0
SEQEND
  0
ENDBLK
  0
BLOCK
  8
LAYER_2
  2
AIGNBL02010348
 70
64
 10
0
 20
0
 30
0
  3
AIGNBL02010348
  0
POLYLINE
  8
LAYER_2
 40
0.1482
 41
0.1482
 66
1
 10
0
 20
0
 30
0
  0
VERTEX
  8
LAYER_2
 10
169.7722
 20
64.6892
  0
VERTEX
  8
LAYER_2
 10
170.9222
 20
64.6892
  0
SEQEND
  0
ENDBLK
  0
BLOCK
  8
LAYER_2
  2
AIGNBL02010349
 70
64
 10
0
 20
0
 30
0
  3
AIGNBL02010349
  0
POLYLINE
  8
LAYER_2
 40
0.1482
 41
0.1482
 66
1
 10
0
 20
0
 30
0
  0
VERTEX
  8
LAYER_2
 10
174.3721
 20
64.6892
  0
VERTEX
  8
LAYER_2
 10
174.3721
 20
64.6586
  0
VERTEX
  8
LAYER_2
 10
174.3721
 20
64.6217
  0
VERTEX
  8
LAYER_2
 10
174.3721
 20
64.5721
  0
VERTEX
  8
LAYER_2
 10
174.3721
 20
64.2893
  0
SEQEND
  0
ENDBLK
  0
BLOCK
  8
LAYER_2
  2
AIGNBL0201034A
 70
64
 10
0
 20
0
 30
0
  3
AIGNBL0201034A
  0
POLYLINE
  8
LAYER_2
 40
0.1482
 41
0.1482
 66
1
 10
0
 20
0
 30
0
  0
VERTEX
  8
LAYER_2
 10
174.3721
 20
64.2893
  0
VERTEX
  8
LAYER_2
 10
174.071
 20
64.2893
  0
SEQEND
  0
ENDBLK
  0
BLOCK
  8
LAYER_2
  2
AIGNBL0201034B
 70
64
 10
0
 20
0
 30
0
  3
AIGNBL0201034B
  0
POLYLINE
  8
LAYER_2
 40
0.1482
 41
0.1482
 66
1
 10
0
 20
0
 30
0
  0
VERTEX
  8
LAYER_2
 10
173.2222
 20
64.6892
  0
VERTEX
  8
LAYER_2
 10
174.3721
 20
64.6892
  0
SEQEND
  0
ENDBLK
  0
BLOCK
  8
LAYER_2
  2
AIGNBL0201034C
 70
64
 10
0
 20
0
 30
0
  3
AIGNBL0201034C
  0
POLYLINE
  8
LAYER_2
 40
0.1482
 41
0.1482
 66
1
 10
0
 20
0
 30
0
  0
VERTEX
  8
LAYER_2
 10
169.7722
 20
64.2893
  0
VERTEX
  8
LAYER_2
 10
169.7722
 20
63.0893
  0
SEQEND
  0
ENDBLK
  0
BLOCK
  8
LAYER_2
  2
AIGNBL0201034D
 70
64
 10
0
 20
0
 30
0
  3
AIGNBL0201034D
  0
POLYLINE
  8
LAYER_2
 40
0.1482
 41
0.1482
 66
1
 10
0
 20
0
 30
0
  0
VERTEX
  8
LAYER_2
 10
174.3721
 20
64.2893
  0
VERTEX
  8
LAYER_2
 10
174.3721
 20
63.0893
  0
SEQEND
  0
ENDBLK
  0
BLOCK
  8
LAYER_2
  2
AIGNBL0201034E
 70
64
 10
0
 20
0
 30
0
  3
AIGNBL0201034E
  0
POLYLINE
  8
LAYER_2
 40
0.1482
 41
0.1482
 66
1
 10
0
 20
0
 30
0
  0
VERTEX
  8
LAYER_2
 10
170.9222
 20
61.7892
  0
VERTEX
  8
LAYER_2
 10
173.2222
 20
61.7892
  0
SEQEND
  0
ENDBLK
  0
BLOCK
  8
LAYER_2
  2
AIGNBL0201034F
 70
64
 10
0
 20
0
 30
0
  3
AIGNBL0201034F
  0
POLYLINE
  8
LAYER_2
 40
0.1482
 41
0.1482
 66
1
 10
0
 20
0
 30
0
  0
VERTEX
  8
LAYER_2
 10
173.2222
 20
61.7892
 42
-0.06417215805
  0
VERTEX
  8
LAYER_2
 10
172.9913
 20
61.8202
  0
VERTEX
  8
LAYER_2
 10
172.8797
 20
61.857
  0
VERTEX
  8
LAYER_2
 10
172.7702
 20
61.9063
 42
-0.06627629472
  0
VERTEX
  8
LAYER_2
 10
172.374
 20
62.1895
  0
SEQEND
  0
ENDBLK
  0
BLOCK
  8
LAYER_2
  2
AIGNBL02010350
 70
64
 10
0
 20
0
 30
0
  3
AIGNBL02010350
  0
POLYLINE
  8
LAYER_2
 40
0.1482
 41
0.1482
 66
1
 10
0
 20
0
 30
0
  0
VERTEX
  8
LAYER_2
 10
172.374
 20
62.1895
  0
VERTEX
  8
LAYER_2
 10
171.7711
 20
62.1895
  0
SEQEND
  0
ENDBLK
  0
BLOCK
  8
LAYER_2
  2
AIGNBL02010351
 70
64
 10
0
 20
0
 30
0
  3
AIGNBL02010351
  0
POLYLINE
  8
LAYER_2
 40
0.1482
 41
0.1482
 66
1
 10
0
 20
0
 30
0
  0
VERTEX
  8
LAYER_2
 10
171.7711
 20
62.1895
 42
-0.06734325779
  0
VERTEX
  8
LAYER_2
 10
171.3749
 20
61.9066
  0
VERTEX
  8
LAYER_2
 10
171.2653
 20
61.857
  0
VERTEX
  8
LAYER_2
 10
171.1537
 20
61.8202
 42
-0.06617684941
  0
VERTEX
  8
LAYER_2
 10
170.9222
 20
61.7892
  0
SEQEND
  0
ENDBLK
  0
BLOCK
  8
LAYER_2
  2
AIGNBL02010352
 70
64
 10
0
 20
0
 30
0
  3
AIGNBL02010352
  0
POLYLINE
  8
LAYER_2
 40
0.1482
 41
0.1482
 66
1
 10
0
 20
0
 30
0
  0
VERTEX
  8
LAYER_2
 10
171.7711
 20
62.1895
  0
VERTEX
  8
LAYER_2
 10
171.7711
 20
63.0893
  0
SEQEND
  0
ENDBLK
  0
BLOCK
  8
LAYER_2
  2
AIGNBL02010353
 70
64
 10
0
 20
0
 30
0
  3
AIGNBL02010353
  0
POLYLINE
  8
LAYER_2
 40
0.1482
 41
0.1482
 66
1
 10
0
 20
0
 30
0
  0
VERTEX
  8
LAYER_2
 10
172.374
 20
62.1895
  0
VERTEX
  8
LAYER_2
 10
172.374
 20
63.0893
  0
SEQEND
  0
ENDBLK
  0
BLOCK
  8
LAYER_2
  2
AIGNBL02010354
 70
64
 10
0
 20
0
 30
0
  3
AIGNBL02010354
  0
POLYLINE
  8
LAYER_2
 40
0.1482
 41
0.1482
 66
1
 10
0
 20
0
 30
0
  0
VERTEX
  8
LAYER_2
 10
170.074
 20
62.1895
  0
VERTEX
  8
LAYER_2
 10
170.074
 20
63.0893
  0
SEQEND
  0
ENDBLK
  0
BLOCK
  8
LAYER_2
  2
AIGNBL02010355
 70
64
 10
0
 20
0
 30
0
  3
AIGNBL02010355
  0
POLYLINE
  8
LAYER_2
 40
0.1482
 41
0.1482
 66
1
 10
0
 20
0
 30
0
  0
VERTEX
  8
LAYER_2
 10
170.9222
 20
61.7892
 42
-0.06414561586
  0
VERTEX
  8
LAYER_2
 10
170.6914
 20
61.8202
  0
VERTEX
  8
LAYER_2
 10
170.5798
 20
61.857
  0
VERTEX
  8
LAYER_2
 10
170.4702
 20
61.9063
 42
-0.06609776261
  0
VERTEX
  8
LAYER_2
 10
170.074
 20
62.1895
  0
SEQEND
  0
ENDBLK
  0
BLOCK
  8
LAYER_2
  2
AIGNBL02010356
 70
64
 10
0
 20
0
 30
0
  3
AIGNBL02010356
  0
POLYLINE
  8
LAYER_2
 40
0.1482
 41
0.1482
 66
1
 10
0
 20
0
 30
0
  0
VERTEX
  8
LAYER_2
 10
174.071
 20
62.1895
  0
VERTEX
  8
LAYER_2
 10
174.071
 20
63.0893
  0
SEQEND
  0
ENDBLK
  0
BLOCK
  8
LAYER_2
  2
AIGNBL02010357
 70
64
 10
0
 20
0
 30
0
  3
AIGNBL02010357
  0
POLYLINE
  8
LAYER_2
 40
0.1482
 41
0.1482
 66
1
 10
0
 20
0
 30
0
  0
VERTEX
  8
LAYER_2
 10
174.071
 20
62.1895
 42
-0.06751352394
  0
VERTEX
  8
LAYER_2
 10
173.6748
 20
61.9066
  0
VERTEX
  8
LAYER_2
 10
173.5653
 20
61.857
  0
VERTEX
  8
LAYER_2
 10
173.4537
 20
61.8202
 42
-0.06617684941
  0
VERTEX
  8
LAYER_2
 10
173.2222
 20
61.7892
  0
SEQEND
  0
ENDBLK
  0
BLOCK
  8
LAYER_2
  2
AIGNBL02010358
 70
64
 10
0
 20
0
 30
0
  3
AIGNBL02010358
  0
POLYLINE
  8
LAYER_2
 40
0.1482
 41
0.1482
 66
1
 10
0
 20
0
 30
0
  0
VERTEX
  8
LAYER_2
 10
170.074
 20
62.1895
  0
VERTEX
  8
LAYER_2
 10
169.7722
 20
62.1895
  0
SEQEND
  0
ENDBLK
  0
BLOCK
  8
LAYER_2
  2
AIGNBL02010359
 70
64
 10
0
 20
0
 30
0
  3
AIGNBL02010359
  0
POLYLINE
  8
LAYER_2
 40
0.1482
 41
0.1482
 66
1
 10
0
 20
0
 30
0
  0
VERTEX
  8
LAYER_2
 10
169.7722
 20
62.1895
  0
VERTEX
  8
LAYER_2
 10
169.7722
 20
61.9066
  0
VERTEX
  8
LAYER_2
 10
169.7722
 20
61.857
  0
VERTEX
  8
LAYER_2
 10
169.7722
 20
61.8202
  0
VERTEX
  8
LAYER_2
 10
169.7722
 20
61.7892
  0
SEQEND
  0
ENDBLK
  0
BLOCK
  8
LAYER_2
  2
AIGNBL0201035A
 70
64
 10
0
 20
0
 30
0
  3
AIGNBL0201035A
  0
POLYLINE
  8
LAYER_2
 40
0.1482
 41
0.1482
 66
1
 10
0
 20
0
 30
0
  0
VERTEX
  8
LAYER_2
 10
169.7722
 20
61.7892
  0
VERTEX
  8
LAYER_2
 10
170.9222
 20
61.7892
  0
SEQEND
  0
ENDBLK
  0
BLOCK
  8
LAYER_2
  2
AIGNBL0201035B
 70
64
 10
0
 20
0
 30
0
  3
AIGNBL0201035B
  0
POLYLINE
  8
LAYER_2
 40
0.1482
 41
0.1482
 66
1
 10
0
 20
0
 30
0
  0
VERTEX
  8
LAYER_2
 10
174.3721
 20
61.7892
  0
VERTEX
  8
LAYER_2
 10
174.3721
 20
61.8202
  0
VERTEX
  8
LAYER_2
 10
174.3721
 20
61.857
  0
VERTEX
  8
LAYER_2
 10
174.3721
 20
61.9063
  0
VERTEX
  8
LAYER_2
 10
174.3721
 20
62.1895
  0
SEQEND
  0
ENDBLK
  0
BLOCK
  8
LAYER_2
  2
AIGNBL0201035C
 70
64
 10
0
 20
0
 30
0
  3
AIGNBL0201035C
  0
POLYLINE
  8
LAYER_2
 40
0.1482
 41
0.1482
 66
1
 10
0
 20
0
 30
0
  0
VERTEX
  8
LAYER_2
 10
174.3721
 20
62.1895
  0
VERTEX
  8
LAYER_2
 10
174.071
 20
62.1895
  0
SEQEND
  0
ENDBLK
  0
BLOCK
  8
LAYER_2
  2
AIGNBL0201035D
 70
64
 10
0
 20
0
 30
0
  3
AIGNBL0201035D
  0
POLYLINE
  8
LAYER_2
 40
0.1482
 41
0.1482
 66
1
 10
0
 20
0
 30
0
  0
VERTEX
  8
LAYER_2
 10
173.2222
 20
61.7892
  0
VERTEX
  8
LAYER_2
 10
174.3721
 20
61.7892
  0
SEQEND
  0
ENDBLK
  0
BLOCK
  8
LAYER_2
  2
AIGNBL0201035E
 70
64
 10
0
 20
0
 30
0
  3
AIGNBL0201035E
  0
POLYLINE
  8
LAYER_2
 40
0.1482
 41
0.1482
 66
1
 10
0
 20
0
 30
0
  0
VERTEX
  8
LAYER_2
 10
169.7722
 20
62.1895
  0
VERTEX
  8
LAYER_2
 10
169.7722
 20
63.0893
  0
SEQEND
  0
ENDBLK
  0
BLOCK
  8
LAYER_2
  2
AIGNBL0201035F
 70
64
 10
0
 20
0
 30
0
  3
AIGNBL0201035F
  0
POLYLINE
  8
LAYER_2
 40
0.1482
 41
0.1482
 66
1
 10
0
 20
0
 30
0
  0
VERTEX
  8
LAYER_2
 10
174.3721
 20
62.1895
  0
VERTEX
  8
LAYER_2
 10
174.3721
 20
63.0893
  0
SEQEND
  0
ENDBLK
  0
BLOCK
  8
LAYER_7
  2
AIGNBL07010002
 70
64
 10
0
 20
0
 30
0
  3
AIGNBL07010002
  0
POLYLINE
  8
LAYER_7
 40
0.7056
 41
0.7056
 66
1
 10
0
 20
0
 30
0
 70
1
  0
VERTEX
  8
LAYER_7
 10
206.0763
 20
269.2235
  0
VERTEX
  8
LAYER_7
 10
206.0763
 20
-7.7766
  0
VERTEX
  8
LAYER_7
 10
16.0764
 20
-7.7766
  0
VERTEX
  8
LAYER_7
 10
16.0764
 20
269.2235
  0
SEQEND
  0
ENDBLK
  0
BLOCK
  8
LAYER_7
  2
AIGNBL07010003
 70
64
 10
0
 20
0
 30
0
  3
AIGNBL07010003
  0
INSERT
  8
LAYER_7
  2
AIGNBL07020004
 10
0
 20
0
 30
0
  0
INSERT
  8
LAYER_7
  2
AIGNBL0702000D
 10
0
 20
0
 30
0
  0
ENDBLK
  0
ENDSEC
  0
SECTION
  2
ENTITIES
  0
INSERT
  8
LAYER_2
  2
AIGNBL02010002
 10
0
 20
0
 30
0
  0
INSERT
  8
LAYER_2
  2
AIGNBL02010012
 10
0
 20
0
 30
0
  0
INSERT
  8
LAYER_2
  2
AIGNBL02010023
 10
0
 20
0
 30
0
  0
INSERT
  8
LAYER_2
  2
AIGNBL02010024
 10
0
 20
0
 30
0
  0
INSERT
  8
LAYER_2
  2
AIGNBL02010025
 10
0
 20
0
 30
0
  0
INSERT
  8
LAYER_2
  2
AIGNBL02010035
 10
0
 20
0
 30
0
  0
INSERT
  8
LAYER_2
  2
AIGNBL02010045
 10
0
 20
0
 30
0
  0
INSERT
  8
LAYER_2
  2
AIGNBL02010046
 10
0
 20
0
 30
0
  0
INSERT
  8
LAYER_2
  2
AIGNBL02010047
 10
0
 20
0
 30
0
  0
INSERT
  8
LAYER_2
  2
AIGNBL02010057
 10
0
 20
0
 30
0
  0
INSERT
  8
LAYER_2
  2
AIGNBL02010067
 10
0
 20
0
 30
0
  0
INSERT
  8
LAYER_2
  2
AIGNBL02010077
 10
0
 20
0
 30
0
  0
INSERT
  8
LAYER_2
  2
AIGNBL02010087
 10
0
 20
0
 30
0
  0
INSERT
  8
LAYER_2
  2
AIGNBL02010097
 10
0
 20
0
 30
0
  0
INSERT
  8
LAYER_2
  2
AIGNBL020100A7
 10
0
 20
0
 30
0
  0
INSERT
  8
LAYER_2
  2
AIGNBL020100A8
 10
0
 20
0
 30
0
  0
INSERT
  8
LAYER_2
  2
AIGNBL020100A9
 10
0
 20
0
 30
0
  0
INSERT
  8
LAYER_2
  2
AIGNBL020100BB
 10
0
 20
0
 30
0
  0
INSERT
  8
LAYER_2
  2
AIGNBL020100CB
 10
0
 20
0
 30
0
  0
INSERT
  8
LAYER_2
  2
AIGNBL020100DB
 10
0
 20
0
 30
0
  0
INSERT
  8
LAYER_2
  2
AIGNBL020100EB
 10
0
 20
0
 30
0
  0
INSERT
  8
LAYER_2
  2
AIGNBL020100EC
 10
0
 20
0
 30
0
  0
INSERT
  8
LAYER_2
  2
AIGNBL020100ED
 10
0
 20
0
 30
0
  0
INSERT
  8
LAYER_2
  2
AIGNBL020100EE
 10
0
 20
0
 30
0
  0
INSERT
  8
LAYER_2
  2
AIGNBL020100EF
 10
0
 20
0
 30
0
  0
INSERT
  8
LAYER_2
  2
AIGNBL020100F0
 10
0
 20
0
 30
0
  0
INSERT
  8
LAYER_2
  2
AIGNBL020100F1
 10
0
 20
0
 30
0
  0
INSERT
  8
LAYER_2
  2
AIGNBL020100F2
 10
0
 20
0
 30
0
  0
INSERT
  8
LAYER_2
  2
AIGNBL020100F3
 10
0
 20
0
 30
0
  0
INSERT
  8
LAYER_2
  2
AIGNBL020100F7
 10
0
 20
0
 30
0
  0
INSERT
  8
LAYER_2
  2
AIGNBL020100F8
 10
0
 20
0
 30
0
  0
INSERT
  8
LAYER_2
  2
AIGNBL020100F9
 10
0
 20
0
 30
0
  0
INSERT
  8
LAYER_2
  2
AIGNBL020100FA
 10
0
 20
0
 30
0
  0
INSERT
  8
LAYER_2
  2
AIGNBL020100FB
 10
0
 20
0
 30
0
  0
INSERT
  8
LAYER_2
  2
AIGNBL020100FC
 10
0
 20
0
 30
0
  0
INSERT
  8
LAYER_2
  2
AIGNBL020100FD
 10
0
 20
0
 30
0
  0
INSERT
  8
LAYER_2
  2
AIGNBL020100FF
 10
0
 20
0
 30
0
  0
INSERT
  8
LAYER_2
  2
AIGNBL02010101
 10
0
 20
0
 30
0
  0
INSERT
  8
LAYER_2
  2
AIGNBL02010102
 10
0
 20
0
 30
0
  0
INSERT
  8
LAYER_2
  2
AIGNBL02010103
 10
0
 20
0
 30
0
  0
INSERT
  8
LAYER_2
  2
AIGNBL02010104
 10
0
 20
0
 30
0
  0
INSERT
  8
LAYER_2
  2
AIGNBL02010105
 10
0
 20
0
 30
0
  0
INSERT
  8
LAYER_2
  2
AIGNBL02010106
 10
0
 20
0
 30
0
  0
INSERT
  8
LAYER_2
  2
AIGNBL02010107
 10
0
 20
0
 30
0
  0
INSERT
  8
LAYER_2
  2
AIGNBL02010108
 10
0
 20
0
 30
0
  0
INSERT
  8
LAYER_2
  2
AIGNBL02010109
 10
0
 20
0
 30
0
  0
INSERT
  8
LAYER_2
  2
AIGNBL0201010A
 10
0
 20
0
 30
0
  0
INSERT
  8
LAYER_2
  2
AIGNBL0201010E
 10
0
 20
0
 30
0
  0
INSERT
  8
LAYER_2
  2
AIGNBL02010112
 10
0
 20
0
 30
0
  0
INSERT
  8
LAYER_2
  2
AIGNBL02010113
 10
0
 20
0
 30
0
  0
INSERT
  8
LAYER_2
  2
AIGNBL02010114
 10
0
 20
0
 30
0
  0
INSERT
  8
LAYER_2
  2
AIGNBL02010115
 10
0
 20
0
 30
0
  0
INSERT
  8
LAYER_2
  2
AIGNBL02010116
 10
0
 20
0
 30
0
  0
INSERT
  8
LAYER_2
  2
AIGNBL02010117
 10
0
 20
0
 30
0
  0
INSERT
  8
LAYER_2
  2
AIGNBL0201011B
 10
0
 20
0
 30
0
  0
INSERT
  8
LAYER_2
  2
AIGNBL0201011F
 10
0
 20
0
 30
0
  0
INSERT
  8
LAYER_2
  2
AIGNBL02010120
 10
0
 20
0
 30
0
  0
INSERT
  8
LAYER_2
  2
AIGNBL02010121
 10
0
 20
0
 30
0
  0
INSERT
  8
LAYER_2
  2
AIGNBL02010122
 10
0
 20
0
 30
0
  0
INSERT
  8
LAYER_2
  2
AIGNBL02010123
 10
0
 20
0
 30
0
  0
INSERT
  8
LAYER_2
  2
AIGNBL02010124
 10
0
 20
0
 30
0
  0
INSERT
  8
LAYER_2
  2
AIGNBL02010125
 10
0
 20
0
 30
0
  0
INSERT
  8
LAYER_2
  2
AIGNBL02010126
 10
0
 20
0
 30
0
  0
INSERT
  8
LAYER_2
  2
AIGNBL02010127
 10
0
 20
0
 30
0
  0
INSERT
  8
LAYER_2
  2
AIGNBL02010128
 10
0
 20
0
 30
0
  0
INSERT
  8
LAYER_2
  2
AIGNBL02010129
 10
0
 20
0
 30
0
  0
INSERT
  8
LAYER_2
  2
AIGNBL0201012A
 10
0
 20
0
 30
0
  0
INSERT
  8
LAYER_2
  2
AIGNBL0201012B
 10
0
 20
0
 30
0
  0
INSERT
  8
LAYER_2
  2
AIGNBL0201012C
 10
0
 20
0
 30
0
  0
INSERT
  8
LAYER_2
  2
AIGNBL0201012D
 10
0
 20
0
 30
0
  0
INSERT
  8
LAYER_2
  2
AIGNBL0201012E
 10
0
 20
0
 30
0
  0
INSERT
  8
LAYER_2
  2
AIGNBL0201012F
 10
0
 20
0
 30
0
  0
INSERT
  8
LAYER_2
  2
AIGNBL02010130
 10
0
 20
0
 30
0
  0
INSERT
  8
LAYER_2
  2
AIGNBL02010131
 10
0
 20
0
 30
0
  0
INSERT
  8
LAYER_2
  2
AIGNBL02010132
 10
0
 20
0
 30
0
  0
INSERT
  8
LAYER_2
  2
AIGNBL02010133
 10
0
 20
0
 30
0
  0
INSERT
  8
LAYER_2
  2
AIGNBL02010134
 10
0
 20
0
 30
0
  0
INSERT
  8
LAYER_2
  2
AIGNBL02010135
 10
0
 20
0
 30
0
  0
INSERT
  8
LAYER_2
  2
AIGNBL02010136
 10
0
 20
0
 30
0
  0
INSERT
  8
LAYER_2
  2
AIGNBL02010137
 10
0
 20
0
 30
0
  0
INSERT
  8
LAYER_2
  2
AIGNBL02010138
 10
0
 20
0
 30
0
  0
INSERT
  8
LAYER_2
  2
AIGNBL02010139
 10
0
 20
0
 30
0
  0
INSERT
  8
LAYER_2
  2
AIGNBL0201013A
 10
0
 20
0
 30
0
  0
INSERT
  8
LAYER_2
  2
AIGNBL0201013B
 10
0
 20
0
 30
0
  0
INSERT
  8
LAYER_2
  2
AIGNBL0201013C
 10
0
 20
0
 30
0
  0
INSERT
  8
LAYER_2
  2
AIGNBL0201013D
 10
0
 20
0
 30
0
  0
INSERT
  8
LAYER_2
  2
AIGNBL0201013E
 10
0
 20
0
 30
0
  0
INSERT
  8
LAYER_2
  2
AIGNBL0201013F
 10
0
 20
0
 30
0
  0
INSERT
  8
LAYER_2
  2
AIGNBL02010140
 10
0
 20
0
 30
0
  0
INSERT
  8
LAYER_2
  2
AIGNBL02010141
 10
0
 20
0
 30
0
  0
INSERT
  8
LAYER_2
  2
AIGNBL02010142
 10
0
 20
0
 30
0
  0
INSERT
  8
LAYER_2
  2
AIGNBL02010143
 10
0
 20
0
 30
0
  0
INSERT
  8
LAYER_2
  2
AIGNBL02010144
 10
0
 20
0
 30
0
  0
INSERT
  8
LAYER_2
  2
AIGNBL02010145
 10
0
 20
0
 30
0
  0
INSERT
  8
LAYER_2
  2
AIGNBL02010146
 10
0
 20
0
 30
0
  0
INSERT
  8
LAYER_2
  2
AIGNBL02010147
 10
0
 20
0
 30
0
  0
INSERT
  8
LAYER_2
  2
AIGNBL02010148
 10
0
 20
0
 30
0
  0
INSERT
  8
LAYER_2
  2
AIGNBL02010149
 10
0
 20
0
 30
0
  0
INSERT
  8
LAYER_2
  2
AIGNBL0201014A
 10
0
 20
0
 30
0
  0
INSERT
  8
LAYER_2
  2
AIGNBL0201014B
 10
0
 20
0
 30
0
  0
INSERT
  8
LAYER_2
  2
AIGNBL0201014C
 10
0
 20
0
 30
0
  0
INSERT
  8
LAYER_2
  2
AIGNBL0201014D
 10
0
 20
0
 30
0
  0
INSERT
  8
LAYER_2
  2
AIGNBL0201014E
 10
0
 20
0
 30
0
  0
INSERT
  8
LAYER_2
  2
AIGNBL0201014F
 10
0
 20
0
 30
0
  0
INSERT
  8
LAYER_2
  2
AIGNBL02010150
 10
0
 20
0
 30
0
  0
INSERT
  8
LAYER_2
  2
AIGNBL02010151
 10
0
 20
0
 30
0
  0
INSERT
  8
LAYER_2
  2
AIGNBL02010152
 10
0
 20
0
 30
0
  0
INSERT
  8
LAYER_2
  2
AIGNBL02010153
 10
0
 20
0
 30
0
  0
INSERT
  8
LAYER_2
  2
AIGNBL02010154
 10
0
 20
0
 30
0
  0
INSERT
  8
LAYER_2
  2
AIGNBL02010155
 10
0
 20
0
 30
0
  0
INSERT
  8
LAYER_2
  2
AIGNBL02010156
 10
0
 20
0
 30
0
  0
INSERT
  8
LAYER_2
  2
AIGNBL02010157
 10
0
 20
0
 30
0
  0
INSERT
  8
LAYER_2
  2
AIGNBL02010158
 10
0
 20
0
 30
0
  0
INSERT
  8
LAYER_2
  2
AIGNBL02010159
 10
0
 20
0
 30
0
  0
INSERT
  8
LAYER_2
  2
AIGNBL0201015A
 10
0
 20
0
 30
0
  0
INSERT
  8
LAYER_2
  2
AIGNBL0201015B
 10
0
 20
0
 30
0
  0
INSERT
  8
LAYER_2
  2
AIGNBL0201015C
 10
0
 20
0
 30
0
  0
INSERT
  8
LAYER_2
  2
AIGNBL0201015D
 10
0
 20
0
 30
0
  0
INSERT
  8
LAYER_2
  2
AIGNBL0201015E
 10
0
 20
0
 30
0
  0
INSERT
  8
LAYER_2
  2
AIGNBL0201015F
 10
0
 20
0
 30
0
  0
INSERT
  8
LAYER_2
  2
AIGNBL02010160
 10
0
 20
0
 30
0
  0
INSERT
  8
LAYER_2
  2
AIGNBL02010161
 10
0
 20
0
 30
0
  0
INSERT
  8
LAYER_2
  2
AIGNBL02010162
 10
0
 20
0
 30
0
  0
INSERT
  8
LAYER_2
  2
AIGNBL02010163
 10
0
 20
0
 30
0
  0
INSERT
  8
LAYER_2
  2
AIGNBL02010164
 10
0
 20
0
 30
0
  0
INSERT
  8
LAYER_2
  2
AIGNBL02010165
 10
0
 20
0
 30
0
  0
INSERT
  8
LAYER_2
  2
AIGNBL02010166
 10
0
 20
0
 30
0
  0
INSERT
  8
LAYER_2
  2
AIGNBL02010167
 10
0
 20
0
 30
0
  0
INSERT
  8
LAYER_2
  2
AIGNBL02010168
 10
0
 20
0
 30
0
  0
INSERT
  8
LAYER_2
  2
AIGNBL02010169
 10
0
 20
0
 30
0
  0
INSERT
  8
LAYER_2
  2
AIGNBL0201016A
 10
0
 20
0
 30
0
  0
INSERT
  8
LAYER_2
  2
AIGNBL0201016B
 10
0
 20
0
 30
0
  0
INSERT
  8
LAYER_2
  2
AIGNBL0201016C
 10
0
 20
0
 30
0
  0
INSERT
  8
LAYER_2
  2
AIGNBL0201016D
 10
0
 20
0
 30
0
  0
INSERT
  8
LAYER_2
  2
AIGNBL0201016E
 10
0
 20
0
 30
0
  0
INSERT
  8
LAYER_2
  2
AIGNBL0201016F
 10
0
 20
0
 30
0
  0
INSERT
  8
LAYER_2
  2
AIGNBL02010170
 10
0
 20
0
 30
0
  0
INSERT
  8
LAYER_2
  2
AIGNBL02010171
 10
0
 20
0
 30
0
  0
INSERT
  8
LAYER_2
  2
AIGNBL02010172
 10
0
 20
0
 30
0
  0
INSERT
  8
LAYER_2
  2
AIGNBL02010173
 10
0
 20
0
 30
0
  0
INSERT
  8
LAYER_2
  2
AIGNBL02010174
 10
0
 20
0
 30
0
  0
INSERT
  8
LAYER_2
  2
AIGNBL02010175
 10
0
 20
0
 30
0
  0
INSERT
  8
LAYER_2
  2
AIGNBL02010176
 10
0
 20
0
 30
0
  0
INSERT
  8
LAYER_2
  2
AIGNBL02010177
 10
0
 20
0
 30
0
  0
INSERT
  8
LAYER_2
  2
AIGNBL02010178
 10
0
 20
0
 30
0
  0
INSERT
  8
LAYER_2
  2
AIGNBL02010179
 10
0
 20
0
 30
0
  0
INSERT
  8
LAYER_2
  2
AIGNBL0201017A
 10
0
 20
0
 30
0
  0
INSERT
  8
LAYER_2
  2
AIGNBL0201017B
 10
0
 20
0
 30
0
  0
INSERT
  8
LAYER_2
  2
AIGNBL0201017C
 10
0
 20
0
 30
0
  0
INSERT
  8
LAYER_2
  2
AIGNBL0201017D
 10
0
 20
0
 30
0
  0
INSERT
  8
LAYER_2
  2
AIGNBL0201017E
 10
0
 20
0
 30
0
  0
INSERT
  8
LAYER_2
  2
AIGNBL0201017F
 10
0
 20
0
 30
0
  0
INSERT
  8
LAYER_2
  2
AIGNBL02010180
 10
0
 20
0
 30
0
  0
INSERT
  8
LAYER_2
  2
AIGNBL02010181
 10
0
 20
0
 30
0
  0
INSERT
  8
LAYER_2
  2
AIGNBL02010182
 10
0
 20
0
 30
0
  0
INSERT
  8
LAYER_2
  2
AIGNBL02010183
 10
0
 20
0
 30
0
  0
INSERT
  8
LAYER_2
  2
AIGNBL02010184
 10
0
 20
0
 30
0
  0
INSERT
  8
LAYER_2
  2
AIGNBL02010185
 10
0
 20
0
 30
0
  0
INSERT
  8
LAYER_2
  2
AIGNBL02010186
 10
0
 20
0
 30
0
  0
INSERT
  8
LAYER_2
  2
AIGNBL02010187
 10
0
 20
0
 30
0
  0
INSERT
  8
LAYER_2
  2
AIGNBL02010188
 10
0
 20
0
 30
0
  0
INSERT
  8
LAYER_2
  2
AIGNBL02010189
 10
0
 20
0
 30
0
  0
INSERT
  8
LAYER_2
  2
AIGNBL0201018A
 10
0
 20
0
 30
0
  0
INSERT
  8
LAYER_2
  2
AIGNBL0201018B
 10
0
 20
0
 30
0
  0
INSERT
  8
LAYER_2
  2
AIGNBL0201018C
 10
0
 20
0
 30
0
  0
INSERT
  8
LAYER_2
  2
AIGNBL0201018D
 10
0
 20
0
 30
0
  0
INSERT
  8
LAYER_2
  2
AIGNBL0201018E
 10
0
 20
0
 30
0
  0
INSERT
  8
LAYER_2
  2
AIGNBL0201018F
 10
0
 20
0
 30
0
  0
INSERT
  8
LAYER_2
  2
AIGNBL02010190
 10
0
 20
0
 30
0
  0
INSERT
  8
LAYER_2
  2
AIGNBL02010191
 10
0
 20
0
 30
0
  0
INSERT
  8
LAYER_2
  2
AIGNBL02010192
 10
0
 20
0
 30
0
  0
INSERT
  8
LAYER_2
  2
AIGNBL02010193
 10
0
 20
0
 30
0
  0
INSERT
  8
LAYER_2
  2
AIGNBL02010194
 10
0
 20
0
 30
0
  0
INSERT
  8
LAYER_2
  2
AIGNBL02010195
 10
0
 20
0
 30
0
  0
INSERT
  8
LAYER_2
  2
AIGNBL02010196
 10
0
 20
0
 30
0
  0
INSERT
  8
LAYER_2
  2
AIGNBL02010197
 10
0
 20
0
 30
0
  0
INSERT
  8
LAYER_2
  2
AIGNBL02010198
 10
0
 20
0
 30
0
  0
INSERT
  8
LAYER_2
  2
AIGNBL02010199
 10
0
 20
0
 30
0
  0
INSERT
  8
LAYER_2
  2
AIGNBL0201019A
 10
0
 20
0
 30
0
  0
INSERT
  8
LAYER_2
  2
AIGNBL0201019B
 10
0
 20
0
 30
0
  0
INSERT
  8
LAYER_2
  2
AIGNBL0201019C
 10
0
 20
0
 30
0
  0
INSERT
  8
LAYER_2
  2
AIGNBL0201019D
 10
0
 20
0
 30
0
  0
INSERT
  8
LAYER_2
  2
AIGNBL0201019E
 10
0
 20
0
 30
0
  0
INSERT
  8
LAYER_2
  2
AIGNBL0201019F
 10
0
 20
0
 30
0
  0
INSERT
  8
LAYER_2
  2
AIGNBL020101A0
 10
0
 20
0
 30
0
  0
INSERT
  8
LAYER_2
  2
AIGNBL020101A1
 10
0
 20
0
 30
0
  0
INSERT
  8
LAYER_2
  2
AIGNBL020101A2
 10
0
 20
0
 30
0
  0
INSERT
  8
LAYER_2
  2
AIGNBL020101A3
 10
0
 20
0
 30
0
  0
INSERT
  8
LAYER_2
  2
AIGNBL020101A4
 10
0
 20
0
 30
0
  0
INSERT
  8
LAYER_2
  2
AIGNBL020101A5
 10
0
 20
0
 30
0
  0
INSERT
  8
LAYER_2
  2
AIGNBL020101A6
 10
0
 20
0
 30
0
  0
INSERT
  8
LAYER_2
  2
AIGNBL020101A7
 10
0
 20
0
 30
0
  0
INSERT
  8
LAYER_2
  2
AIGNBL020101A8
 10
0
 20
0
 30
0
  0
INSERT
  8
LAYER_2
  2
AIGNBL020101A9
 10
0
 20
0
 30
0
  0
INSERT
  8
LAYER_2
  2
AIGNBL020101AA
 10
0
 20
0
 30
0
  0
INSERT
  8
LAYER_2
  2
AIGNBL020101AB
 10
0
 20
0
 30
0
  0
INSERT
  8
LAYER_2
  2
AIGNBL020101AC
 10
0
 20
0
 30
0
  0
INSERT
  8
LAYER_2
  2
AIGNBL020101AD
 10
0
 20
0
 30
0
  0
INSERT
  8
LAYER_2
  2
AIGNBL020101AE
 10
0
 20
0
 30
0
  0
INSERT
  8
LAYER_2
  2
AIGNBL020101AF
 10
0
 20
0
 30
0
  0
INSERT
  8
LAYER_2
  2
AIGNBL020101B0
 10
0
 20
0
 30
0
  0
INSERT
  8
LAYER_2
  2
AIGNBL020101B1
 10
0
 20
0
 30
0
  0
INSERT
  8
LAYER_2
  2
AIGNBL020101B2
 10
0
 20
0
 30
0
  0
INSERT
  8
LAYER_2
  2
AIGNBL020101B3
 10
0
 20
0
 30
0
  0
INSERT
  8
LAYER_2
  2
AIGNBL020101B4
 10
0
 20
0
 30
0
  0
INSERT
  8
LAYER_2
  2
AIGNBL020101B5
 10
0
 20
0
 30
0
  0
INSERT
  8
LAYER_2
  2
AIGNBL020101B6
 10
0
 20
0
 30
0
  0
INSERT
  8
LAYER_2
  2
AIGNBL020101B7
 10
0
 20
0
 30
0
  0
INSERT
  8
LAYER_2
  2
AIGNBL020101B8
 10
0
 20
0
 30
0
  0
INSERT
  8
LAYER_2
  2
AIGNBL020101B9
 10
0
 20
0
 30
0
  0
INSERT
  8
LAYER_2
  2
AIGNBL020101BA
 10
0
 20
0
 30
0
  0
INSERT
  8
LAYER_2
  2
AIGNBL020101BB
 10
0
 20
0
 30
0
  0
INSERT
  8
LAYER_2
  2
AIGNBL020101BC
 10
0
 20
0
 30
0
  0
INSERT
  8
LAYER_2
  2
AIGNBL020101BD
 10
0
 20
0
 30
0
  0
INSERT
  8
LAYER_2
  2
AIGNBL020101BE
 10
0
 20
0
 30
0
  0
INSERT
  8
LAYER_2
  2
AIGNBL020101BF
 10
0
 20
0
 30
0
  0
INSERT
  8
LAYER_2
  2
AIGNBL020101C0
 10
0
 20
0
 30
0
  0
INSERT
  8
LAYER_2
  2
AIGNBL020101C1
 10
0
 20
0
 30
0
  0
INSERT
  8
LAYER_2
  2
AIGNBL020101C2
 10
0
 20
0
 30
0
  0
INSERT
  8
LAYER_2
  2
AIGNBL020101C3
 10
0
 20
0
 30
0
  0
INSERT
  8
LAYER_2
  2
AIGNBL020101C4
 10
0
 20
0
 30
0
  0
INSERT
  8
LAYER_2
  2
AIGNBL020101C5
 10
0
 20
0
 30
0
  0
INSERT
  8
LAYER_2
  2
AIGNBL020101C6
 10
0
 20
0
 30
0
  0
INSERT
  8
LAYER_2
  2
AIGNBL020101C7
 10
0
 20
0
 30
0
  0
INSERT
  8
LAYER_2
  2
AIGNBL020101C8
 10
0
 20
0
 30
0
  0
INSERT
  8
LAYER_2
  2
AIGNBL020101C9
 10
0
 20
0
 30
0
  0
INSERT
  8
LAYER_2
  2
AIGNBL020101CA
 10
0
 20
0
 30
0
  0
INSERT
  8
LAYER_2
  2
AIGNBL020101CB
 10
0
 20
0
 30
0
  0
INSERT
  8
LAYER_2
  2
AIGNBL020101CC
 10
0
 20
0
 30
0
  0
INSERT
  8
LAYER_2
  2
AIGNBL020101CD
 10
0
 20
0
 30
0
  0
INSERT
  8
LAYER_2
  2
AIGNBL020101CE
 10
0
 20
0
 30
0
  0
INSERT
  8
LAYER_2
  2
AIGNBL020101CF
 10
0
 20
0
 30
0
  0
INSERT
  8
LAYER_2
  2
AIGNBL020101D0
 10
0
 20
0
 30
0
  0
INSERT
  8
LAYER_2
  2
AIGNBL020101D1
 10
0
 20
0
 30
0
  0
INSERT
  8
LAYER_2
  2
AIGNBL020101D2
 10
0
 20
0
 30
0
  0
INSERT
  8
LAYER_2
  2
AIGNBL020101D3
 10
0
 20
0
 30
0
  0
INSERT
  8
LAYER_2
  2
AIGNBL020101D4
 10
0
 20
0
 30
0
  0
INSERT
  8
LAYER_2
  2
AIGNBL020101D5
 10
0
 20
0
 30
0
  0
INSERT
  8
LAYER_2
  2
AIGNBL020101D6
 10
0
 20
0
 30
0
  0
INSERT
  8
LAYER_2
  2
AIGNBL020101D7
 10
0
 20
0
 30
0
  0
INSERT
  8
LAYER_2
  2
AIGNBL020101D8
 10
0
 20
0
 30
0
  0
INSERT
  8
LAYER_2
  2
AIGNBL020101D9
 10
0
 20
0
 30
0
  0
INSERT
  8
LAYER_2
  2
AIGNBL020101DA
 10
0
 20
0
 30
0
  0
INSERT
  8
LAYER_2
  2
AIGNBL020101DB
 10
0
 20
0
 30
0
  0
INSERT
  8
LAYER_2
  2
AIGNBL020101DC
 10
0
 20
0
 30
0
  0
INSERT
  8
LAYER_2
  2
AIGNBL020101DD
 10
0
 20
0
 30
0
  0
INSERT
  8
LAYER_2
  2
AIGNBL020101DE
 10
0
 20
0
 30
0
  0
INSERT
  8
LAYER_2
  2
AIGNBL020101DF
 10
0
 20
0
 30
0
  0
INSERT
  8
LAYER_2
  2
AIGNBL020101E0
 10
0
 20
0
 30
0
  0
INSERT
  8
LAYER_2
  2
AIGNBL020101E1
 10
0
 20
0
 30
0
  0
INSERT
  8
LAYER_2
  2
AIGNBL020101E2
 10
0
 20
0
 30
0
  0
INSERT
  8
LAYER_2
  2
AIGNBL020101E3
 10
0
 20
0
 30
0
  0
INSERT
  8
LAYER_2
  2
AIGNBL020101E4
 10
0
 20
0
 30
0
  0
INSERT
  8
LAYER_2
  2
AIGNBL020101E5
 10
0
 20
0
 30
0
  0
INSERT
  8
LAYER_2
  2
AIGNBL020101E6
 10
0
 20
0
 30
0
  0
INSERT
  8
LAYER_2
  2
AIGNBL020101E7
 10
0
 20
0
 30
0
  0
INSERT
  8
LAYER_2
  2
AIGNBL020101E8
 10
0
 20
0
 30
0
  0
INSERT
  8
LAYER_2
  2
AIGNBL020101E9
 10
0
 20
0
 30
0
  0
INSERT
  8
LAYER_2
  2
AIGNBL020101EA
 10
0
 20
0
 30
0
  0
INSERT
  8
LAYER_2
  2
AIGNBL020101EB
 10
0
 20
0
 30
0
  0
INSERT
  8
LAYER_2
  2
AIGNBL020101EC
 10
0
 20
0
 30
0
  0
INSERT
  8
LAYER_2
  2
AIGNBL020101ED
 10
0
 20
0
 30
0
  0
INSERT
  8
LAYER_2
  2
AIGNBL020101EE
 10
0
 20
0
 30
0
  0
INSERT
  8
LAYER_2
  2
AIGNBL020101EF
 10
0
 20
0
 30
0
  0
INSERT
  8
LAYER_2
  2
AIGNBL020101F0
 10
0
 20
0
 30
0
  0
INSERT
  8
LAYER_2
  2
AIGNBL020101F1
 10
0
 20
0
 30
0
  0
INSERT
  8
LAYER_2
  2
AIGNBL020101F2
 10
0
 20
0
 30
0
  0
INSERT
  8
LAYER_2
  2
AIGNBL020101F3
 10
0
 20
0
 30
0
  0
INSERT
  8
LAYER_2
  2
AIGNBL020101F4
 10
0
 20
0
 30
0
  0
INSERT
  8
LAYER_2
  2
AIGNBL020101F5
 10
0
 20
0
 30
0
  0
INSERT
  8
LAYER_2
  2
AIGNBL020101F6
 10
0
 20
0
 30
0
  0
INSERT
  8
LAYER_2
  2
AIGNBL020101F7
 10
0
 20
0
 30
0
  0
INSERT
  8
LAYER_2
  2
AIGNBL020101F8
 10
0
 20
0
 30
0
  0
INSERT
  8
LAYER_2
  2
AIGNBL020101F9
 10
0
 20
0
 30
0
  0
INSERT
  8
LAYER_2
  2
AIGNBL020101FA
 10
0
 20
0
 30
0
  0
INSERT
  8
LAYER_2
  2
AIGNBL020101FB
 10
0
 20
0
 30
0
  0
INSERT
  8
LAYER_2
  2
AIGNBL020101FC
 10
0
 20
0
 30
0
  0
INSERT
  8
LAYER_2
  2
AIGNBL020101FD
 10
0
 20
0
 30
0
  0
INSERT
  8
LAYER_2
  2
AIGNBL020101FE
 10
0
 20
0
 30
0
  0
INSERT
  8
LAYER_2
  2
AIGNBL020101FF
 10
0
 20
0
 30
0
  0
INSERT
  8
LAYER_2
  2
AIGNBL02010200
 10
0
 20
0
 30
0
  0
INSERT
  8
LAYER_2
  2
AIGNBL02010201
 10
0
 20
0
 30
0
  0
INSERT
  8
LAYER_2
  2
AIGNBL02010202
 10
0
 20
0
 30
0
  0
INSERT
  8
LAYER_2
  2
AIGNBL02010203
 10
0
 20
0
 30
0
  0
INSERT
  8
LAYER_2
  2
AIGNBL02010204
 10
0
 20
0
 30
0
  0
INSERT
  8
LAYER_2
  2
AIGNBL02010205
 10
0
 20
0
 30
0
  0
INSERT
  8
LAYER_2
  2
AIGNBL02010206
 10
0
 20
0
 30
0
  0
INSERT
  8
LAYER_2
  2
AIGNBL02010207
 10
0
 20
0
 30
0
  0
INSERT
  8
LAYER_2
  2
AIGNBL02010208
 10
0
 20
0
 30
0
  0
INSERT
  8
LAYER_2
  2
AIGNBL02010209
 10
0
 20
0
 30
0
  0
INSERT
  8
LAYER_2
  2
AIGNBL0201020A
 10
0
 20
0
 30
0
  0
INSERT
  8
LAYER_2
  2
AIGNBL0201020B
 10
0
 20
0
 30
0
  0
INSERT
  8
LAYER_2
  2
AIGNBL0201020C
 10
0
 20
0
 30
0
  0
INSERT
  8
LAYER_2
  2
AIGNBL0201020D
 10
0
 20
0
 30
0
  0
INSERT
  8
LAYER_2
  2
AIGNBL0201020E
 10
0
 20
0
 30
0
  0
INSERT
  8
LAYER_2
  2
AIGNBL0201020F
 10
0
 20
0
 30
0
  0
INSERT
  8
LAYER_2
  2
AIGNBL02010210
 10
0
 20
0
 30
0
  0
INSERT
  8
LAYER_2
  2
AIGNBL02010211
 10
0
 20
0
 30
0
  0
INSERT
  8
LAYER_2
  2
AIGNBL02010212
 10
0
 20
0
 30
0
  0
INSERT
  8
LAYER_2
  2
AIGNBL02010213
 10
0
 20
0
 30
0
  0
INSERT
  8
LAYER_2
  2
AIGNBL02010214
 10
0
 20
0
 30
0
  0
INSERT
  8
LAYER_2
  2
AIGNBL02010215
 10
0
 20
0
 30
0
  0
INSERT
  8
LAYER_2
  2
AIGNBL02010216
 10
0
 20
0
 30
0
  0
INSERT
  8
LAYER_2
  2
AIGNBL02010217
 10
0
 20
0
 30
0
  0
INSERT
  8
LAYER_2
  2
AIGNBL02010218
 10
0
 20
0
 30
0
  0
INSERT
  8
LAYER_2
  2
AIGNBL02010219
 10
0
 20
0
 30
0
  0
INSERT
  8
LAYER_2
  2
AIGNBL0201021A
 10
0
 20
0
 30
0
  0
INSERT
  8
LAYER_2
  2
AIGNBL0201021B
 10
0
 20
0
 30
0
  0
INSERT
  8
LAYER_2
  2
AIGNBL0201021C
 10
0
 20
0
 30
0
  0
INSERT
  8
LAYER_2
  2
AIGNBL0201021D
 10
0
 20
0
 30
0
  0
INSERT
  8
LAYER_2
  2
AIGNBL0201021E
 10
0
 20
0
 30
0
  0
INSERT
  8
LAYER_2
  2
AIGNBL0201021F
 10
0
 20
0
 30
0
  0
INSERT
  8
LAYER_2
  2
AIGNBL02010220
 10
0
 20
0
 30
0
  0
INSERT
  8
LAYER_2
  2
AIGNBL02010221
 10
0
 20
0
 30
0
  0
INSERT
  8
LAYER_2
  2
AIGNBL02010222
 10
0
 20
0
 30
0
  0
INSERT
  8
LAYER_2
  2
AIGNBL02010223
 10
0
 20
0
 30
0
  0
INSERT
  8
LAYER_2
  2
AIGNBL02010224
 10
0
 20
0
 30
0
  0
INSERT
  8
LAYER_2
  2
AIGNBL02010225
 10
0
 20
0
 30
0
  0
INSERT
  8
LAYER_2
  2
AIGNBL02010226
 10
0
 20
0
 30
0
  0
INSERT
  8
LAYER_2
  2
AIGNBL02010227
 10
0
 20
0
 30
0
  0
INSERT
  8
LAYER_2
  2
AIGNBL02010228
 10
0
 20
0
 30
0
  0
INSERT
  8
LAYER_2
  2
AIGNBL02010229
 10
0
 20
0
 30
0
  0
INSERT
  8
LAYER_2
  2
AIGNBL0201022A
 10
0
 20
0
 30
0
  0
INSERT
  8
LAYER_2
  2
AIGNBL0201022B
 10
0
 20
0
 30
0
  0
INSERT
  8
LAYER_2
  2
AIGNBL0201022C
 10
0
 20
0
 30
0
  0
INSERT
  8
LAYER_2
  2
AIGNBL0201022D
 10
0
 20
0
 30
0
  0
INSERT
  8
LAYER_2
  2
AIGNBL0201022E
 10
0
 20
0
 30
0
  0
INSERT
  8
LAYER_2
  2
AIGNBL0201022F
 10
0
 20
0
 30
0
  0
INSERT
  8
LAYER_2
  2
AIGNBL02010230
 10
0
 20
0
 30
0
  0
INSERT
  8
LAYER_2
  2
AIGNBL02010234
 10
0
 20
0
 30
0
  0
INSERT
  8
LAYER_2
  2
AIGNBL02010238
 10
0
 20
0
 30
0
  0
INSERT
  8
LAYER_2
  2
AIGNBL02010239
 10
0
 20
0
 30
0
  0
INSERT
  8
LAYER_2
  2
AIGNBL0201023A
 10
0
 20
0
 30
0
  0
INSERT
  8
LAYER_2
  2
AIGNBL0201023B
 10
0
 20
0
 30
0
  0
INSERT
  8
LAYER_2
  2
AIGNBL0201023C
 10
0
 20
0
 30
0
  0
INSERT
  8
LAYER_2
  2
AIGNBL0201023D
 10
0
 20
0
 30
0
  0
INSERT
  8
LAYER_2
  2
AIGNBL0201023E
 10
0
 20
0
 30
0
  0
INSERT
  8
LAYER_2
  2
AIGNBL0201023F
 10
0
 20
0
 30
0
  0
INSERT
  8
LAYER_2
  2
AIGNBL02010240
 10
0
 20
0
 30
0
  0
INSERT
  8
LAYER_2
  2
AIGNBL02010241
 10
0
 20
0
 30
0
  0
INSERT
  8
LAYER_2
  2
AIGNBL02010242
 10
0
 20
0
 30
0
  0
INSERT
  8
LAYER_2
  2
AIGNBL02010243
 10
0
 20
0
 30
0
  0
INSERT
  8
LAYER_2
  2
AIGNBL02010244
 10
0
 20
0
 30
0
  0
INSERT
  8
LAYER_2
  2
AIGNBL02010245
 10
0
 20
0
 30
0
  0
INSERT
  8
LAYER_2
  2
AIGNBL02010246
 10
0
 20
0
 30
0
  0
INSERT
  8
LAYER_2
  2
AIGNBL02010247
 10
0
 20
0
 30
0
  0
INSERT
  8
LAYER_2
  2
AIGNBL02010248
 10
0
 20
0
 30
0
  0
INSERT
  8
LAYER_2
  2
AIGNBL02010249
 10
0
 20
0
 30
0
  0
INSERT
  8
LAYER_2
  2
AIGNBL0201024A
 10
0
 20
0
 30
0
  0
INSERT
  8
LAYER_2
  2
AIGNBL0201024B
 10
0
 20
0
 30
0
  0
INSERT
  8
LAYER_2
  2
AIGNBL0201024C
 10
0
 20
0
 30
0
  0
INSERT
  8
LAYER_2
  2
AIGNBL0201024D
 10
0
 20
0
 30
0
  0
INSERT
  8
LAYER_2
  2
AIGNBL0201024E
 10
0
 20
0
 30
0
  0
INSERT
  8
LAYER_2
  2
AIGNBL0201024F
 10
0
 20
0
 30
0
  0
INSERT
  8
LAYER_2
  2
AIGNBL02010250
 10
0
 20
0
 30
0
  0
INSERT
  8
LAYER_2
  2
AIGNBL02010251
 10
0
 20
0
 30
0
  0
INSERT
  8
LAYER_2
  2
AIGNBL02010252
 10
0
 20
0
 30
0
  0
INSERT
  8
LAYER_2
  2
AIGNBL02010253
 10
0
 20
0
 30
0
  0
INSERT
  8
LAYER_2
  2
AIGNBL02010254
 10
0
 20
0
 30
0
  0
INSERT
  8
LAYER_2
  2
AIGNBL02010255
 10
0
 20
0
 30
0
  0
INSERT
  8
LAYER_2
  2
AIGNBL02010256
 10
0
 20
0
 30
0
  0
INSERT
  8
LAYER_2
  2
AIGNBL02010257
 10
0
 20
0
 30
0
  0
INSERT
  8
LAYER_2
  2
AIGNBL02010258
 10
0
 20
0
 30
0
  0
INSERT
  8
LAYER_2
  2
AIGNBL02010259
 10
0
 20
0
 30
0
  0
INSERT
  8
LAYER_2
  2
AIGNBL0201025A
 10
0
 20
0
 30
0
  0
INSERT
  8
LAYER_2
  2
AIGNBL0201025B
 10
0
 20
0
 30
0
  0
INSERT
  8
LAYER_2
  2
AIGNBL0201025C
 10
0
 20
0
 30
0
  0
INSERT
  8
LAYER_2
  2
AIGNBL0201025D
 10
0
 20
0
 30
0
  0
INSERT
  8
LAYER_2
  2
AIGNBL0201025E
 10
0
 20
0
 30
0
  0
INSERT
  8
LAYER_2
  2
AIGNBL0201025F
 10
0
 20
0
 30
0
  0
INSERT
  8
LAYER_2
  2
AIGNBL02010260
 10
0
 20
0
 30
0
  0
INSERT
  8
LAYER_2
  2
AIGNBL02010261
 10
0
 20
0
 30
0
  0
INSERT
  8
LAYER_2
  2
AIGNBL02010262
 10
0
 20
0
 30
0
  0
INSERT
  8
LAYER_2
  2
AIGNBL02010263
 10
0
 20
0
 30
0
  0
INSERT
  8
LAYER_2
  2
AIGNBL02010264
 10
0
 20
0
 30
0
  0
INSERT
  8
LAYER_2
  2
AIGNBL02010265
 10
0
 20
0
 30
0
  0
INSERT
  8
LAYER_2
  2
AIGNBL02010266
 10
0
 20
0
 30
0
  0
INSERT
  8
LAYER_2
  2
AIGNBL02010267
 10
0
 20
0
 30
0
  0
INSERT
  8
LAYER_2
  2
AIGNBL02010268
 10
0
 20
0
 30
0
  0
INSERT
  8
LAYER_2
  2
AIGNBL02010269
 10
0
 20
0
 30
0
  0
INSERT
  8
LAYER_2
  2
AIGNBL0201026A
 10
0
 20
0
 30
0
  0
INSERT
  8
LAYER_2
  2
AIGNBL0201026B
 10
0
 20
0
 30
0
  0
INSERT
  8
LAYER_2
  2
AIGNBL0201026C
 10
0
 20
0
 30
0
  0
INSERT
  8
LAYER_2
  2
AIGNBL0201026D
 10
0
 20
0
 30
0
  0
INSERT
  8
LAYER_2
  2
AIGNBL02010271
 10
0
 20
0
 30
0
  0
INSERT
  8
LAYER_2
  2
AIGNBL02010275
 10
0
 20
0
 30
0
  0
INSERT
  8
LAYER_2
  2
AIGNBL02010276
 10
0
 20
0
 30
0
  0
INSERT
  8
LAYER_2
  2
AIGNBL02010277
 10
0
 20
0
 30
0
  0
INSERT
  8
LAYER_2
  2
AIGNBL02010278
 10
0
 20
0
 30
0
  0
INSERT
  8
LAYER_2
  2
AIGNBL02010279
 10
0
 20
0
 30
0
  0
INSERT
  8
LAYER_2
  2
AIGNBL0201027A
 10
0
 20
0
 30
0
  0
INSERT
  8
LAYER_2
  2
AIGNBL0201027B
 10
0
 20
0
 30
0
  0
INSERT
  8
LAYER_2
  2
AIGNBL0201027F
 10
0
 20
0
 30
0
  0
INSERT
  8
LAYER_2
  2
AIGNBL02010280
 10
0
 20
0
 30
0
  0
INSERT
  8
LAYER_2
  2
AIGNBL02010281
 10
0
 20
0
 30
0
  0
INSERT
  8
LAYER_2
  2
AIGNBL02010282
 10
0
 20
0
 30
0
  0
INSERT
  8
LAYER_2
  2
AIGNBL02010283
 10
0
 20
0
 30
0
  0
INSERT
  8
LAYER_2
  2
AIGNBL02010287
 10
0
 20
0
 30
0
  0
INSERT
  8
LAYER_2
  2
AIGNBL0201028B
 10
0
 20
0
 30
0
  0
INSERT
  8
LAYER_2
  2
AIGNBL0201028C
 10
0
 20
0
 30
0
  0
INSERT
  8
LAYER_2
  2
AIGNBL0201028D
 10
0
 20
0
 30
0
  0
INSERT
  8
LAYER_2
  2
AIGNBL02010291
 10
0
 20
0
 30
0
  0
INSERT
  8
LAYER_2
  2
AIGNBL02010292
 10
0
 20
0
 30
0
  0
INSERT
  8
LAYER_2
  2
AIGNBL02010293
 10
0
 20
0
 30
0
  0
INSERT
  8
LAYER_2
  2
AIGNBL02010294
 10
0
 20
0
 30
0
  0
INSERT
  8
LAYER_2
  2
AIGNBL02010295
 10
0
 20
0
 30
0
  0
INSERT
  8
LAYER_2
  2
AIGNBL02010299
 10
0
 20
0
 30
0
  0
INSERT
  8
LAYER_2
  2
AIGNBL0201029D
 10
0
 20
0
 30
0
  0
INSERT
  8
LAYER_2
  2
AIGNBL020102A1
 10
0
 20
0
 30
0
  0
INSERT
  8
LAYER_2
  2
AIGNBL020102A2
 10
0
 20
0
 30
0
  0
INSERT
  8
LAYER_2
  2
AIGNBL020102A3
 10
0
 20
0
 30
0
  0
INSERT
  8
LAYER_2
  2
AIGNBL020102A4
 10
0
 20
0
 30
0
  0
INSERT
  8
LAYER_2
  2
AIGNBL020102A5
 10
0
 20
0
 30
0
  0
INSERT
  8
LAYER_2
  2
AIGNBL020102A9
 10
0
 20
0
 30
0
  0
INSERT
  8
LAYER_2
  2
AIGNBL020102AD
 10
0
 20
0
 30
0
  0
INSERT
  8
LAYER_2
  2
AIGNBL020102AE
 10
0
 20
0
 30
0
  0
INSERT
  8
LAYER_2
  2
AIGNBL020102AF
 10
0
 20
0
 30
0
  0
INSERT
  8
LAYER_2
  2
AIGNBL020102B0
 10
0
 20
0
 30
0
  0
INSERT
  8
LAYER_2
  2
AIGNBL020102B4
 10
0
 20
0
 30
0
  0
INSERT
  8
LAYER_2
  2
AIGNBL020102B8
 10
0
 20
0
 30
0
  0
INSERT
  8
LAYER_2
  2
AIGNBL020102B9
 10
0
 20
0
 30
0
  0
INSERT
  8
LAYER_2
  2
AIGNBL020102BA
 10
0
 20
0
 30
0
  0
INSERT
  8
LAYER_2
  2
AIGNBL020102BB
 10
0
 20
0
 30
0
  0
INSERT
  8
LAYER_2
  2
AIGNBL020102BC
 10
0
 20
0
 30
0
  0
INSERT
  8
LAYER_2
  2
AIGNBL020102BD
 10
0
 20
0
 30
0
  0
INSERT
  8
LAYER_2
  2
AIGNBL020102BE
 10
0
 20
0
 30
0
  0
INSERT
  8
LAYER_2
  2
AIGNBL020102BF
 10
0
 20
0
 30
0
  0
INSERT
  8
LAYER_2
  2
AIGNBL020102C0
 10
0
 20
0
 30
0
  0
INSERT
  8
LAYER_2
  2
AIGNBL020102C1
 10
0
 20
0
 30
0
  0
INSERT
  8
LAYER_2
  2
AIGNBL020102C2
 10
0
 20
0
 30
0
  0
INSERT
  8
LAYER_2
  2
AIGNBL020102C3
 10
0
 20
0
 30
0
  0
INSERT
  8
LAYER_2
  2
AIGNBL020102C4
 10
0
 20
0
 30
0
  0
INSERT
  8
LAYER_2
  2
AIGNBL020102C5
 10
0
 20
0
 30
0
  0
INSERT
  8
LAYER_2
  2
AIGNBL020102C6
 10
0
 20
0
 30
0
  0
INSERT
  8
LAYER_2
  2
AIGNBL020102C7
 10
0
 20
0
 30
0
  0
INSERT
  8
LAYER_2
  2
AIGNBL020102C8
 10
0
 20
0
 30
0
  0
INSERT
  8
LAYER_2
  2
AIGNBL020102C9
 10
0
 20
0
 30
0
  0
INSERT
  8
LAYER_2
  2
AIGNBL020102CA
 10
0
 20
0
 30
0
  0
INSERT
  8
LAYER_2
  2
AIGNBL020102CB
 10
0
 20
0
 30
0
  0
INSERT
  8
LAYER_2
  2
AIGNBL020102CC
 10
0
 20
0
 30
0
  0
INSERT
  8
LAYER_2
  2
AIGNBL020102CD
 10
0
 20
0
 30
0
  0
INSERT
  8
LAYER_2
  2
AIGNBL020102CE
 10
0
 20
0
 30
0
  0
INSERT
  8
LAYER_2
  2
AIGNBL020102CF
 10
0
 20
0
 30
0
  0
INSERT
  8
LAYER_2
  2
AIGNBL020102D0
 10
0
 20
0
 30
0
  0
INSERT
  8
LAYER_2
  2
AIGNBL020102D1
 10
0
 20
0
 30
0
  0
INSERT
  8
LAYER_2
  2
AIGNBL020102D2
 10
0
 20
0
 30
0
  0
INSERT
  8
LAYER_2
  2
AIGNBL020102D3
 10
0
 20
0
 30
0
  0
INSERT
  8
LAYER_2
  2
AIGNBL020102D4
 10
0
 20
0
 30
0
  0
INSERT
  8
LAYER_2
  2
AIGNBL020102D5
 10
0
 20
0
 30
0
  0
INSERT
  8
LAYER_2
  2
AIGNBL020102D6
 10
0
 20
0
 30
0
  0
INSERT
  8
LAYER_2
  2
AIGNBL020102D7
 10
0
 20
0
 30
0
  0
INSERT
  8
LAYER_2
  2
AIGNBL020102D8
 10
0
 20
0
 30
0
  0
INSERT
  8
LAYER_2
  2
AIGNBL020102D9
 10
0
 20
0
 30
0
  0
INSERT
  8
LAYER_2
  2
AIGNBL020102DA
 10
0
 20
0
 30
0
  0
INSERT
  8
LAYER_2
  2
AIGNBL020102DB
 10
0
 20
0
 30
0
  0
INSERT
  8
LAYER_2
  2
AIGNBL020102DC
 10
0
 20
0
 30
0
  0
INSERT
  8
LAYER_2
  2
AIGNBL020102DD
 10
0
 20
0
 30
0
  0
INSERT
  8
LAYER_2
  2
AIGNBL020102DE
 10
0
 20
0
 30
0
  0
INSERT
  8
LAYER_2
  2
AIGNBL020102DF
 10
0
 20
0
 30
0
  0
INSERT
  8
LAYER_2
  2
AIGNBL020102E0
 10
0
 20
0
 30
0
  0
INSERT
  8
LAYER_2
  2
AIGNBL020102E1
 10
0
 20
0
 30
0
  0
INSERT
  8
LAYER_2
  2
AIGNBL020102E2
 10
0
 20
0
 30
0
  0
INSERT
  8
LAYER_2
  2
AIGNBL020102E3
 10
0
 20
0
 30
0
  0
INSERT
  8
LAYER_2
  2
AIGNBL020102E4
 10
0
 20
0
 30
0
  0
INSERT
  8
LAYER_2
  2
AIGNBL020102E5
 10
0
 20
0
 30
0
  0
INSERT
  8
LAYER_2
  2
AIGNBL020102E6
 10
0
 20
0
 30
0
  0
INSERT
  8
LAYER_2
  2
AIGNBL020102E7
 10
0
 20
0
 30
0
  0
INSERT
  8
LAYER_2
  2
AIGNBL020102E8
 10
0
 20
0
 30
0
  0
INSERT
  8
LAYER_2
  2
AIGNBL020102E9
 10
0
 20
0
 30
0
  0
INSERT
  8
LAYER_2
  2
AIGNBL020102EA
 10
0
 20
0
 30
0
  0
INSERT
  8
LAYER_2
  2
AIGNBL020102EB
 10
0
 20
0
 30
0
  0
INSERT
  8
LAYER_2
  2
AIGNBL020102EC
 10
0
 20
0
 30
0
  0
INSERT
  8
LAYER_2
  2
AIGNBL020102ED
 10
0
 20
0
 30
0
  0
INSERT
  8
LAYER_2
  2
AIGNBL020102EE
 10
0
 20
0
 30
0
  0
INSERT
  8
LAYER_2
  2
AIGNBL020102EF
 10
0
 20
0
 30
0
  0
INSERT
  8
LAYER_2
  2
AIGNBL020102F0
 10
0
 20
0
 30
0
  0
INSERT
  8
LAYER_2
  2
AIGNBL020102F1
 10
0
 20
0
 30
0
  0
INSERT
  8
LAYER_2
  2
AIGNBL020102F2
 10
0
 20
0
 30
0
  0
INSERT
  8
LAYER_2
  2
AIGNBL020102F3
 10
0
 20
0
 30
0
  0
INSERT
  8
LAYER_2
  2
AIGNBL020102F4
 10
0
 20
0
 30
0
  0
INSERT
  8
LAYER_2
  2
AIGNBL020102F5
 10
0
 20
0
 30
0
  0
INSERT
  8
LAYER_2
  2
AIGNBL020102F6
 10
0
 20
0
 30
0
  0
INSERT
  8
LAYER_2
  2
AIGNBL020102F7
 10
0
 20
0
 30
0
  0
INSERT
  8
LAYER_2
  2
AIGNBL020102F8
 10
0
 20
0
 30
0
  0
INSERT
  8
LAYER_2
  2
AIGNBL020102F9
 10
0
 20
0
 30
0
  0
INSERT
  8
LAYER_2
  2
AIGNBL020102FA
 10
0
 20
0
 30
0
  0
INSERT
  8
LAYER_2
  2
AIGNBL020102FB
 10
0
 20
0
 30
0
  0
INSERT
  8
LAYER_2
  2
AIGNBL020102FC
 10
0
 20
0
 30
0
  0
INSERT
  8
LAYER_2
  2
AIGNBL020102FD
 10
0
 20
0
 30
0
  0
INSERT
  8
LAYER_2
  2
AIGNBL020102FE
 10
0
 20
0
 30
0
  0
INSERT
  8
LAYER_2
  2
AIGNBL020102FF
 10
0
 20
0
 30
0
  0
INSERT
  8
LAYER_2
  2
AIGNBL02010300
 10
0
 20
0
 30
0
  0
INSERT
  8
LAYER_2
  2
AIGNBL02010301
 10
0
 20
0
 30
0
  0
INSERT
  8
LAYER_2
  2
AIGNBL02010302
 10
0
 20
0
 30
0
  0
INSERT
  8
LAYER_2
  2
AIGNBL02010303
 10
0
 20
0
 30
0
  0
INSERT
  8
LAYER_2
  2
AIGNBL02010304
 10
0
 20
0
 30
0
  0
INSERT
  8
LAYER_2
  2
AIGNBL02010305
 10
0
 20
0
 30
0
  0
INSERT
  8
LAYER_2
  2
AIGNBL02010306
 10
0
 20
0
 30
0
  0
INSERT
  8
LAYER_2
  2
AIGNBL02010307
 10
0
 20
0
 30
0
  0
INSERT
  8
LAYER_2
  2
AIGNBL02010308
 10
0
 20
0
 30
0
  0
INSERT
  8
LAYER_2
  2
AIGNBL02010309
 10
0
 20
0
 30
0
  0
INSERT
  8
LAYER_2
  2
AIGNBL0201030A
 10
0
 20
0
 30
0
  0
INSERT
  8
LAYER_2
  2
AIGNBL0201030B
 10
0
 20
0
 30
0
  0
INSERT
  8
LAYER_2
  2
AIGNBL0201030C
 10
0
 20
0
 30
0
  0
INSERT
  8
LAYER_2
  2
AIGNBL0201030D
 10
0
 20
0
 30
0
  0
INSERT
  8
LAYER_2
  2
AIGNBL0201030E
 10
0
 20
0
 30
0
  0
INSERT
  8
LAYER_2
  2
AIGNBL0201030F
 10
0
 20
0
 30
0
  0
INSERT
  8
LAYER_2
  2
AIGNBL02010310
 10
0
 20
0
 30
0
  0
INSERT
  8
LAYER_2
  2
AIGNBL02010311
 10
0
 20
0
 30
0
  0
INSERT
  8
LAYER_2
  2
AIGNBL02010312
 10
0
 20
0
 30
0
  0
INSERT
  8
LAYER_2
  2
AIGNBL02010313
 10
0
 20
0
 30
0
  0
INSERT
  8
LAYER_2
  2
AIGNBL02010314
 10
0
 20
0
 30
0
  0
INSERT
  8
LAYER_2
  2
AIGNBL02010315
 10
0
 20
0
 30
0
  0
INSERT
  8
LAYER_2
  2
AIGNBL02010316
 10
0
 20
0
 30
0
  0
INSERT
  8
LAYER_2
  2
AIGNBL02010317
 10
0
 20
0
 30
0
  0
INSERT
  8
LAYER_2
  2
AIGNBL02010318
 10
0
 20
0
 30
0
  0
INSERT
  8
LAYER_2
  2
AIGNBL02010319
 10
0
 20
0
 30
0
  0
INSERT
  8
LAYER_2
  2
AIGNBL0201031A
 10
0
 20
0
 30
0
  0
INSERT
  8
LAYER_2
  2
AIGNBL0201031B
 10
0
 20
0
 30
0
  0
INSERT
  8
LAYER_2
  2
AIGNBL0201031C
 10
0
 20
0
 30
0
  0
INSERT
  8
LAYER_2
  2
AIGNBL0201031D
 10
0
 20
0
 30
0
  0
INSERT
  8
LAYER_2
  2
AIGNBL0201031E
 10
0
 20
0
 30
0
  0
INSERT
  8
LAYER_2
  2
AIGNBL0201031F
 10
0
 20
0
 30
0
  0
INSERT
  8
LAYER_2
  2
AIGNBL02010320
 10
0
 20
0
 30
0
  0
INSERT
  8
LAYER_2
  2
AIGNBL02010321
 10
0
 20
0
 30
0
  0
INSERT
  8
LAYER_2
  2
AIGNBL02010322
 10
0
 20
0
 30
0
  0
INSERT
  8
LAYER_2
  2
AIGNBL02010323
 10
0
 20
0
 30
0
  0
INSERT
  8
LAYER_2
  2
AIGNBL02010324
 10
0
 20
0
 30
0
  0
INSERT
  8
LAYER_2
  2
AIGNBL02010325
 10
0
 20
0
 30
0
  0
INSERT
  8
LAYER_2
  2
AIGNBL02010326
 10
0
 20
0
 30
0
  0
INSERT
  8
LAYER_2
  2
AIGNBL02010327
 10
0
 20
0
 30
0
  0
INSERT
  8
LAYER_2
  2
AIGNBL02010328
 10
0
 20
0
 30
0
  0
INSERT
  8
LAYER_2
  2
AIGNBL02010329
 10
0
 20
0
 30
0
  0
INSERT
  8
LAYER_2
  2
AIGNBL0201032A
 10
0
 20
0
 30
0
  0
INSERT
  8
LAYER_2
  2
AIGNBL0201032B
 10
0
 20
0
 30
0
  0
INSERT
  8
LAYER_2
  2
AIGNBL0201032C
 10
0
 20
0
 30
0
  0
INSERT
  8
LAYER_2
  2
AIGNBL0201032D
 10
0
 20
0
 30
0
  0
INSERT
  8
LAYER_2
  2
AIGNBL0201032E
 10
0
 20
0
 30
0
  0
INSERT
  8
LAYER_2
  2
AIGNBL0201032F
 10
0
 20
0
 30
0
  0
INSERT
  8
LAYER_2
  2
AIGNBL02010330
 10
0
 20
0
 30
0
  0
INSERT
  8
LAYER_2
  2
AIGNBL02010331
 10
0
 20
0
 30
0
  0
INSERT
  8
LAYER_2
  2
AIGNBL02010332
 10
0
 20
0
 30
0
  0
INSERT
  8
LAYER_2
  2
AIGNBL02010333
 10
0
 20
0
 30
0
  0
INSERT
  8
LAYER_2
  2
AIGNBL02010334
 10
0
 20
0
 30
0
  0
INSERT
  8
LAYER_2
  2
AIGNBL02010335
 10
0
 20
0
 30
0
  0
INSERT
  8
LAYER_2
  2
AIGNBL02010336
 10
0
 20
0
 30
0
  0
INSERT
  8
LAYER_2
  2
AIGNBL02010337
 10
0
 20
0
 30
0
  0
INSERT
  8
LAYER_2
  2
AIGNBL02010338
 10
0
 20
0
 30
0
  0
INSERT
  8
LAYER_2
  2
AIGNBL02010339
 10
0
 20
0
 30
0
  0
INSERT
  8
LAYER_2
  2
AIGNBL0201033A
 10
0
 20
0
 30
0
  0
INSERT
  8
LAYER_2
  2
AIGNBL0201033B
 10
0
 20
0
 30
0
  0
INSERT
  8
LAYER_2
  2
AIGNBL0201033C
 10
0
 20
0
 30
0
  0
INSERT
  8
LAYER_2
  2
AIGNBL0201033D
 10
0
 20
0
 30
0
  0
INSERT
  8
LAYER_2
  2
AIGNBL0201033E
 10
0
 20
0
 30
0
  0
INSERT
  8
LAYER_2
  2
AIGNBL0201033F
 10
0
 20
0
 30
0
  0
INSERT
  8
LAYER_2
  2
AIGNBL02010340
 10
0
 20
0
 30
0
  0
INSERT
  8
LAYER_2
  2
AIGNBL02010341
 10
0
 20
0
 30
0
  0
INSERT
  8
LAYER_2
  2
AIGNBL02010342
 10
0
 20
0
 30
0
  0
INSERT
  8
LAYER_2
  2
AIGNBL02010343
 10
0
 20
0
 30
0
  0
INSERT
  8
LAYER_2
  2
AIGNBL02010344
 10
0
 20
0
 30
0
  0
INSERT
  8
LAYER_2
  2
AIGNBL02010345
 10
0
 20
0
 30
0
  0
INSERT
  8
LAYER_2
  2
AIGNBL02010346
 10
0
 20
0
 30
0
  0
INSERT
  8
LAYER_2
  2
AIGNBL02010347
 10
0
 20
0
 30
0
  0
INSERT
  8
LAYER_2
  2
AIGNBL02010348
 10
0
 20
0
 30
0
  0
INSERT
  8
LAYER_2
  2
AIGNBL02010349
 10
0
 20
0
 30
0
  0
INSERT
  8
LAYER_2
  2
AIGNBL0201034A
 10
0
 20
0
 30
0
  0
INSERT
  8
LAYER_2
  2
AIGNBL0201034B
 10
0
 20
0
 30
0
  0
INSERT
  8
LAYER_2
  2
AIGNBL0201034C
 10
0
 20
0
 30
0
  0
INSERT
  8
LAYER_2
  2
AIGNBL0201034D
 10
0
 20
0
 30
0
  0
INSERT
  8
LAYER_2
  2
AIGNBL0201034E
 10
0
 20
0
 30
0
  0
INSERT
  8
LAYER_2
  2
AIGNBL0201034F
 10
0
 20
0
 30
0
  0
INSERT
  8
LAYER_2
  2
AIGNBL02010350
 10
0
 20
0
 30
0
  0
INSERT
  8
LAYER_2
  2
AIGNBL02010351
 10
0
 20
0
 30
0
  0
INSERT
  8
LAYER_2
  2
AIGNBL02010352
 10
0
 20
0
 30
0
  0
INSERT
  8
LAYER_2
  2
AIGNBL02010353
 10
0
 20
0
 30
0
  0
INSERT
  8
LAYER_2
  2
AIGNBL02010354
 10
0
 20
0
 30
0
  0
INSERT
  8
LAYER_2
  2
AIGNBL02010355
 10
0
 20
0
 30
0
  0
INSERT
  8
LAYER_2
  2
AIGNBL02010356
 10
0
 20
0
 30
0
  0
INSERT
  8
LAYER_2
  2
AIGNBL02010357
 10
0
 20
0
 30
0
  0
INSERT
  8
LAYER_2
  2
AIGNBL02010358
 10
0
 20
0
 30
0
  0
INSERT
  8
LAYER_2
  2
AIGNBL02010359
 10
0
 20
0
 30
0
  0
INSERT
  8
LAYER_2
  2
AIGNBL0201035A
 10
0
 20
0
 30
0
  0
INSERT
  8
LAYER_2
  2
AIGNBL0201035B
 10
0
 20
0
 30
0
  0
INSERT
  8
LAYER_2
  2
AIGNBL0201035C
 10
0
 20
0
 30
0
  0
INSERT
  8
LAYER_2
  2
AIGNBL0201035D
 10
0
 20
0
 30
0
  0
INSERT
  8
LAYER_2
  2
AIGNBL0201035E
 10
0
 20
0
 30
0
  0
INSERT
  8
LAYER_2
  2
AIGNBL0201035F
 10
0
 20
0
 30
0
  0
TEXT
  8
LAYER_7
 10
18.4399
 20
5.4632
 11
18.4399
 21
5.4632
 40
3.2995
 41
0.5
  1
仕様
  0
POLYLINE
  8
LAYER_7
 40
0.3528
 41
0.3528
 66
1
 10
0
 20
0
 30
0
  0
VERTEX
  8
LAYER_7
 10
205.0762
 20
10.8455
  0
VERTEX
  8
LAYER_7
 10
17.0763
 20
10.8455
  0
SEQEND
  0
INSERT
  8
LAYER_7
  2
AIGNBL07010002
 10
0
 20
0
 30
0
  0
POLYLINE
  8
LAYER_7
 40
0.3528
 41
0.3528
 66
1
 10
0
 20
0
 30
0
  0
VERTEX
  8
LAYER_7
 10
17.0763
 20
268.2234
  0
VERTEX
  8
LAYER_7
 10
17.0763
 20
-6.7768
  0
VERTEX
  8
LAYER_7
 10
205.0762
 20
-6.7768
  0
VERTEX
  8
LAYER_7
 10
205.0762
 20
268.2234
  0
VERTEX
  8
LAYER_7
 10
17.0763
 20
268.2234
  0
SEQEND
  0
POLYLINE
  8
LAYER_7
 40
0.3528
 41
0.3528
 66
1
 10
0
 20
0
 30
0
  0
VERTEX
  8
LAYER_7
 10
205.0762
 20
19.3545
  0
VERTEX
  8
LAYER_7
 10
17.0763
 20
19.3545
  0
SEQEND
  0
POLYLINE
  8
LAYER_7
 40
0.3528
 41
0.3528
 66
1
 10
0
 20
0
 30
0
  0
VERTEX
  8
LAYER_7
 10
205.0762
 20
2.3365
  0
VERTEX
  8
LAYER_7
 10
127.3025
 20
2.3365
  0
SEQEND
  0
TEXT
  8
LAYER_7
 10
157.5084
 20
4.6123
 11
157.5084
 21
4.6123
 40
3.7615
 41
0.5
  1
-
  0
TEXT
  8
LAYER_7
 10
152.2167
 20
8.3692
 11
152.2167
 21
8.3692
 40
2.1997
 41
0.5
  1
縮尺
  0
POLYLINE
  8
LAYER_7
 40
0.3528
 41
0.3528
 66
1
 10
0
 20
0
 30
0
  0
VERTEX
  8
LAYER_7
 10
150.6885
 20
2.3365
  0
VERTEX
  8
LAYER_7
 10
150.6885
 20
10.8455
  0
SEQEND
  0
TEXT
  8
LAYER_7
 10
128.0011
 20
16.8782
 11
128.0011
 21
16.8782
 40
2.1997
 41
0.5
  1
品番
  0
TEXT
  8
LAYER_7
 10
18.2332
 20
16.8782
 11
18.2332
 21
16.8782
 40
2.1997
 41
0.5
  1
品名
  0
TEXT
  8
LAYER_7
 10
128.0011
 20
8.3692
 11
128.0011
 21
8.3692
 40
2.1997
 41
0.5
  1
重量
  0
TEXT
  8
LAYER_7
 10
135.5345
 20
13.0462
 11
135.5345
 21
13.0462
 40
5.9385
 41
0.5
  1
HITS-KM7021M5
  0
TEXT
  8
LAYER_7
 10
133.3138
 20
4.6123
 11
133.3138
 21
4.6123
 40
3.7615
 41
0.5
  1
-
  0
POLYLINE
  8
LAYER_7
 40
0.3528
 41
0.3528
 66
1
 10
0
 20
0
 30
0
  0
VERTEX
  8
LAYER_7
 10
127.3025
 20
-6.1512
  0
VERTEX
  8
LAYER_7
 10
127.3025
 20
19.3545
  0
SEQEND
  0
TEXT
  8
LAYER_7
 10
24.3868
 20
13.7859
 11
24.3868
 21
13.7859
 40
4.1465
 41
0.5
  1
シングルレバー洗面混合水栓 マットブラック
  0
TEXT
  8
LAYER_7
 10
29.012
 20
6.2546
 11
29.012
 21
6.2546
 40
3.258
 41
0.5
  1
●マットブラック●JIS●取り付け穴径φ35mm用アダプタつき
  0
TEXT
  8
LAYER_7
 10
191.6644
 20
22.153
 11
191.6644
 21
22.153
 40
2.9618
 41
0.5
  1
単位：mm
  0
TEXT
  8
LAYER_7
 10
192.6442
 20
263.5136
 11
192.6442
 21
263.5136
 40
2.0732
 41
0.5
  1
180401RT
  0
TEXT
  8
LAYER_7
 10
154.3861
 20
-1.5679
 11
154.3861
 21
-1.5679
 40
2.8694
 41
0.5
  1
●TEL 0120-65-1232●FAX 06-6532-1580
  0
TEXT
  8
LAYER_7
 10
154.3861
 20
-4.5472
 11
154.3861
 21
-4.5472
 40
2.8694
 41
0.5
  1
hits@hiratatile.co.jp
  0
INSERT
  8
LAYER_7
  2
AIGNBL07010003
 10
0
 20
0
 30
0
  0
ENDSEC
  0
EOF
