  0
SECTION
  2
HEADER
  9
$ACADVER
  1
AC1009
  9
$LUNITS
 70
2
  9
$LUPREC
 70
4
  9
$LTSCALE
 40
1.0
  9
$EXTMIN
 10
6.4956
 20
-289.4965
 30
0
  9
$EXTMAX
 10
203.5039
 20
86.9597
 30
0
  0
ENDSEC
  0
SECTION
  2
TABLES
  0
TABLE
  2
LTYPE
 70
256
  0
ENDTAB
  0
TABLE
  2
LAYER
 70
1
  0
LAYER
  2
LAYER_1
 70
64
 62
7
  6
CONTINUOUS
  0
ENDTAB
  0
TABLE
  2
STYLE
 70
6
  0
STYLE
  2
STANDARD
 70
0
 40
0
 50
0
 71
0
 41
0
 42
0
  3
TXT
  4
BIGFONT
  0
ENDTAB
  0
ENDSEC
  0
SECTION
  2
BLOCKS
  0
BLOCK
  8
LAYER_1
  2
AIGNBL01030005
 70
64
 10
0
 20
0
 30
0
  3
AIGNBL01030005
  0
POLYLINE
  8
LAYER_1
 40
0.05
 41
0.05
 66
1
 10
0
 20
0
 30
0
 70
1
  0
VERTEX
  8
LAYER_1
 10
127.8912
 20
-278.5229
  0
VERTEX
  8
LAYER_1
 10
127.8912
 20
-276.8145
  0
VERTEX
  8
LAYER_1
 10
129.0429
 20
-276.8145
  0
VERTEX
  8
LAYER_1
 10
129.0429
 20
-281.2435
  0
VERTEX
  8
LAYER_1
 10
127.8912
 20
-281.2435
  0
VERTEX
  8
LAYER_1
 10
127.8912
 20
-279.4289
  0
VERTEX
  8
LAYER_1
 10
126.2286
 20
-279.4289
  0
VERTEX
  8
LAYER_1
 10
126.2286
 20
-281.2435
  0
VERTEX
  8
LAYER_1
 10
125.0766
 20
-281.2435
  0
VERTEX
  8
LAYER_1
 10
125.0766
 20
-276.8145
  0
VERTEX
  8
LAYER_1
 10
126.2286
 20
-276.8145
  0
VERTEX
  8
LAYER_1
 10
126.2286
 20
-278.5229
  0
SEQEND
  0
ENDBLK
  0
BLOCK
  8
LAYER_1
  2
AIGNBL01030006
 70
64
 10
0
 20
0
 30
0
  3
AIGNBL01030006
  0
POLYLINE
  8
LAYER_1
 40
0.05
 41
0.05
 66
1
 10
0
 20
0
 30
0
 70
1
  0
VERTEX
  8
LAYER_1
 10
132.373
 20
-281.2442
  0
VERTEX
  8
LAYER_1
 10
131.3029
 20
-281.2442
  0
VERTEX
  8
LAYER_1
 10
131.3029
 20
-279.4048
  0
VERTEX
  8
LAYER_1
 10
130.812
 20
-279.4048
  0
VERTEX
  8
LAYER_1
 10
130.812
 20
-278.5229
  0
VERTEX
  8
LAYER_1
 10
131.3029
 20
-278.5229
  0
VERTEX
  8
LAYER_1
 10
131.3029
 20
-277.325
  0
VERTEX
  8
LAYER_1
 10
132.373
 20
-277.325
  0
VERTEX
  8
LAYER_1
 10
132.373
 20
-278.5229
  0
VERTEX
  8
LAYER_1
 10
132.9779
 20
-278.5229
  0
VERTEX
  8
LAYER_1
 10
132.9779
 20
-279.4048
  0
VERTEX
  8
LAYER_1
 10
132.373
 20
-279.4048
  0
SEQEND
  0
ENDBLK
  0
BLOCK
  8
LAYER_1
  2
AIGNBL01030007
 70
64
 10
0
 20
0
 30
0
  3
AIGNBL01030007
  0
POLYLINE
  8
LAYER_1
 40
0.05
 41
0.05
 66
1
 10
0
 20
0
 30
0
 70
1
  0
VERTEX
  8
LAYER_1
 10
135.229
 20
-279.0062
 42
0.1135607061
  0
VERTEX
  8
LAYER_1
 10
134.6522
 20
-278.8584
 42
0.1136903521
  0
VERTEX
  8
LAYER_1
 10
134.4296
 20
-278.9095
 42
0.2731701558
  0
VERTEX
  8
LAYER_1
 10
134.3181
 20
-279.0648
 42
0.2034660259
  0
VERTEX
  8
LAYER_1
 10
134.3695
 20
-279.1852
 42
0.1090752587
  0
VERTEX
  8
LAYER_1
 10
134.5082
 20
-279.2644
 42
0.03914809815
  0
VERTEX
  8
LAYER_1
 10
134.7987
 20
-279.3304
 42
-0.1328866115
  0
VERTEX
  8
LAYER_1
 10
135.4387
 20
-279.6176
 42
-0.2191245476
  0
VERTEX
  8
LAYER_1
 10
135.6744
 20
-280.2227
 42
-0.1500049023
  0
VERTEX
  8
LAYER_1
 10
135.5032
 20
-280.8096
 42
-0.1343607064
  0
VERTEX
  8
LAYER_1
 10
135.0672
 20
-281.1725
 42
-0.1053089572
  0
VERTEX
  8
LAYER_1
 10
134.3521
 20
-281.3422
 42
-0.01133759066
  0
VERTEX
  8
LAYER_1
 10
134.2536
 20
-281.3444
 42
-0.1381032615
  0
VERTEX
  8
LAYER_1
 10
133.0375
 20
-280.9968
  0
VERTEX
  8
LAYER_1
 10
133.4251
 20
-280.2527
 42
0.1057853806
  0
VERTEX
  8
LAYER_1
 10
134.161
 20
-280.5492
 42
0.02629008664
  0
VERTEX
  8
LAYER_1
 10
134.2712
 20
-280.5569
 42
0.1189845002
  0
VERTEX
  8
LAYER_1
 10
134.4862
 20
-280.5057
 42
0.2715607729
  0
VERTEX
  8
LAYER_1
 10
134.6061
 20
-280.3281
 42
0.1912956569
  0
VERTEX
  8
LAYER_1
 10
134.5584
 20
-280.1988
 42
0.1164693259
  0
VERTEX
  8
LAYER_1
 10
134.4254
 20
-280.1151
 42
0.03908002366
  0
VERTEX
  8
LAYER_1
 10
133.9357
 20
-279.9926
 42
-0.1613392594
  0
VERTEX
  8
LAYER_1
 10
133.4097
 20
-279.6918
 42
-0.1665211634
  0
VERTEX
  8
LAYER_1
 10
133.2671
 20
-279.2368
 42
-0.008235732646
  0
VERTEX
  8
LAYER_1
 10
133.2666
 20
-279.1995
 42
-0.1552553609
  0
VERTEX
  8
LAYER_1
 10
133.4419
 20
-278.6232
 42
-0.1392394507
  0
VERTEX
  8
LAYER_1
 10
133.8983
 20
-278.2674
 42
-0.1058138945
  0
VERTEX
  8
LAYER_1
 10
134.5947
 20
-278.1305
 42
-0.09797794176
  0
VERTEX
  8
LAYER_1
 10
135.543
 20
-278.3057
 42
-0.006206145813
  0
VERTEX
  8
LAYER_1
 10
135.5869
 20
-278.3251
  0
SEQEND
  0
ENDBLK
  0
BLOCK
  8
LAYER_1
  2
AIGNBL01020004
 70
64
 10
0
 20
0
 30
0
  3
AIGNBL01020004
  0
INSERT
  8
LAYER_1
  2
AIGNBL01030005
 10
0
 20
0
 30
0
  0
POLYLINE
  8
LAYER_1
 40
0.05
 41
0.05
 66
1
 10
0
 20
0
 30
0
 70
1
  0
VERTEX
  8
LAYER_1
 10
130.5471
 20
-281.2435
  0
VERTEX
  8
LAYER_1
 10
129.4781
 20
-281.2435
  0
VERTEX
  8
LAYER_1
 10
129.4781
 20
-278.5229
  0
VERTEX
  8
LAYER_1
 10
130.5478
 20
-278.5229
  0
SEQEND
  0
POLYLINE
  8
LAYER_1
 40
0.05
 41
0.05
 66
1
 10
0
 20
0
 30
0
 70
1
  0
VERTEX
  8
LAYER_1
 10
129.9642
 20
-278.2242
  0
VERTEX
  8
LAYER_1
 10
129.2758
 20
-275.9039
  0
VERTEX
  8
LAYER_1
 10
130.6959
 20
-275.9039
  0
SEQEND
  0
INSERT
  8
LAYER_1
  2
AIGNBL01030006
 10
0
 20
0
 30
0
  0
INSERT
  8
LAYER_1
  2
AIGNBL01030007
 10
0
 20
0
 30
0
  0
ENDBLK
  0
BLOCK
  8
LAYER_1
  2
AIGNBL01020008
 70
64
 10
0
 20
0
 30
0
  3
AIGNBL01020008
  0
POLYLINE
  8
LAYER_1
 40
0.05
 41
0.05
 66
1
 10
0
 20
0
 30
0
 70
1
  0
VERTEX
  8
LAYER_1
 10
125.0294
 20
-282.3714
 42
0.4516273411
  0
VERTEX
  8
LAYER_1
 10
125.2037
 20
-282.5171
 42
0.3962772344
  0
VERTEX
  8
LAYER_1
 10
125.3574
 20
-282.4186
 42
0.2746123562
  0
VERTEX
  8
LAYER_1
 10
125.3085
 20
-282.3454
 42
0.0592825379
  0
VERTEX
  8
LAYER_1
 10
125.1238
 20
-282.2877
 42
-0.1700991968
  0
VERTEX
  8
LAYER_1
 10
124.9319
 20
-282.1921
 42
-0.1846882004
  0
VERTEX
  8
LAYER_1
 10
124.8882
 20
-282.0637
 42
-0.3335949045
  0
VERTEX
  8
LAYER_1
 10
125.0575
 20
-281.8464
 42
-0.08164941443
  0
VERTEX
  8
LAYER_1
 10
125.1824
 20
-281.826
 42
-0.1390113576
  0
VERTEX
  8
LAYER_1
 10
125.3886
 20
-281.8753
 42
-0.2736889021
  0
VERTEX
  8
LAYER_1
 10
125.4986
 20
-282.0806
  0
VERTEX
  8
LAYER_1
 10
125.3309
 20
-282.0806
 42
0.4534393843
  0
VERTEX
  8
LAYER_1
 10
125.1755
 20
-281.9601
 42
0.4102311824
  0
VERTEX
  8
LAYER_1
 10
125.0566
 20
-282.0496
 42
0.3275642512
  0
VERTEX
  8
LAYER_1
 10
125.1013
 20
-282.1137
 42
0.03025474335
  0
VERTEX
  8
LAYER_1
 10
125.2905
 20
-282.1688
 42
-0.1717901918
  0
VERTEX
  8
LAYER_1
 10
125.4765
 20
-282.2625
 42
-0.1856598439
  0
VERTEX
  8
LAYER_1
 10
125.5248
 20
-282.3993
 42
-0.3251118641
  0
VERTEX
  8
LAYER_1
 10
125.3575
 20
-282.6258
 42
-0.08595371735
  0
VERTEX
  8
LAYER_1
 10
125.1975
 20
-282.6511
 42
-0.2618281529
  0
VERTEX
  8
LAYER_1
 10
124.8889
 20
-282.4972
 42
-0.1194349003
  0
VERTEX
  8
LAYER_1
 10
124.862
 20
-282.3714
  0
SEQEND
  0
ENDBLK
  0
BLOCK
  8
LAYER_1
  2
AIGNBL01020009
 70
64
 10
0
 20
0
 30
0
  3
AIGNBL01020009
  0
POLYLINE
  8
LAYER_1
 40
0.05
 41
0.05
 66
1
 10
0
 20
0
 30
0
 70
1
  0
VERTEX
  8
LAYER_1
 10
125.9678
 20
-282.412
 42
-0.4521498731
  0
VERTEX
  8
LAYER_1
 10
125.8404
 20
-282.543
 42
-0.4703267094
  0
VERTEX
  8
LAYER_1
 10
125.7439
 20
-282.4699
 42
-0.4012920581
  0
VERTEX
  8
LAYER_1
 10
125.8369
 20
-282.3862
  0
VERTEX
  8
LAYER_1
 10
125.9678
 20
-282.3535
  0
SEQEND
  0
POLYLINE
  8
LAYER_1
 40
0.05
 41
0.05
 66
1
 10
0
 20
0
 30
0
 70
1
  0
VERTEX
  8
LAYER_1
 10
125.7618
 20
-282.2381
 42
-0.4279196008
  0
VERTEX
  8
LAYER_1
 10
125.8659
 20
-282.1513
 42
-0.4884246055
  0
VERTEX
  8
LAYER_1
 10
125.9678
 20
-282.2295
 42
-0.3333494988
  0
VERTEX
  8
LAYER_1
 10
125.9216
 20
-282.2823
 42
-0.02662023031
  0
VERTEX
  8
LAYER_1
 10
125.7818
 20
-282.3039
 42
0.2060387327
  0
VERTEX
  8
LAYER_1
 10
125.6205
 20
-282.3725
 42
0.1769077208
  0
VERTEX
  8
LAYER_1
 10
125.5875
 20
-282.4775
 42
0.4445802786
  0
VERTEX
  8
LAYER_1
 10
125.7818
 20
-282.648
 42
0.2014048258
  0
VERTEX
  8
LAYER_1
 10
125.9741
 20
-282.5784
  0
VERTEX
  8
LAYER_1
 10
125.9851
 20
-282.6343
  0
VERTEX
  8
LAYER_1
 10
126.1435
 20
-282.6343
 42
-0.09512285587
  0
VERTEX
  8
LAYER_1
 10
126.1243
 20
-282.5064
  0
VERTEX
  8
LAYER_1
 10
126.1243
 20
-282.2095
 42
0.418230543
  0
VERTEX
  8
LAYER_1
 10
125.9549
 20
-282.0528
 42
0.04738196618
  0
VERTEX
  8
LAYER_1
 10
125.8731
 20
-282.0476
 42
0.15432094
  0
VERTEX
  8
LAYER_1
 10
125.683
 20
-282.0949
 42
0.2401746357
  0
VERTEX
  8
LAYER_1
 10
125.6047
 20
-282.2381
  0
SEQEND
  0
ENDBLK
  0
BLOCK
  8
LAYER_1
  2
AIGNBL0102000A
 70
64
 10
0
 20
0
 30
0
  3
AIGNBL0102000A
  0
POLYLINE
  8
LAYER_1
 40
0.05
 41
0.05
 66
1
 10
0
 20
0
 30
0
 70
1
  0
VERTEX
  8
LAYER_1
 10
126.2455
 20
-282.0613
  0
VERTEX
  8
LAYER_1
 10
126.3944
 20
-282.0613
  0
VERTEX
  8
LAYER_1
 10
126.3944
 20
-282.1413
  0
VERTEX
  8
LAYER_1
 10
126.3978
 20
-282.1413
 42
-0.2551956206
  0
VERTEX
  8
LAYER_1
 10
126.5728
 20
-282.0476
 42
-0.4804534426
  0
VERTEX
  8
LAYER_1
 10
126.7819
 20
-282.2815
  0
VERTEX
  8
LAYER_1
 10
126.7819
 20
-282.6343
  0
VERTEX
  8
LAYER_1
 10
126.6245
 20
-282.6343
  0
VERTEX
  8
LAYER_1
 10
126.6245
 20
-282.3108
 42
0.4601980531
  0
VERTEX
  8
LAYER_1
 10
126.5239
 20
-282.1705
 42
0.2817940643
  0
VERTEX
  8
LAYER_1
 10
126.4272
 20
-282.2154
 42
0.1362579709
  0
VERTEX
  8
LAYER_1
 10
126.403
 20
-282.3342
  0
VERTEX
  8
LAYER_1
 10
126.403
 20
-282.6343
  0
VERTEX
  8
LAYER_1
 10
126.2455
 20
-282.6343
  0
SEQEND
  0
ENDBLK
  0
BLOCK
  8
LAYER_1
  2
AIGNBL0102000B
 70
64
 10
0
 20
0
 30
0
  3
AIGNBL0102000B
  0
POLYLINE
  8
LAYER_1
 40
0.05
 41
0.05
 66
1
 10
0
 20
0
 30
0
 70
1
  0
VERTEX
  8
LAYER_1
 10
127.062
 20
-281.8443
  0
VERTEX
  8
LAYER_1
 10
126.9046
 20
-281.8443
  0
VERTEX
  8
LAYER_1
 10
126.9046
 20
-281.9738
  0
VERTEX
  8
LAYER_1
 10
127.062
 20
-281.9738
  0
SEQEND
  0
POLYLINE
  8
LAYER_1
 40
0.05
 41
0.05
 66
1
 10
0
 20
0
 30
0
 70
1
  0
VERTEX
  8
LAYER_1
 10
126.9046
 20
-282.6343
  0
VERTEX
  8
LAYER_1
 10
127.062
 20
-282.6343
  0
VERTEX
  8
LAYER_1
 10
127.062
 20
-282.0613
  0
VERTEX
  8
LAYER_1
 10
126.9046
 20
-282.0613
  0
SEQEND
  0
ENDBLK
  0
BLOCK
  8
LAYER_1
  2
AIGNBL0102000C
 70
64
 10
0
 20
0
 30
0
  3
AIGNBL0102000C
  0
POLYLINE
  8
LAYER_1
 40
0.05
 41
0.05
 66
1
 10
0
 20
0
 30
0
 70
1
  0
VERTEX
  8
LAYER_1
 10
127.3838
 20
-282.0613
  0
VERTEX
  8
LAYER_1
 10
127.4988
 20
-282.0613
  0
VERTEX
  8
LAYER_1
 10
127.4988
 20
-282.1668
  0
VERTEX
  8
LAYER_1
 10
127.3838
 20
-282.1668
  0
VERTEX
  8
LAYER_1
 10
127.3838
 20
-282.4499
 42
0.5306227063
  0
VERTEX
  8
LAYER_1
 10
127.451
 20
-282.5161
  0
VERTEX
  8
LAYER_1
 10
127.4988
 20
-282.5116
  0
VERTEX
  8
LAYER_1
 10
127.4988
 20
-282.6343
  0
VERTEX
  8
LAYER_1
 10
127.4076
 20
-282.6401
 42
-0.2265232539
  0
VERTEX
  8
LAYER_1
 10
127.2575
 20
-282.5953
 42
-0.1906716064
  0
VERTEX
  8
LAYER_1
 10
127.227
 20
-282.5037
  0
VERTEX
  8
LAYER_1
 10
127.227
 20
-282.1668
  0
VERTEX
  8
LAYER_1
 10
127.133
 20
-282.1668
  0
VERTEX
  8
LAYER_1
 10
127.133
 20
-282.0613
  0
VERTEX
  8
LAYER_1
 10
127.227
 20
-282.0613
  0
VERTEX
  8
LAYER_1
 10
127.227
 20
-281.8908
  0
VERTEX
  8
LAYER_1
 10
127.3838
 20
-281.8908
  0
SEQEND
  0
ENDBLK
  0
BLOCK
  8
LAYER_1
  2
AIGNBL0102000D
 70
64
 10
0
 20
0
 30
0
  3
AIGNBL0102000D
  0
POLYLINE
  8
LAYER_1
 40
0.05
 41
0.05
 66
1
 10
0
 20
0
 30
0
 70
1
  0
VERTEX
  8
LAYER_1
 10
127.9302
 20
-282.412
 42
-0.4539139131
  0
VERTEX
  8
LAYER_1
 10
127.8037
 20
-282.543
 42
-0.4693969289
  0
VERTEX
  8
LAYER_1
 10
127.7069
 20
-282.4699
 42
-0.4024113508
  0
VERTEX
  8
LAYER_1
 10
127.7993
 20
-282.3862
  0
VERTEX
  8
LAYER_1
 10
127.9302
 20
-282.3535
  0
SEQEND
  0
POLYLINE
  8
LAYER_1
 40
0.05
 41
0.05
 66
1
 10
0
 20
0
 30
0
 70
1
  0
VERTEX
  8
LAYER_1
 10
127.7248
 20
-282.2381
 42
-0.4297035594
  0
VERTEX
  8
LAYER_1
 10
127.8282
 20
-282.1513
 42
-0.4901358754
  0
VERTEX
  8
LAYER_1
 10
127.9302
 20
-282.2295
 42
-0.3337068827
  0
VERTEX
  8
LAYER_1
 10
127.8842
 20
-282.2823
 42
-0.02788579222
  0
VERTEX
  8
LAYER_1
 10
127.7441
 20
-282.3039
 42
0.2049202284
  0
VERTEX
  8
LAYER_1
 10
127.5834
 20
-282.3725
 42
0.1773747969
  0
VERTEX
  8
LAYER_1
 10
127.5502
 20
-282.4775
 42
0.4437181391
  0
VERTEX
  8
LAYER_1
 10
127.7441
 20
-282.648
 42
0.2034393806
  0
VERTEX
  8
LAYER_1
 10
127.9364
 20
-282.5784
  0
VERTEX
  8
LAYER_1
 10
127.9477
 20
-282.6343
  0
VERTEX
  8
LAYER_1
 10
128.1066
 20
-282.6343
 42
-0.1006337423
  0
VERTEX
  8
LAYER_1
 10
128.0873
 20
-282.5064
  0
VERTEX
  8
LAYER_1
 10
128.0873
 20
-282.2095
 42
0.4181466303
  0
VERTEX
  8
LAYER_1
 10
127.9182
 20
-282.0528
 42
0.0474877263
  0
VERTEX
  8
LAYER_1
 10
127.8365
 20
-282.0476
 42
0.1537257575
  0
VERTEX
  8
LAYER_1
 10
127.6454
 20
-282.0949
 42
0.2434812093
  0
VERTEX
  8
LAYER_1
 10
127.5678
 20
-282.2381
  0
SEQEND
  0
ENDBLK
  0
BLOCK
  8
LAYER_1
  2
AIGNBL0102000E
 70
64
 10
0
 20
0
 30
0
  3
AIGNBL0102000E
  0
POLYLINE
  8
LAYER_1
 40
0.05
 41
0.05
 66
1
 10
0
 20
0
 30
0
 70
1
  0
VERTEX
  8
LAYER_1
 10
128.2082
 20
-282.0613
  0
VERTEX
  8
LAYER_1
 10
128.3574
 20
-282.0613
  0
VERTEX
  8
LAYER_1
 10
128.3574
 20
-282.1681
  0
VERTEX
  8
LAYER_1
 10
128.3608
 20
-282.1681
 42
-0.2898501818
  0
VERTEX
  8
LAYER_1
 10
128.5417
 20
-282.0476
  0
VERTEX
  8
LAYER_1
 10
128.5758
 20
-282.0527
  0
VERTEX
  8
LAYER_1
 10
128.5758
 20
-282.1985
  0
VERTEX
  8
LAYER_1
 10
128.52
 20
-282.1922
 42
0.4620685619
  0
VERTEX
  8
LAYER_1
 10
128.3649
 20
-282.3769
  0
VERTEX
  8
LAYER_1
 10
128.3649
 20
-282.6343
  0
VERTEX
  8
LAYER_1
 10
128.2082
 20
-282.6343
  0
SEQEND
  0
ENDBLK
  0
BLOCK
  8
LAYER_1
  2
AIGNBL0102000F
 70
64
 10
0
 20
0
 30
0
  3
AIGNBL0102000F
  0
POLYLINE
  8
LAYER_1
 40
0.05
 41
0.05
 66
1
 10
0
 20
0
 30
0
 70
1
  0
VERTEX
  8
LAYER_1
 10
128.92
 20
-282.7049
 42
-0.3550437263
  0
VERTEX
  8
LAYER_1
 10
128.7229
 20
-282.8358
  0
VERTEX
  8
LAYER_1
 10
128.6268
 20
-282.8296
  0
VERTEX
  8
LAYER_1
 10
128.6268
 20
-282.7001
  0
VERTEX
  8
LAYER_1
 10
128.7184
 20
-282.7049
 42
0.4923342478
  0
VERTEX
  8
LAYER_1
 10
128.7728
 20
-282.597
  0
VERTEX
  8
LAYER_1
 10
128.5723
 20
-282.0613
  0
VERTEX
  8
LAYER_1
 10
128.7398
 20
-282.0613
  0
VERTEX
  8
LAYER_1
 10
128.8686
 20
-282.4527
  0
VERTEX
  8
LAYER_1
 10
128.8717
 20
-282.4527
  0
VERTEX
  8
LAYER_1
 10
128.9957
 20
-282.0613
  0
VERTEX
  8
LAYER_1
 10
129.158
 20
-282.0613
  0
SEQEND
  0
ENDBLK
  0
BLOCK
  8
LAYER_1
  2
AIGNBL01020010
 70
64
 10
0
 20
0
 30
0
  3
AIGNBL01020010
  0
POLYLINE
  8
LAYER_1
 40
0.05
 41
0.05
 66
1
 10
0
 20
0
 30
0
 70
1
  0
VERTEX
  8
LAYER_1
 10
129.6744
 20
-282.2419
 42
-0.1527275146
  0
VERTEX
  8
LAYER_1
 10
129.7229
 20
-282.0553
 42
-0.258954383
  0
VERTEX
  8
LAYER_1
 10
129.8887
 20
-281.9721
 42
-0.3618453942
  0
VERTEX
  8
LAYER_1
 10
130.0903
 20
-282.1386
 42
-0.06088024732
  0
VERTEX
  8
LAYER_1
 10
130.1027
 20
-282.2419
 42
-0.3078567448
  0
VERTEX
  8
LAYER_1
 10
129.9545
 20
-282.4972
 42
-0.07010492633
  0
VERTEX
  8
LAYER_1
 10
129.8887
 20
-282.5064
 42
-0.3596405976
  0
VERTEX
  8
LAYER_1
 10
129.6866
 20
-282.3416
 42
-0.06185428324
  0
SEQEND
  0
POLYLINE
  8
LAYER_1
 40
0.05
 41
0.05
 66
1
 10
0
 20
0
 30
0
 70
1
  0
VERTEX
  8
LAYER_1
 10
129.5008
 20
-282.2419
 42
0.2390892529
  0
VERTEX
  8
LAYER_1
 10
129.6664
 20
-282.5871
 42
0.1529254517
  0
VERTEX
  8
LAYER_1
 10
129.8887
 20
-282.6511
 42
0.4193554911
  0
VERTEX
  8
LAYER_1
 10
130.2763
 20
-282.2419
 42
0.2336353734
  0
VERTEX
  8
LAYER_1
 10
130.1146
 20
-281.8933
 42
0.1581529861
  0
VERTEX
  8
LAYER_1
 10
129.8887
 20
-281.826
 42
0.4225979208
  0
SEQEND
  0
ENDBLK
  0
BLOCK
  8
LAYER_1
  2
AIGNBL01020011
 70
64
 10
0
 20
0
 30
0
  3
AIGNBL01020011
  0
POLYLINE
  8
LAYER_1
 40
0.05
 41
0.05
 66
1
 10
0
 20
0
 30
0
 70
1
  0
VERTEX
  8
LAYER_1
 10
130.3776
 20
-282.0613
  0
VERTEX
  8
LAYER_1
 10
130.5267
 20
-282.0613
  0
VERTEX
  8
LAYER_1
 10
130.5267
 20
-282.1413
  0
VERTEX
  8
LAYER_1
 10
130.5298
 20
-282.1413
 42
-0.2547465514
  0
VERTEX
  8
LAYER_1
 10
130.7049
 20
-282.0476
 42
-0.4800825958
  0
VERTEX
  8
LAYER_1
 10
130.9136
 20
-282.2815
  0
VERTEX
  8
LAYER_1
 10
130.9136
 20
-282.6343
  0
VERTEX
  8
LAYER_1
 10
130.7565
 20
-282.6343
  0
VERTEX
  8
LAYER_1
 10
130.7565
 20
-282.3108
 42
0.460450666
  0
VERTEX
  8
LAYER_1
 10
130.6559
 20
-282.1705
 42
0.2816449474
  0
VERTEX
  8
LAYER_1
 10
130.559
 20
-282.2154
 42
0.1364621918
  0
VERTEX
  8
LAYER_1
 10
130.5347
 20
-282.3342
  0
VERTEX
  8
LAYER_1
 10
130.5347
 20
-282.6343
  0
VERTEX
  8
LAYER_1
 10
130.3776
 20
-282.6343
  0
SEQEND
  0
ENDBLK
  0
BLOCK
  8
LAYER_1
  2
AIGNBL01020012
 70
64
 10
0
 20
0
 30
0
  3
AIGNBL01020012
  0
POLYLINE
  8
LAYER_1
 40
0.05
 41
0.05
 66
1
 10
0
 20
0
 30
0
 70
1
  0
VERTEX
  8
LAYER_1
 10
131.0363
 20
-281.8443
  0
VERTEX
  8
LAYER_1
 10
131.1941
 20
-281.8443
  0
VERTEX
  8
LAYER_1
 10
131.1941
 20
-282.6343
  0
VERTEX
  8
LAYER_1
 10
131.0363
 20
-282.6343
  0
SEQEND
  0
ENDBLK
  0
BLOCK
  8
LAYER_1
  2
AIGNBL01020013
 70
64
 10
0
 20
0
 30
0
  3
AIGNBL01020013
  0
POLYLINE
  8
LAYER_1
 40
0.05
 41
0.05
 66
1
 10
0
 20
0
 30
0
 70
1
  0
VERTEX
  8
LAYER_1
 10
131.4786
 20
-281.8443
  0
VERTEX
  8
LAYER_1
 10
131.3215
 20
-281.8443
  0
VERTEX
  8
LAYER_1
 10
131.3215
 20
-281.9738
  0
VERTEX
  8
LAYER_1
 10
131.4786
 20
-281.9738
  0
SEQEND
  0
POLYLINE
  8
LAYER_1
 40
0.05
 41
0.05
 66
1
 10
0
 20
0
 30
0
 70
1
  0
VERTEX
  8
LAYER_1
 10
131.3215
 20
-282.6343
  0
VERTEX
  8
LAYER_1
 10
131.4786
 20
-282.6343
  0
VERTEX
  8
LAYER_1
 10
131.4786
 20
-282.0613
  0
VERTEX
  8
LAYER_1
 10
131.3215
 20
-282.0613
  0
SEQEND
  0
ENDBLK
  0
BLOCK
  8
LAYER_1
  2
AIGNBL01020014
 70
64
 10
0
 20
0
 30
0
  3
AIGNBL01020014
  0
POLYLINE
  8
LAYER_1
 40
0.05
 41
0.05
 66
1
 10
0
 20
0
 30
0
 70
1
  0
VERTEX
  8
LAYER_1
 10
131.6026
 20
-282.0613
  0
VERTEX
  8
LAYER_1
 10
131.7522
 20
-282.0613
  0
VERTEX
  8
LAYER_1
 10
131.7522
 20
-282.1413
  0
VERTEX
  8
LAYER_1
 10
131.7553
 20
-282.1413
 42
-0.2551682698
  0
VERTEX
  8
LAYER_1
 10
131.9292
 20
-282.0476
 42
-0.4811337283
  0
VERTEX
  8
LAYER_1
 10
132.1384
 20
-282.2815
  0
VERTEX
  8
LAYER_1
 10
132.1384
 20
-282.6343
  0
VERTEX
  8
LAYER_1
 10
131.9816
 20
-282.6343
  0
VERTEX
  8
LAYER_1
 10
131.9816
 20
-282.3108
 42
0.4587601325
  0
VERTEX
  8
LAYER_1
 10
131.8803
 20
-282.1705
 42
0.2810381265
  0
VERTEX
  8
LAYER_1
 10
131.7841
 20
-282.2154
 42
0.1365952276
  0
VERTEX
  8
LAYER_1
 10
131.7597
 20
-282.3342
  0
VERTEX
  8
LAYER_1
 10
131.7597
 20
-282.6343
  0
VERTEX
  8
LAYER_1
 10
131.6026
 20
-282.6343
  0
SEQEND
  0
ENDBLK
  0
BLOCK
  8
LAYER_1
  2
AIGNBL01020015
 70
64
 10
0
 20
0
 30
0
  3
AIGNBL01020015
  0
POLYLINE
  8
LAYER_1
 40
0.05
 41
0.05
 66
1
 10
0
 20
0
 30
0
 70
1
  0
VERTEX
  8
LAYER_1
 10
132.3861
 20
-282.2866
 42
-0.3949561139
  0
VERTEX
  8
LAYER_1
 10
132.5166
 20
-282.1647
 42
-0.4168070206
  0
VERTEX
  8
LAYER_1
 10
132.642
 20
-282.2866
  0
SEQEND
  0
POLYLINE
  8
LAYER_1
 40
0.05
 41
0.05
 66
1
 10
0
 20
0
 30
0
 70
1
  0
VERTEX
  8
LAYER_1
 10
132.7991
 20
-282.3859
 42
0.2694416975
  0
VERTEX
  8
LAYER_1
 10
132.6582
 20
-282.081
 42
0.1286252351
  0
VERTEX
  8
LAYER_1
 10
132.5218
 20
-282.0476
 42
0.4102614856
  0
VERTEX
  8
LAYER_1
 10
132.2297
 20
-282.348
 42
0.4129490837
  0
VERTEX
  8
LAYER_1
 10
132.5218
 20
-282.648
 42
0.3423094656
  0
VERTEX
  8
LAYER_1
 10
132.7884
 20
-282.4568
  0
VERTEX
  8
LAYER_1
 10
132.6506
 20
-282.4568
 42
-0.3061930634
  0
VERTEX
  8
LAYER_1
 10
132.5273
 20
-282.5306
 42
-0.4476790877
  0
VERTEX
  8
LAYER_1
 10
132.3861
 20
-282.3859
  0
SEQEND
  0
ENDBLK
  0
BLOCK
  8
LAYER_1
  2
AIGNBL01020016
 70
64
 10
0
 20
0
 30
0
  3
AIGNBL01020016
  0
POLYLINE
  8
LAYER_1
 40
0.05
 41
0.05
 66
1
 10
0
 20
0
 30
0
 70
1
  0
VERTEX
  8
LAYER_1
 10
133.3335
 20
-282.3714
 42
0.4516273411
  0
VERTEX
  8
LAYER_1
 10
133.5078
 20
-282.5171
 42
0.3982084709
  0
VERTEX
  8
LAYER_1
 10
133.6607
 20
-282.4186
 42
0.2725301572
  0
VERTEX
  8
LAYER_1
 10
133.6122
 20
-282.3454
 42
0.06030832637
  0
VERTEX
  8
LAYER_1
 10
133.4279
 20
-282.2877
 42
-0.1710301716
  0
VERTEX
  8
LAYER_1
 10
133.2357
 20
-282.1921
 42
-0.1842780541
  0
VERTEX
  8
LAYER_1
 10
133.1922
 20
-282.0637
 42
-0.3335917557
  0
VERTEX
  8
LAYER_1
 10
133.3615
 20
-281.8464
 42
-0.08166046636
  0
VERTEX
  8
LAYER_1
 10
133.4864
 20
-281.826
 42
-0.1387285887
  0
VERTEX
  8
LAYER_1
 10
133.6924
 20
-281.8753
 42
-0.2736579224
  0
VERTEX
  8
LAYER_1
 10
133.8027
 20
-282.0806
  0
VERTEX
  8
LAYER_1
 10
133.6353
 20
-282.0806
 42
0.4521962542
  0
VERTEX
  8
LAYER_1
 10
133.4795
 20
-281.9601
 42
0.4064182234
  0
VERTEX
  8
LAYER_1
 10
133.3596
 20
-282.0496
 42
0.3268975502
  0
VERTEX
  8
LAYER_1
 10
133.405
 20
-282.1137
 42
0.02952453462
  0
VERTEX
  8
LAYER_1
 10
133.5953
 20
-282.1688
 42
-0.1704201881
  0
VERTEX
  8
LAYER_1
 10
133.7811
 20
-282.2625
 42
-0.1862485339
  0
VERTEX
  8
LAYER_1
 10
133.8296
 20
-282.3993
 42
-0.3253051761
  0
VERTEX
  8
LAYER_1
 10
133.6616
 20
-282.6258
 42
-0.08584825426
  0
VERTEX
  8
LAYER_1
 10
133.5016
 20
-282.6511
 42
-0.2611548293
  0
VERTEX
  8
LAYER_1
 10
133.1923
 20
-282.4972
 42
-0.119886616
  0
VERTEX
  8
LAYER_1
 10
133.1653
 20
-282.3714
  0
SEQEND
  0
ENDBLK
  0
BLOCK
  8
LAYER_1
  2
AIGNBL01020017
 70
64
 10
0
 20
0
 30
0
  3
AIGNBL01020017
  0
POLYLINE
  8
LAYER_1
 40
0.05
 41
0.05
 66
1
 10
0
 20
0
 30
0
 70
1
  0
VERTEX
  8
LAYER_1
 10
133.9153
 20
-281.8443
  0
VERTEX
  8
LAYER_1
 10
134.0721
 20
-281.8443
  0
VERTEX
  8
LAYER_1
 10
134.0721
 20
-282.1413
  0
VERTEX
  8
LAYER_1
 10
134.0755
 20
-282.1413
 42
-0.2483929778
  0
VERTEX
  8
LAYER_1
 10
134.243
 20
-282.0476
 42
-0.4805542161
  0
VERTEX
  8
LAYER_1
 10
134.4517
 20
-282.2815
  0
VERTEX
  8
LAYER_1
 10
134.4517
 20
-282.6343
  0
VERTEX
  8
LAYER_1
 10
134.2946
 20
-282.6343
  0
VERTEX
  8
LAYER_1
 10
134.2946
 20
-282.3108
 42
0.4622178933
  0
VERTEX
  8
LAYER_1
 10
134.194
 20
-282.1705
 42
0.2793325044
  0
VERTEX
  8
LAYER_1
 10
134.0968
 20
-282.2154
 42
0.1381247436
  0
VERTEX
  8
LAYER_1
 10
134.0721
 20
-282.3342
  0
VERTEX
  8
LAYER_1
 10
134.0721
 20
-282.6343
  0
VERTEX
  8
LAYER_1
 10
133.9153
 20
-282.6343
  0
SEQEND
  0
ENDBLK
  0
BLOCK
  8
LAYER_1
  2
AIGNBL01020018
 70
64
 10
0
 20
0
 30
0
  3
AIGNBL01020018
  0
POLYLINE
  8
LAYER_1
 40
0.05
 41
0.05
 66
1
 10
0
 20
0
 30
0
 70
1
  0
VERTEX
  8
LAYER_1
 10
134.7094
 20
-282.348
 42
-0.2078027189
  0
VERTEX
  8
LAYER_1
 10
134.757
 20
-282.1984
 42
-0.2010762362
  0
VERTEX
  8
LAYER_1
 10
134.8472
 20
-282.1647
 42
-0.4641767918
  0
VERTEX
  8
LAYER_1
 10
134.9864
 20
-282.348
 42
-0.2031639141
  0
VERTEX
  8
LAYER_1
 10
134.9397
 20
-282.4953
 42
-0.2044378703
  0
VERTEX
  8
LAYER_1
 10
134.8472
 20
-282.5306
 42
-0.248863935
  0
VERTEX
  8
LAYER_1
 10
134.7448
 20
-282.4825
 42
-0.1591103964
  0
SEQEND
  0
POLYLINE
  8
LAYER_1
 40
0.05
 41
0.05
 66
1
 10
0
 20
0
 30
0
 70
1
  0
VERTEX
  8
LAYER_1
 10
134.553
 20
-282.348
 42
0.4147878513
  0
VERTEX
  8
LAYER_1
 10
134.8472
 20
-282.648
 42
0.4199176514
  0
VERTEX
  8
LAYER_1
 10
135.1432
 20
-282.348
 42
0.4164550193
  0
VERTEX
  8
LAYER_1
 10
134.8472
 20
-282.0476
 42
0.421212725
  0
SEQEND
  0
ENDBLK
  0
BLOCK
  8
LAYER_1
  2
AIGNBL01020019
 70
64
 10
0
 20
0
 30
0
  3
AIGNBL01020019
  0
POLYLINE
  8
LAYER_1
 40
0.05
 41
0.05
 66
1
 10
0
 20
0
 30
0
 70
1
  0
VERTEX
  8
LAYER_1
 10
135.5338
 20
-282.5306
 42
-0.24748019
  0
VERTEX
  8
LAYER_1
 10
135.4322
 20
-282.4823
 42
-0.1584539692
  0
VERTEX
  8
LAYER_1
 10
135.3964
 20
-282.349
 42
-0.2002445447
  0
VERTEX
  8
LAYER_1
 10
135.4428
 20
-282.1998
 42
-0.2075261254
  0
VERTEX
  8
LAYER_1
 10
135.5321
 20
-282.1647
 42
-0.2454230098
  0
VERTEX
  8
LAYER_1
 10
135.6325
 20
-282.2136
 42
-0.1579911247
  0
VERTEX
  8
LAYER_1
 10
135.6699
 20
-282.349
 42
-0.2040348175
  0
VERTEX
  8
LAYER_1
 10
135.6233
 20
-282.4963
 42
-0.2039590173
  0
SEQEND
  0
POLYLINE
  8
LAYER_1
 40
0.05
 41
0.05
 66
1
 10
0
 20
0
 30
0
 70
1
  0
VERTEX
  8
LAYER_1
 10
135.2451
 20
-282.8358
  0
VERTEX
  8
LAYER_1
 10
135.4026
 20
-282.8358
  0
VERTEX
  8
LAYER_1
 10
135.4026
 20
-282.5629
  0
VERTEX
  8
LAYER_1
 10
135.4053
 20
-282.5629
 42
0.2503687401
  0
VERTEX
  8
LAYER_1
 10
135.5752
 20
-282.648
 42
0.3234351935
  0
VERTEX
  8
LAYER_1
 10
135.8042
 20
-282.4833
 42
0.08683073923
  0
VERTEX
  8
LAYER_1
 10
135.8263
 20
-282.3535
 42
0.2785483063
  0
VERTEX
  8
LAYER_1
 10
135.6737
 20
-282.0684
 42
0.1015147713
  0
VERTEX
  8
LAYER_1
 10
135.5673
 20
-282.0476
 42
0.2623790136
  0
VERTEX
  8
LAYER_1
 10
135.3964
 20
-282.1344
  0
VERTEX
  8
LAYER_1
 10
135.395
 20
-282.1344
  0
VERTEX
  8
LAYER_1
 10
135.395
 20
-282.0613
  0
VERTEX
  8
LAYER_1
 10
135.2451
 20
-282.0613
  0
SEQEND
  0
ENDBLK
  0
BLOCK
  8
LAYER_1
  2
AIGNBL01010002
 70
64
 10
0
 20
0
 30
0
  3
AIGNBL01010002
  0
POLYLINE
  8
LAYER_1
 40
0.7056
 41
0.7056
 66
1
 10
0
 20
0
 30
0
 70
1
  0
VERTEX
  8
LAYER_1
 10
6.4956
 20
-7.5038
  0
VERTEX
  8
LAYER_1
 10
203.5039
 20
-7.5038
  0
VERTEX
  8
LAYER_1
 10
203.5039
 20
-289.4965
  0
VERTEX
  8
LAYER_1
 10
6.4956
 20
-289.4965
  0
SEQEND
  0
ENDBLK
  0
BLOCK
  8
LAYER_1
  2
AIGNBL01010003
 70
64
 10
0
 20
0
 30
0
  3
AIGNBL01010003
  0
INSERT
  8
LAYER_1
  2
AIGNBL01020004
 10
0
 20
0
 30
0
  0
INSERT
  8
LAYER_1
  2
AIGNBL01020008
 10
0
 20
0
 30
0
  0
INSERT
  8
LAYER_1
  2
AIGNBL01020009
 10
0
 20
0
 30
0
  0
INSERT
  8
LAYER_1
  2
AIGNBL0102000A
 10
0
 20
0
 30
0
  0
INSERT
  8
LAYER_1
  2
AIGNBL0102000B
 10
0
 20
0
 30
0
  0
INSERT
  8
LAYER_1
  2
AIGNBL0102000C
 10
0
 20
0
 30
0
  0
INSERT
  8
LAYER_1
  2
AIGNBL0102000D
 10
0
 20
0
 30
0
  0
INSERT
  8
LAYER_1
  2
AIGNBL0102000E
 10
0
 20
0
 30
0
  0
INSERT
  8
LAYER_1
  2
AIGNBL0102000F
 10
0
 20
0
 30
0
  0
INSERT
  8
LAYER_1
  2
AIGNBL01020010
 10
0
 20
0
 30
0
  0
INSERT
  8
LAYER_1
  2
AIGNBL01020011
 10
0
 20
0
 30
0
  0
INSERT
  8
LAYER_1
  2
AIGNBL01020012
 10
0
 20
0
 30
0
  0
INSERT
  8
LAYER_1
  2
AIGNBL01020013
 10
0
 20
0
 30
0
  0
INSERT
  8
LAYER_1
  2
AIGNBL01020014
 10
0
 20
0
 30
0
  0
INSERT
  8
LAYER_1
  2
AIGNBL01020015
 10
0
 20
0
 30
0
  0
INSERT
  8
LAYER_1
  2
AIGNBL01020016
 10
0
 20
0
 30
0
  0
INSERT
  8
LAYER_1
  2
AIGNBL01020017
 10
0
 20
0
 30
0
  0
INSERT
  8
LAYER_1
  2
AIGNBL01020018
 10
0
 20
0
 30
0
  0
INSERT
  8
LAYER_1
  2
AIGNBL01020019
 10
0
 20
0
 30
0
  0
ENDBLK
  0
ENDSEC
  0
SECTION
  2
ENTITIES
  0
INSERT
  8
LAYER_1
  2
AIGNBL01010002
 10
0
 20
0
 30
0
  0
POLYLINE
  8
LAYER_1
 40
0.3528
 41
0.3528
 66
1
 10
0
 20
0
 30
0
  0
VERTEX
  8
LAYER_1
 10
7.4958
 20
-288.4957
  0
VERTEX
  8
LAYER_1
 10
202.5037
 20
-288.4957
  0
VERTEX
  8
LAYER_1
 10
202.5037
 20
-8.5042
  0
VERTEX
  8
LAYER_1
 10
7.4958
 20
-8.5042
  0
VERTEX
  8
LAYER_1
 10
7.4958
 20
-288.4957
  0
SEQEND
  0
INSERT
  8
LAYER_1
  2
AIGNBL01010003
 10
0
 20
0
 30
0
  0
TEXT
  8
LAYER_1
 10
139.1588
 20
-278.958
 11
139.1588
 21
-278.958
 40
3.3853
 41
0.5
  1
●TEL 0120-65-1232●FAX 06-6532-1580
  0
TEXT
  8
LAYER_1
 10
139.1588
 20
-282.4727
 11
139.1588
 21
-282.4727
 40
3.3853
 41
0.5
  1
hits@hiratatile.co.jp
  0
TEXT
  8
LAYER_1
 10
191.6837
 20
-11.7164
 11
191.6837
 21
-11.7164
 40
2.0732
 41
0.5
  1
160420RT
  0
TEXT
  8
LAYER_1
 10
10.5578
 20
-280.5424
 11
10.5578
 21
-280.5424
 40
3.2995
 41
0.5
  1
仕様
  0
POLYLINE
  8
LAYER_1
 40
0.3528
 41
0.3528
 66
1
 10
0
 20
0
 30
0
  0
VERTEX
  8
LAYER_1
 10
202.5037
 20
-271.7626
  0
VERTEX
  8
LAYER_1
 10
7.4957
 20
-271.7626
  0
SEQEND
  0
POLYLINE
  8
LAYER_1
 40
0.3528
 41
0.3528
 66
1
 10
0
 20
0
 30
0
  0
VERTEX
  8
LAYER_1
 10
202.5037
 20
-263.2535
  0
VERTEX
  8
LAYER_1
 10
7.4957
 20
-263.2535
  0
SEQEND
  0
TEXT
  8
LAYER_1
 10
8.6527
 20
-265.7299
 11
8.6527
 21
-265.7299
 40
2.1997
 41
0.5
  1
品名
  0
TEXT
  8
LAYER_1
 10
20.8509
 20
-268.8222
 11
20.8509
 21
-268.8222
 40
3.6373
 41
0.5
  1
トール立水栓
  0
TEXT
  8
LAYER_1
 10
21.13
 20
-280.5507
 11
21.13
 21
-280.5507
 40
3.5541
 41
0.5
  1
●JIS●泡沫吐水●定流量機能付（約5L/min）
  0
TEXT
  8
LAYER_1
 10
21.13
 20
-285.3008
 11
21.13
 21
-285.3008
 40
3.1177
 41
0.5
  1
凍結のおそれがある地域には使用できません。
  0
TEXT
  8
LAYER_1
 10
124.2102
 20
-265.7302
 11
124.2102
 21
-265.7302
 40
2.1997
 41
0.5
  1
品番
  0
TEXT
  8
LAYER_1
 10
130.2322
 20
-270.2068
 11
130.2322
 21
-270.2068
 40
5.9385
 41
0.5
  1
HITS-Y5075H-2T-13
  0
POLYLINE
  8
LAYER_1
 40
0.1976
 41
0.1976
 66
1
 10
0
 20
0
 30
0
  0
VERTEX
  8
LAYER_1
 10
37.3781
 20
-230.6791
  0
VERTEX
  8
LAYER_1
 10
42.3735
 20
-225.6786
  0
SEQEND
  0
POLYLINE
  8
LAYER_1
 40
0.1976
 41
0.1976
 66
1
 10
0
 20
0
 30
0
  0
VERTEX
  8
LAYER_1
 10
45.9242
 20
-225.6786
  0
VERTEX
  8
LAYER_1
 10
40.9234
 20
-230.6791
  0
SEQEND
  0
POLYLINE
  8
LAYER_1
 40
0.1976
 41
0.1976
 66
1
 10
0
 20
0
 30
0
  0
VERTEX
  8
LAYER_1
 10
58.5923
 20
-230.6791
  0
VERTEX
  8
LAYER_1
 10
63.5877
 20
-225.6786
  0
SEQEND
  0
POLYLINE
  8
LAYER_1
 40
0.1976
 41
0.1976
 66
1
 10
0
 20
0
 30
0
  0
VERTEX
  8
LAYER_1
 10
67.112
 20
-225.6786
  0
VERTEX
  8
LAYER_1
 10
62.1113
 20
-230.6791
  0
SEQEND
  0
POLYLINE
  8
LAYER_1
 40
0.1976
 41
0.1976
 66
1
 10
0
 20
0
 30
0
  0
VERTEX
  8
LAYER_1
 10
164.5846
 20
-230.6791
  0
VERTEX
  8
LAYER_1
 10
167.5846
 20
-227.7053
  0
SEQEND
  0
POLYLINE
  8
LAYER_1
 40
0.1976
 41
0.1976
 66
1
 10
0
 20
0
 30
0
  0
VERTEX
  8
LAYER_1
 10
158.9856
 20
-225.6786
  0
VERTEX
  8
LAYER_1
 10
156.9648
 20
-227.7053
  0
SEQEND
  0
POLYLINE
  8
LAYER_1
 40
0.1976
 41
0.1976
 66
1
 10
0
 20
0
 30
0
  0
VERTEX
  8
LAYER_1
 10
157.5146
 20
-230.6791
  0
VERTEX
  8
LAYER_1
 10
162.51
 20
-225.6786
  0
SEQEND
  0
POLYLINE
  8
LAYER_1
 40
0.1976
 41
0.1976
 66
1
 10
0
 20
0
 30
0
  0
VERTEX
  8
LAYER_1
 10
143.3704
 20
-230.6791
  0
VERTEX
  8
LAYER_1
 10
146.471
 20
-227.6047
  0
SEQEND
  0
POLYLINE
  8
LAYER_1
 40
0.1976
 41
0.1976
 66
1
 10
0
 20
0
 30
0
  0
VERTEX
  8
LAYER_1
 10
137.7714
 20
-225.6786
  0
VERTEX
  8
LAYER_1
 10
135.8505
 20
-227.6257
  0
SEQEND
  0
POLYLINE
  8
LAYER_1
 40
0.1976
 41
0.1976
 66
1
 10
0
 20
0
 30
0
  0
VERTEX
  8
LAYER_1
 10
136.3217
 20
-230.6791
  0
VERTEX
  8
LAYER_1
 10
141.322
 20
-225.6786
  0
SEQEND
  0
POLYLINE
  8
LAYER_1
 40
0.1976
 41
0.1976
 66
1
 10
0
 20
0
 30
0
  0
VERTEX
  8
LAYER_1
 10
151.7151
 20
-251.9199
  0
VERTEX
  8
LAYER_1
 10
151.7151
 20
-253.7189
  0
SEQEND
  0
POLYLINE
  8
LAYER_1
 40
0.1976
 41
0.1976
 66
1
 10
0
 20
0
 30
0
  0
VERTEX
  8
LAYER_1
 10
151.7151
 20
-254.0472
  0
VERTEX
  8
LAYER_1
 10
151.7151
 20
-254.772
  0
SEQEND
  0
POLYLINE
  8
LAYER_1
 40
0.1976
 41
0.1976
 66
1
 10
0
 20
0
 30
0
  0
VERTEX
  8
LAYER_1
 10
151.7151
 20
-255.0949
  0
VERTEX
  8
LAYER_1
 10
151.7151
 20
-256.9204
  0
SEQEND
  0
POLYLINE
  8
LAYER_1
 40
0.1976
 41
0.1976
 66
1
 10
0
 20
0
 30
0
  0
VERTEX
  8
LAYER_1
 10
46.5221
 20
-230.6791
  0
VERTEX
  8
LAYER_1
 10
46.5221
 20
-225.6786
  0
SEQEND
  0
POLYLINE
  8
LAYER_1
 40
0.1976
 41
0.1976
 66
1
 10
0
 20
0
 30
0
  0
VERTEX
  8
LAYER_1
 10
57.0155
 20
-225.6786
  0
VERTEX
  8
LAYER_1
 10
57.0155
 20
-230.6791
  0
SEQEND
  0
POLYLINE
  8
LAYER_1
 40
0.1976
 41
0.1976
 66
1
 10
0
 20
0
 30
0
  0
VERTEX
  8
LAYER_1
 10
61.0159
 20
-230.6791
  0
VERTEX
  8
LAYER_1
 10
67.6358
 20
-230.6791
  0
SEQEND
  0
POLYLINE
  8
LAYER_1
 40
0.1976
 41
0.1976
 66
1
 10
0
 20
0
 30
0
  0
VERTEX
  8
LAYER_1
 10
67.6358
 20
-225.6786
  0
VERTEX
  8
LAYER_1
 10
61.0159
 20
-225.6786
  0
SEQEND
  0
POLYLINE
  8
LAYER_1
 40
0.1976
 41
0.1976
 66
1
 10
0
 20
0
 30
0
  0
VERTEX
  8
LAYER_1
 10
42.5216
 20
-230.6791
  0
VERTEX
  8
LAYER_1
 10
35.9017
 20
-230.6791
  0
SEQEND
  0
POLYLINE
  8
LAYER_1
 40
0.1976
 41
0.1976
 66
1
 10
0
 20
0
 30
0
  0
VERTEX
  8
LAYER_1
 10
35.9017
 20
-225.6786
  0
VERTEX
  8
LAYER_1
 10
42.5216
 20
-225.6786
  0
SEQEND
  0
POLYLINE
  8
LAYER_1
 40
0.1976
 41
0.1976
 66
1
 10
0
 20
0
 30
0
  0
VERTEX
  8
LAYER_1
 10
135.8505
 20
-225.6786
  0
VERTEX
  8
LAYER_1
 10
142.4705
 20
-225.6786
  0
SEQEND
  0
POLYLINE
  8
LAYER_1
 40
0.1976
 41
0.1976
 66
1
 10
0
 20
0
 30
0
  0
VERTEX
  8
LAYER_1
 10
142.4705
 20
-230.6791
  0
VERTEX
  8
LAYER_1
 10
135.8505
 20
-230.6791
  0
SEQEND
  0
POLYLINE
  8
LAYER_1
 40
0.1976
 41
0.1976
 66
1
 10
0
 20
0
 30
0
  0
VERTEX
  8
LAYER_1
 10
160.9597
 20
-225.6786
  0
VERTEX
  8
LAYER_1
 10
167.5846
 20
-225.6786
  0
SEQEND
  0
POLYLINE
  8
LAYER_1
 40
0.1976
 41
0.1976
 66
1
 10
0
 20
0
 30
0
  0
VERTEX
  8
LAYER_1
 10
167.5846
 20
-230.6791
  0
VERTEX
  8
LAYER_1
 10
160.9597
 20
-230.6791
  0
SEQEND
  0
POLYLINE
  8
LAYER_1
 40
0.1976
 41
0.1976
 66
1
 10
0
 20
0
 30
0
  0
VERTEX
  8
LAYER_1
 10
156.9648
 20
-230.6791
  0
VERTEX
  8
LAYER_1
 10
156.9648
 20
-225.6786
  0
SEQEND
  0
POLYLINE
  8
LAYER_1
 40
0.1976
 41
0.1976
 66
1
 10
0
 20
0
 30
0
  0
VERTEX
  8
LAYER_1
 10
146.471
 20
-225.6786
  0
VERTEX
  8
LAYER_1
 10
146.471
 20
-230.6791
  0
SEQEND
  0
POLYLINE
  8
LAYER_1
 40
0.1976
 41
0.1976
 66
1
 10
0
 20
0
 30
0
  0
VERTEX
  8
LAYER_1
 10
58.2643
 20
-106.3832
  0
VERTEX
  8
LAYER_1
 10
55.3909
 20
-106.3832
  0
SEQEND
  0
POLYLINE
  8
LAYER_1
 40
0.1976
 41
0.1976
 66
1
 10
0
 20
0
 30
0
  0
VERTEX
  8
LAYER_1
 10
54.8935
 20
-106.3832
  0
VERTEX
  8
LAYER_1
 10
53.7452
 20
-106.3832
  0
SEQEND
  0
POLYLINE
  8
LAYER_1
 40
0.1976
 41
0.1976
 66
1
 10
0
 20
0
 30
0
  0
VERTEX
  8
LAYER_1
 10
53.216
 20
-106.3832
  0
VERTEX
  8
LAYER_1
 10
50.3427
 20
-106.3832
  0
SEQEND
  0
POLYLINE
  8
LAYER_1
 40
0.1976
 41
0.1976
 66
1
 10
0
 20
0
 30
0
  0
VERTEX
  8
LAYER_1
 10
49.8188
 20
-106.3832
  0
VERTEX
  8
LAYER_1
 10
48.6704
 20
-106.3832
  0
SEQEND
  0
POLYLINE
  8
LAYER_1
 40
0.1976
 41
0.1976
 66
1
 10
0
 20
0
 30
0
  0
VERTEX
  8
LAYER_1
 10
48.1731
 20
-106.3832
  0
VERTEX
  8
LAYER_1
 10
45.2997
 20
-106.3832
  0
SEQEND
  0
POLYLINE
  8
LAYER_1
 40
0.1976
 41
0.1976
 66
1
 10
0
 20
0
 30
0
  0
VERTEX
  8
LAYER_1
 10
48.2684
 20
-79.9882
  0
VERTEX
  8
LAYER_1
 10
50.8189
 20
-79.9882
  0
SEQEND
  0
POLYLINE
  8
LAYER_1
 40
0.1976
 41
0.1976
 66
1
 10
0
 20
0
 30
0
  0
VERTEX
  8
LAYER_1
 10
51.2687
 20
-79.9882
  0
VERTEX
  8
LAYER_1
 10
52.2953
 20
-79.9882
  0
SEQEND
  0
POLYLINE
  8
LAYER_1
 40
0.1976
 41
0.1976
 66
1
 10
0
 20
0
 30
0
  0
VERTEX
  8
LAYER_1
 10
52.7451
 20
-79.9882
  0
VERTEX
  8
LAYER_1
 10
55.2692
 20
-79.9882
  0
SEQEND
  0
POLYLINE
  8
LAYER_1
 40
0.1976
 41
0.1976
 66
1
 10
0
 20
0
 30
0
  0
VERTEX
  8
LAYER_1
 10
51.7713
 20
-73.94
  0
VERTEX
  8
LAYER_1
 10
51.7713
 20
-76.4429
  0
SEQEND
  0
POLYLINE
  8
LAYER_1
 40
0.1976
 41
0.1976
 66
1
 10
0
 20
0
 30
0
  0
VERTEX
  8
LAYER_1
 10
51.7713
 20
-76.8926
  0
VERTEX
  8
LAYER_1
 10
51.7713
 20
-77.8927
  0
SEQEND
  0
POLYLINE
  8
LAYER_1
 40
0.1976
 41
0.1976
 66
1
 10
0
 20
0
 30
0
  0
VERTEX
  8
LAYER_1
 10
51.7713
 20
-78.3425
  0
VERTEX
  8
LAYER_1
 10
51.7713
 20
-80.8402
  0
SEQEND
  0
POLYLINE
  8
LAYER_1
 40
0.1976
 41
0.1976
 66
1
 10
0
 20
0
 30
0
  0
VERTEX
  8
LAYER_1
 10
51.7713
 20
-81.2901
  0
VERTEX
  8
LAYER_1
 10
51.7713
 20
-82.2902
  0
SEQEND
  0
POLYLINE
  8
LAYER_1
 40
0.1976
 41
0.1976
 66
1
 10
0
 20
0
 30
0
  0
VERTEX
  8
LAYER_1
 10
51.7713
 20
-82.74
  0
VERTEX
  8
LAYER_1
 10
51.7713
 20
-85.2377
  0
SEQEND
  0
POLYLINE
  8
LAYER_1
 40
0.1976
 41
0.1976
 66
1
 10
0
 20
0
 30
0
  0
VERTEX
  8
LAYER_1
 10
51.7713
 20
-85.6874
  0
VERTEX
  8
LAYER_1
 10
51.7713
 20
-86.6876
  0
SEQEND
  0
POLYLINE
  8
LAYER_1
 40
0.1976
 41
0.1976
 66
1
 10
0
 20
0
 30
0
  0
VERTEX
  8
LAYER_1
 10
51.7713
 20
-87.1373
  0
VERTEX
  8
LAYER_1
 10
51.7713
 20
-89.635
  0
SEQEND
  0
POLYLINE
  8
LAYER_1
 40
0.1976
 41
0.1976
 66
1
 10
0
 20
0
 30
0
  0
VERTEX
  8
LAYER_1
 10
51.7713
 20
-90.0848
  0
VERTEX
  8
LAYER_1
 10
51.7713
 20
-91.0849
  0
SEQEND
  0
POLYLINE
  8
LAYER_1
 40
0.1976
 41
0.1976
 66
1
 10
0
 20
0
 30
0
  0
VERTEX
  8
LAYER_1
 10
51.7713
 20
-91.5348
  0
VERTEX
  8
LAYER_1
 10
51.7713
 20
-94.0377
  0
SEQEND
  0
POLYLINE
  8
LAYER_1
 40
0.1976
 41
0.1976
 66
1
 10
0
 20
0
 30
0
  0
VERTEX
  8
LAYER_1
 10
51.7713
 20
-94.4611
  0
VERTEX
  8
LAYER_1
 10
51.7713
 20
-95.4612
  0
SEQEND
  0
POLYLINE
  8
LAYER_1
 40
0.1976
 41
0.1976
 66
1
 10
0
 20
0
 30
0
  0
VERTEX
  8
LAYER_1
 10
51.7713
 20
-95.9109
  0
VERTEX
  8
LAYER_1
 10
51.7713
 20
-98.4086
  0
SEQEND
  0
POLYLINE
  8
LAYER_1
 40
0.1976
 41
0.1976
 66
1
 10
0
 20
0
 30
0
  0
VERTEX
  8
LAYER_1
 10
51.7713
 20
-98.8584
  0
VERTEX
  8
LAYER_1
 10
51.7713
 20
-99.8585
  0
SEQEND
  0
POLYLINE
  8
LAYER_1
 40
0.1976
 41
0.1976
 66
1
 10
0
 20
0
 30
0
  0
VERTEX
  8
LAYER_1
 10
51.7713
 20
-100.3083
  0
VERTEX
  8
LAYER_1
 10
51.7713
 20
-102.8113
  0
SEQEND
  0
POLYLINE
  8
LAYER_1
 40
0.1976
 41
0.1976
 66
1
 10
0
 20
0
 30
0
  0
VERTEX
  8
LAYER_1
 10
51.7713
 20
-103.2611
  0
VERTEX
  8
LAYER_1
 10
51.7713
 20
-104.2612
  0
SEQEND
  0
POLYLINE
  8
LAYER_1
 40
0.1976
 41
0.1976
 66
1
 10
0
 20
0
 30
0
  0
VERTEX
  8
LAYER_1
 10
51.7713
 20
-104.7109
  0
VERTEX
  8
LAYER_1
 10
51.7713
 20
-107.2086
  0
SEQEND
  0
POLYLINE
  8
LAYER_1
 40
0.1976
 41
0.1976
 66
1
 10
0
 20
0
 30
0
  0
VERTEX
  8
LAYER_1
 10
51.7713
 20
-107.6584
  0
VERTEX
  8
LAYER_1
 10
51.7713
 20
-108.6587
  0
SEQEND
  0
POLYLINE
  8
LAYER_1
 40
0.1976
 41
0.1976
 66
1
 10
0
 20
0
 30
0
  0
VERTEX
  8
LAYER_1
 10
51.7713
 20
-109.1084
  0
VERTEX
  8
LAYER_1
 10
51.7713
 20
-111.6059
  0
SEQEND
  0
POLYLINE
  8
LAYER_1
 40
0.1976
 41
0.1976
 66
1
 10
0
 20
0
 30
0
  0
VERTEX
  8
LAYER_1
 10
51.7713
 20
-112.0559
  0
VERTEX
  8
LAYER_1
 10
51.7713
 20
-113.056
  0
SEQEND
  0
POLYLINE
  8
LAYER_1
 40
0.1976
 41
0.1976
 66
1
 10
0
 20
0
 30
0
  0
VERTEX
  8
LAYER_1
 10
51.7713
 20
-113.5057
  0
VERTEX
  8
LAYER_1
 10
51.7713
 20
-115.9822
  0
SEQEND
  0
POLYLINE
  8
LAYER_1
 40
0.1976
 41
0.1976
 66
1
 10
0
 20
0
 30
0
  0
VERTEX
  8
LAYER_1
 10
51.7713
 20
-116.432
  0
VERTEX
  8
LAYER_1
 10
51.7713
 20
-117.4321
  0
SEQEND
  0
POLYLINE
  8
LAYER_1
 40
0.1976
 41
0.1976
 66
1
 10
0
 20
0
 30
0
  0
VERTEX
  8
LAYER_1
 10
51.7713
 20
-117.8819
  0
VERTEX
  8
LAYER_1
 10
51.7713
 20
-120.3796
  0
SEQEND
  0
POLYLINE
  8
LAYER_1
 40
0.1976
 41
0.1976
 66
1
 10
0
 20
0
 30
0
  0
VERTEX
  8
LAYER_1
 10
51.7713
 20
-120.8293
  0
VERTEX
  8
LAYER_1
 10
51.7713
 20
-121.8296
  0
SEQEND
  0
POLYLINE
  8
LAYER_1
 40
0.1976
 41
0.1976
 66
1
 10
0
 20
0
 30
0
  0
VERTEX
  8
LAYER_1
 10
51.7713
 20
-122.2794
  0
VERTEX
  8
LAYER_1
 10
51.7713
 20
-124.7771
  0
SEQEND
  0
POLYLINE
  8
LAYER_1
 40
0.1976
 41
0.1976
 66
1
 10
0
 20
0
 30
0
  0
VERTEX
  8
LAYER_1
 10
51.7713
 20
-125.2268
  0
VERTEX
  8
LAYER_1
 10
51.7713
 20
-126.2269
  0
SEQEND
  0
POLYLINE
  8
LAYER_1
 40
0.1976
 41
0.1976
 66
1
 10
0
 20
0
 30
0
  0
VERTEX
  8
LAYER_1
 10
51.7713
 20
-126.6767
  0
VERTEX
  8
LAYER_1
 10
51.7713
 20
-129.1797
  0
SEQEND
  0
POLYLINE
  8
LAYER_1
 40
0.1976
 41
0.1976
 66
1
 10
0
 20
0
 30
0
  0
VERTEX
  8
LAYER_1
 10
51.7713
 20
-129.6295
  0
VERTEX
  8
LAYER_1
 10
51.7713
 20
-130.6296
  0
SEQEND
  0
POLYLINE
  8
LAYER_1
 40
0.1976
 41
0.1976
 66
1
 10
0
 20
0
 30
0
  0
VERTEX
  8
LAYER_1
 10
51.7713
 20
-131.0793
  0
VERTEX
  8
LAYER_1
 10
51.7713
 20
-133.577
  0
SEQEND
  0
POLYLINE
  8
LAYER_1
 40
0.1976
 41
0.1976
 66
1
 10
0
 20
0
 30
0
  0
VERTEX
  8
LAYER_1
 10
51.7713
 20
-134.0268
  0
VERTEX
  8
LAYER_1
 10
51.7713
 20
-135.0005
  0
SEQEND
  0
POLYLINE
  8
LAYER_1
 40
0.1976
 41
0.1976
 66
1
 10
0
 20
0
 30
0
  0
VERTEX
  8
LAYER_1
 10
51.7713
 20
-135.4503
  0
VERTEX
  8
LAYER_1
 10
51.7713
 20
-137.9478
  0
SEQEND
  0
POLYLINE
  8
LAYER_1
 40
0.1976
 41
0.1976
 66
1
 10
0
 20
0
 30
0
  0
VERTEX
  8
LAYER_1
 10
51.7713
 20
-138.3978
  0
VERTEX
  8
LAYER_1
 10
51.7713
 20
-139.3979
  0
SEQEND
  0
POLYLINE
  8
LAYER_1
 40
0.1976
 41
0.1976
 66
1
 10
0
 20
0
 30
0
  0
VERTEX
  8
LAYER_1
 10
51.7713
 20
-139.8475
  0
VERTEX
  8
LAYER_1
 10
51.7713
 20
-142.3507
  0
SEQEND
  0
POLYLINE
  8
LAYER_1
 40
0.1976
 41
0.1976
 66
1
 10
0
 20
0
 30
0
  0
VERTEX
  8
LAYER_1
 10
51.7713
 20
-142.8006
  0
VERTEX
  8
LAYER_1
 10
51.7713
 20
-143.8004
  0
SEQEND
  0
POLYLINE
  8
LAYER_1
 40
0.1976
 41
0.1976
 66
1
 10
0
 20
0
 30
0
  0
VERTEX
  8
LAYER_1
 10
51.7713
 20
-144.2503
  0
VERTEX
  8
LAYER_1
 10
51.7713
 20
-146.748
  0
SEQEND
  0
POLYLINE
  8
LAYER_1
 40
0.1976
 41
0.1976
 66
1
 10
0
 20
0
 30
0
  0
VERTEX
  8
LAYER_1
 10
51.7713
 20
-147.1979
  0
VERTEX
  8
LAYER_1
 10
51.7713
 20
-148.1977
  0
SEQEND
  0
POLYLINE
  8
LAYER_1
 40
0.1976
 41
0.1976
 66
1
 10
0
 20
0
 30
0
  0
VERTEX
  8
LAYER_1
 10
51.7713
 20
-148.6476
  0
VERTEX
  8
LAYER_1
 10
51.7713
 20
-151.1239
  0
SEQEND
  0
POLYLINE
  8
LAYER_1
 40
0.1976
 41
0.1976
 66
1
 10
0
 20
0
 30
0
  0
VERTEX
  8
LAYER_1
 10
51.7713
 20
-151.5739
  0
VERTEX
  8
LAYER_1
 10
51.7713
 20
-152.574
  0
SEQEND
  0
POLYLINE
  8
LAYER_1
 40
0.1976
 41
0.1976
 66
1
 10
0
 20
0
 30
0
  0
VERTEX
  8
LAYER_1
 10
51.7713
 20
-153.0239
  0
VERTEX
  8
LAYER_1
 10
51.7713
 20
-155.4951
  0
SEQEND
  0
POLYLINE
  8
LAYER_1
 40
0.1976
 41
0.1976
 66
1
 10
0
 20
0
 30
0
  0
VERTEX
  8
LAYER_1
 10
51.7713
 20
-155.945
  0
VERTEX
  8
LAYER_1
 10
51.7713
 20
-156.9451
  0
SEQEND
  0
POLYLINE
  8
LAYER_1
 40
0.1976
 41
0.1976
 66
1
 10
0
 20
0
 30
0
  0
VERTEX
  8
LAYER_1
 10
51.7713
 20
-157.3947
  0
VERTEX
  8
LAYER_1
 10
51.7713
 20
-159.8924
  0
SEQEND
  0
POLYLINE
  8
LAYER_1
 40
0.1976
 41
0.1976
 66
1
 10
0
 20
0
 30
0
  0
VERTEX
  8
LAYER_1
 10
51.7713
 20
-160.3423
  0
VERTEX
  8
LAYER_1
 10
51.7713
 20
-161.3424
  0
SEQEND
  0
POLYLINE
  8
LAYER_1
 40
0.1976
 41
0.1976
 66
1
 10
0
 20
0
 30
0
  0
VERTEX
  8
LAYER_1
 10
51.7713
 20
-161.792
  0
VERTEX
  8
LAYER_1
 10
51.7713
 20
-164.2952
  0
SEQEND
  0
POLYLINE
  8
LAYER_1
 40
0.1976
 41
0.1976
 66
1
 10
0
 20
0
 30
0
  0
VERTEX
  8
LAYER_1
 10
51.7713
 20
-164.7448
  0
VERTEX
  8
LAYER_1
 10
51.7713
 20
-165.7449
  0
SEQEND
  0
POLYLINE
  8
LAYER_1
 40
0.1976
 41
0.1976
 66
1
 10
0
 20
0
 30
0
  0
VERTEX
  8
LAYER_1
 10
51.7713
 20
-166.1949
  0
VERTEX
  8
LAYER_1
 10
51.7713
 20
-168.6925
  0
SEQEND
  0
POLYLINE
  8
LAYER_1
 40
0.1976
 41
0.1976
 66
1
 10
0
 20
0
 30
0
  0
VERTEX
  8
LAYER_1
 10
51.7713
 20
-169.1425
  0
VERTEX
  8
LAYER_1
 10
51.7713
 20
-170.1426
  0
SEQEND
  0
POLYLINE
  8
LAYER_1
 40
0.1976
 41
0.1976
 66
1
 10
0
 20
0
 30
0
  0
VERTEX
  8
LAYER_1
 10
51.7713
 20
-170.5922
  0
VERTEX
  8
LAYER_1
 10
51.7713
 20
-173.0899
  0
SEQEND
  0
POLYLINE
  8
LAYER_1
 40
0.1976
 41
0.1976
 66
1
 10
0
 20
0
 30
0
  0
VERTEX
  8
LAYER_1
 10
51.7713
 20
-173.5398
  0
VERTEX
  8
LAYER_1
 10
51.7713
 20
-174.5399
  0
SEQEND
  0
POLYLINE
  8
LAYER_1
 40
0.1976
 41
0.1976
 66
1
 10
0
 20
0
 30
0
  0
VERTEX
  8
LAYER_1
 10
51.7713
 20
-174.9895
  0
VERTEX
  8
LAYER_1
 10
51.7713
 20
-177.4662
  0
SEQEND
  0
POLYLINE
  8
LAYER_1
 40
0.1976
 41
0.1976
 66
1
 10
0
 20
0
 30
0
  0
VERTEX
  8
LAYER_1
 10
51.7713
 20
-177.9158
  0
VERTEX
  8
LAYER_1
 10
51.7713
 20
-178.9159
  0
SEQEND
  0
POLYLINE
  8
LAYER_1
 40
0.1976
 41
0.1976
 66
1
 10
0
 20
0
 30
0
  0
VERTEX
  8
LAYER_1
 10
51.7713
 20
-179.3658
  0
VERTEX
  8
LAYER_1
 10
51.7713
 20
-181.8635
  0
SEQEND
  0
POLYLINE
  8
LAYER_1
 40
0.1976
 41
0.1976
 66
1
 10
0
 20
0
 30
0
  0
VERTEX
  8
LAYER_1
 10
51.7713
 20
-182.3134
  0
VERTEX
  8
LAYER_1
 10
51.7713
 20
-183.3135
  0
SEQEND
  0
POLYLINE
  8
LAYER_1
 40
0.1976
 41
0.1976
 66
1
 10
0
 20
0
 30
0
  0
VERTEX
  8
LAYER_1
 10
51.7713
 20
-183.7631
  0
VERTEX
  8
LAYER_1
 10
51.7713
 20
-186.2608
  0
SEQEND
  0
POLYLINE
  8
LAYER_1
 40
0.1976
 41
0.1976
 66
1
 10
0
 20
0
 30
0
  0
VERTEX
  8
LAYER_1
 10
51.7713
 20
-186.7107
  0
VERTEX
  8
LAYER_1
 10
51.7713
 20
-187.7109
  0
SEQEND
  0
POLYLINE
  8
LAYER_1
 40
0.1976
 41
0.1976
 66
1
 10
0
 20
0
 30
0
  0
VERTEX
  8
LAYER_1
 10
51.7713
 20
-188.1604
  0
VERTEX
  8
LAYER_1
 10
51.7713
 20
-190.6636
  0
SEQEND
  0
POLYLINE
  8
LAYER_1
 40
0.1976
 41
0.1976
 66
1
 10
0
 20
0
 30
0
  0
VERTEX
  8
LAYER_1
 10
51.7713
 20
-191.1132
  0
VERTEX
  8
LAYER_1
 10
51.7713
 20
-192.1133
  0
SEQEND
  0
POLYLINE
  8
LAYER_1
 40
0.1976
 41
0.1976
 66
1
 10
0
 20
0
 30
0
  0
VERTEX
  8
LAYER_1
 10
51.7713
 20
-192.5633
  0
VERTEX
  8
LAYER_1
 10
51.7713
 20
-195.061
  0
SEQEND
  0
POLYLINE
  8
LAYER_1
 40
0.1976
 41
0.1976
 66
1
 10
0
 20
0
 30
0
  0
VERTEX
  8
LAYER_1
 10
51.7713
 20
-195.5105
  0
VERTEX
  8
LAYER_1
 10
51.7713
 20
-196.4845
  0
SEQEND
  0
POLYLINE
  8
LAYER_1
 40
0.1976
 41
0.1976
 66
1
 10
0
 20
0
 30
0
  0
VERTEX
  8
LAYER_1
 10
51.7713
 20
-196.9341
  0
VERTEX
  8
LAYER_1
 10
51.7713
 20
-199.4373
  0
SEQEND
  0
POLYLINE
  8
LAYER_1
 40
0.1976
 41
0.1976
 66
1
 10
0
 20
0
 30
0
  0
VERTEX
  8
LAYER_1
 10
51.7713
 20
-199.8869
  0
VERTEX
  8
LAYER_1
 10
51.7713
 20
-200.887
  0
SEQEND
  0
POLYLINE
  8
LAYER_1
 40
0.1976
 41
0.1976
 66
1
 10
0
 20
0
 30
0
  0
VERTEX
  8
LAYER_1
 10
51.7713
 20
-201.3369
  0
VERTEX
  8
LAYER_1
 10
51.7713
 20
-203.8346
  0
SEQEND
  0
POLYLINE
  8
LAYER_1
 40
0.1976
 41
0.1976
 66
1
 10
0
 20
0
 30
0
  0
VERTEX
  8
LAYER_1
 10
51.7713
 20
-204.2842
  0
VERTEX
  8
LAYER_1
 10
51.7713
 20
-205.2843
  0
SEQEND
  0
POLYLINE
  8
LAYER_1
 40
0.1976
 41
0.1976
 66
1
 10
0
 20
0
 30
0
  0
VERTEX
  8
LAYER_1
 10
51.7713
 20
-205.7342
  0
VERTEX
  8
LAYER_1
 10
51.7713
 20
-208.2319
  0
SEQEND
  0
POLYLINE
  8
LAYER_1
 40
0.1976
 41
0.1976
 66
1
 10
0
 20
0
 30
0
  0
VERTEX
  8
LAYER_1
 10
51.7713
 20
-208.6815
  0
VERTEX
  8
LAYER_1
 10
51.7713
 20
-209.6816
  0
SEQEND
  0
POLYLINE
  8
LAYER_1
 40
0.1976
 41
0.1976
 66
1
 10
0
 20
0
 30
0
  0
VERTEX
  8
LAYER_1
 10
51.7713
 20
-210.1315
  0
VERTEX
  8
LAYER_1
 10
51.7713
 20
-212.6292
  0
SEQEND
  0
POLYLINE
  8
LAYER_1
 40
0.1976
 41
0.1976
 66
1
 10
0
 20
0
 30
0
  0
VERTEX
  8
LAYER_1
 10
51.7713
 20
-213.0843
  0
VERTEX
  8
LAYER_1
 10
51.7713
 20
-214.0793
  0
SEQEND
  0
POLYLINE
  8
LAYER_1
 40
0.1976
 41
0.1976
 66
1
 10
0
 20
0
 30
0
  0
VERTEX
  8
LAYER_1
 10
51.7713
 20
-214.5289
  0
VERTEX
  8
LAYER_1
 10
51.7713
 20
-217.0055
  0
SEQEND
  0
POLYLINE
  8
LAYER_1
 40
0.1976
 41
0.1976
 66
1
 10
0
 20
0
 30
0
  0
VERTEX
  8
LAYER_1
 10
51.7713
 20
-217.4551
  0
VERTEX
  8
LAYER_1
 10
51.7713
 20
-218.4552
  0
SEQEND
  0
POLYLINE
  8
LAYER_1
 40
0.1976
 41
0.1976
 66
1
 10
0
 20
0
 30
0
  0
VERTEX
  8
LAYER_1
 10
51.7713
 20
-218.9052
  0
VERTEX
  8
LAYER_1
 10
51.7713
 20
-221.4029
  0
SEQEND
  0
POLYLINE
  8
LAYER_1
 40
0.1976
 41
0.1976
 66
1
 10
0
 20
0
 30
0
  0
VERTEX
  8
LAYER_1
 10
51.7713
 20
-221.8524
  0
VERTEX
  8
LAYER_1
 10
51.7713
 20
-222.8529
  0
SEQEND
  0
POLYLINE
  8
LAYER_1
 40
0.1976
 41
0.1976
 66
1
 10
0
 20
0
 30
0
  0
VERTEX
  8
LAYER_1
 10
51.7713
 20
-223.3025
  0
VERTEX
  8
LAYER_1
 10
51.7713
 20
-225.8053
  0
SEQEND
  0
POLYLINE
  8
LAYER_1
 40
0.1976
 41
0.1976
 66
1
 10
0
 20
0
 30
0
  0
VERTEX
  8
LAYER_1
 10
51.7713
 20
-226.2553
  0
VERTEX
  8
LAYER_1
 10
51.7713
 20
-227.2554
  0
SEQEND
  0
POLYLINE
  8
LAYER_1
 40
0.1976
 41
0.1976
 66
1
 10
0
 20
0
 30
0
  0
VERTEX
  8
LAYER_1
 10
51.7713
 20
-227.7053
  0
VERTEX
  8
LAYER_1
 10
51.7713
 20
-230.203
  0
SEQEND
  0
POLYLINE
  8
LAYER_1
 40
0.1976
 41
0.1976
 66
1
 10
0
 20
0
 30
0
  0
VERTEX
  8
LAYER_1
 10
51.7713
 20
-230.6526
  0
VERTEX
  8
LAYER_1
 10
51.7713
 20
-231.6527
  0
SEQEND
  0
POLYLINE
  8
LAYER_1
 40
0.1976
 41
0.1976
 66
1
 10
0
 20
0
 30
0
  0
VERTEX
  8
LAYER_1
 10
51.7713
 20
-232.1026
  0
VERTEX
  8
LAYER_1
 10
51.7713
 20
-234.6003
  0
SEQEND
  0
POLYLINE
  8
LAYER_1
 40
0.1976
 41
0.1976
 66
1
 10
0
 20
0
 30
0
  0
VERTEX
  8
LAYER_1
 10
51.7713
 20
-235.0499
  0
VERTEX
  8
LAYER_1
 10
51.7713
 20
-236.05
  0
SEQEND
  0
POLYLINE
  8
LAYER_1
 40
0.1976
 41
0.1976
 66
1
 10
0
 20
0
 30
0
  0
VERTEX
  8
LAYER_1
 10
51.7713
 20
-236.4734
  0
VERTEX
  8
LAYER_1
 10
51.7713
 20
-238.9763
  0
SEQEND
  0
POLYLINE
  8
LAYER_1
 40
0.1976
 41
0.1976
 66
1
 10
0
 20
0
 30
0
  0
VERTEX
  8
LAYER_1
 10
51.7713
 20
-239.4262
  0
VERTEX
  8
LAYER_1
 10
51.7713
 20
-240.4263
  0
SEQEND
  0
POLYLINE
  8
LAYER_1
 40
0.1976
 41
0.1976
 66
1
 10
0
 20
0
 30
0
  0
VERTEX
  8
LAYER_1
 10
51.7713
 20
-240.8763
  0
VERTEX
  8
LAYER_1
 10
51.7713
 20
-243.3739
  0
SEQEND
  0
POLYLINE
  8
LAYER_1
 40
0.1976
 41
0.1976
 66
1
 10
0
 20
0
 30
0
  0
VERTEX
  8
LAYER_1
 10
51.7713
 20
-243.8235
  0
VERTEX
  8
LAYER_1
 10
51.7713
 20
-244.8236
  0
SEQEND
  0
POLYLINE
  8
LAYER_1
 40
0.1976
 41
0.1976
 66
1
 10
0
 20
0
 30
0
  0
VERTEX
  8
LAYER_1
 10
51.7713
 20
-245.2736
  0
VERTEX
  8
LAYER_1
 10
51.7713
 20
-247.7713
  0
SEQEND
  0
POLYLINE
  8
LAYER_1
 40
0.1976
 41
0.1976
 66
1
 10
0
 20
0
 30
0
  0
VERTEX
  8
LAYER_1
 10
51.7713
 20
-248.2209
  0
VERTEX
  8
LAYER_1
 10
51.7713
 20
-249.221
  0
SEQEND
  0
POLYLINE
  8
LAYER_1
 40
0.1976
 41
0.1976
 66
1
 10
0
 20
0
 30
0
  0
VERTEX
  8
LAYER_1
 10
51.7713
 20
-249.6709
  0
VERTEX
  8
LAYER_1
 10
51.7713
 20
-252.1738
  0
SEQEND
  0
POLYLINE
  8
LAYER_1
 40
0.1976
 41
0.1976
 66
1
 10
0
 20
0
 30
0
  0
VERTEX
  8
LAYER_1
 10
51.7713
 20
-252.6237
  0
VERTEX
  8
LAYER_1
 10
51.7713
 20
-253.6238
  0
SEQEND
  0
POLYLINE
  8
LAYER_1
 40
0.1976
 41
0.1976
 66
1
 10
0
 20
0
 30
0
  0
VERTEX
  8
LAYER_1
 10
51.7713
 20
-254.0737
  0
VERTEX
  8
LAYER_1
 10
51.7713
 20
-256.5449
  0
SEQEND
  0
POLYLINE
  8
LAYER_1
 40
0.1976
 41
0.1976
 66
1
 10
0
 20
0
 30
0
  0
VERTEX
  8
LAYER_1
 10
127.6801
 20
-66.6691
  0
VERTEX
  8
LAYER_1
 10
138.6713
 20
-66.6691
  0
SEQEND
  0
POLYLINE
  8
LAYER_1
 40
0.1976
 41
0.1976
 66
1
 10
0
 20
0
 30
0
  0
VERTEX
  8
LAYER_1
 10
116.1865
 20
-46.6719
  0
VERTEX
  8
LAYER_1
 10
105.688
 20
-46.6719
  0
SEQEND
  0
POLYLINE
  8
LAYER_1
 40
0.1976
 41
0.1976
 66
1
 10
0
 20
0
 30
0
  0
VERTEX
  8
LAYER_1
 10
82.0027
 20
-23.7538
  0
VERTEX
  8
LAYER_1
 10
84.5533
 20
-23.7538
  0
SEQEND
  0
POLYLINE
  8
LAYER_1
 40
0.1976
 41
0.1976
 66
1
 10
0
 20
0
 30
0
  0
VERTEX
  8
LAYER_1
 10
85.0243
 20
-23.7538
  0
VERTEX
  8
LAYER_1
 10
86.0244
 20
-23.7538
  0
SEQEND
  0
POLYLINE
  8
LAYER_1
 40
0.1976
 41
0.1976
 66
1
 10
0
 20
0
 30
0
  0
VERTEX
  8
LAYER_1
 10
86.5007
 20
-23.7538
  0
VERTEX
  8
LAYER_1
 10
89.0512
 20
-23.7538
  0
SEQEND
  0
POLYLINE
  8
LAYER_1
 40
0.1976
 41
0.1976
 66
1
 10
0
 20
0
 30
0
  0
VERTEX
  8
LAYER_1
 10
89.501
 20
-23.7538
  0
VERTEX
  8
LAYER_1
 10
90.5223
 20
-23.7538
  0
SEQEND
  0
POLYLINE
  8
LAYER_1
 40
0.1976
 41
0.1976
 66
1
 10
0
 20
0
 30
0
  0
VERTEX
  8
LAYER_1
 10
90.9721
 20
-23.7538
  0
VERTEX
  8
LAYER_1
 10
93.4963
 20
-23.7538
  0
SEQEND
  0
POLYLINE
  8
LAYER_1
 40
0.1976
 41
0.1976
 66
1
 10
0
 20
0
 30
0
  0
VERTEX
  8
LAYER_1
 10
93.9459
 20
-23.7538
  0
VERTEX
  8
LAYER_1
 10
94.9725
 20
-23.7538
  0
SEQEND
  0
POLYLINE
  8
LAYER_1
 40
0.1976
 41
0.1976
 66
1
 10
0
 20
0
 30
0
  0
VERTEX
  8
LAYER_1
 10
95.4224
 20
-23.7538
  0
VERTEX
  8
LAYER_1
 10
97.9677
 20
-23.7538
  0
SEQEND
  0
POLYLINE
  8
LAYER_1
 40
0.1976
 41
0.1976
 66
1
 10
0
 20
0
 30
0
  0
VERTEX
  8
LAYER_1
 10
98.4438
 20
-23.7538
  0
VERTEX
  8
LAYER_1
 10
99.4439
 20
-23.7538
  0
SEQEND
  0
POLYLINE
  8
LAYER_1
 40
0.1976
 41
0.1976
 66
1
 10
0
 20
0
 30
0
  0
VERTEX
  8
LAYER_1
 10
99.9203
 20
-23.7538
  0
VERTEX
  8
LAYER_1
 10
102.4656
 20
-23.7538
  0
SEQEND
  0
POLYLINE
  8
LAYER_1
 40
0.1976
 41
0.1976
 66
1
 10
0
 20
0
 30
0
  0
VERTEX
  8
LAYER_1
 10
102.9155
 20
-23.7538
  0
VERTEX
  8
LAYER_1
 10
103.9418
 20
-23.7538
  0
SEQEND
  0
POLYLINE
  8
LAYER_1
 40
0.1976
 41
0.1976
 66
1
 10
0
 20
0
 30
0
  0
VERTEX
  8
LAYER_1
 10
104.3917
 20
-23.7538
  0
VERTEX
  8
LAYER_1
 10
106.9427
 20
-23.7538
  0
SEQEND
  0
POLYLINE
  8
LAYER_1
 40
0.1976
 41
0.1976
 66
1
 10
0
 20
0
 30
0
  0
VERTEX
  8
LAYER_1
 10
107.3919
 20
-23.7538
  0
VERTEX
  8
LAYER_1
 10
108.4137
 20
-23.7538
  0
SEQEND
  0
POLYLINE
  8
LAYER_1
 40
0.1976
 41
0.1976
 66
1
 10
0
 20
0
 30
0
  0
VERTEX
  8
LAYER_1
 10
108.863
 20
-23.7538
  0
VERTEX
  8
LAYER_1
 10
111.4137
 20
-23.7538
  0
SEQEND
  0
POLYLINE
  8
LAYER_1
 40
0.1976
 41
0.1976
 66
1
 10
0
 20
0
 30
0
  0
VERTEX
  8
LAYER_1
 10
111.885
 20
-23.7538
  0
VERTEX
  8
LAYER_1
 10
112.8848
 20
-23.7538
  0
SEQEND
  0
POLYLINE
  8
LAYER_1
 40
0.1976
 41
0.1976
 66
1
 10
0
 20
0
 30
0
  0
VERTEX
  8
LAYER_1
 10
113.3609
 20
-23.7538
  0
VERTEX
  8
LAYER_1
 10
115.8854
 20
-23.7538
  0
SEQEND
  0
POLYLINE
  8
LAYER_1
 40
0.1976
 41
0.1976
 66
1
 10
0
 20
0
 30
0
  0
VERTEX
  8
LAYER_1
 10
116.3615
 20
-23.7538
  0
VERTEX
  8
LAYER_1
 10
117.3827
 20
-23.7538
  0
SEQEND
  0
POLYLINE
  8
LAYER_1
 40
0.1976
 41
0.1976
 66
1
 10
0
 20
0
 30
0
  0
VERTEX
  8
LAYER_1
 10
117.8326
 20
-23.7538
  0
VERTEX
  8
LAYER_1
 10
120.3833
 20
-23.7538
  0
SEQEND
  0
POLYLINE
  8
LAYER_1
 40
0.1976
 41
0.1976
 66
1
 10
0
 20
0
 30
0
  0
VERTEX
  8
LAYER_1
 10
120.8333
 20
-23.7538
  0
VERTEX
  8
LAYER_1
 10
121.8544
 20
-23.7538
  0
SEQEND
  0
POLYLINE
  8
LAYER_1
 40
0.1976
 41
0.1976
 66
1
 10
0
 20
0
 30
0
  0
VERTEX
  8
LAYER_1
 10
122.3043
 20
-23.7538
  0
VERTEX
  8
LAYER_1
 10
124.8544
 20
-23.7538
  0
SEQEND
  0
POLYLINE
  8
LAYER_1
 40
0.1976
 41
0.1976
 66
1
 10
0
 20
0
 30
0
  0
VERTEX
  8
LAYER_1
 10
125.3043
 20
-23.7538
  0
VERTEX
  8
LAYER_1
 10
126.331
 20
-23.7538
  0
SEQEND
  0
POLYLINE
  8
LAYER_1
 40
0.1976
 41
0.1976
 66
1
 10
0
 20
0
 30
0
  0
VERTEX
  8
LAYER_1
 10
126.8023
 20
-23.7538
  0
VERTEX
  8
LAYER_1
 10
129.3261
 20
-23.7538
  0
SEQEND
  0
POLYLINE
  8
LAYER_1
 40
0.1976
 41
0.1976
 66
1
 10
0
 20
0
 30
0
  0
VERTEX
  8
LAYER_1
 10
129.8022
 20
-23.7538
  0
VERTEX
  8
LAYER_1
 10
130.8027
 20
-23.7538
  0
SEQEND
  0
POLYLINE
  8
LAYER_1
 40
0.1976
 41
0.1976
 66
1
 10
0
 20
0
 30
0
  0
VERTEX
  8
LAYER_1
 10
131.2788
 20
-23.7538
  0
VERTEX
  8
LAYER_1
 10
133.824
 20
-23.7538
  0
SEQEND
  0
POLYLINE
  8
LAYER_1
 40
0.1976
 41
0.1976
 66
1
 10
0
 20
0
 30
0
  0
VERTEX
  8
LAYER_1
 10
134.274
 20
-23.7538
  0
VERTEX
  8
LAYER_1
 10
135.3006
 20
-23.7538
  0
SEQEND
  0
POLYLINE
  8
LAYER_1
 40
0.1976
 41
0.1976
 66
1
 10
0
 20
0
 30
0
  0
VERTEX
  8
LAYER_1
 10
135.7499
 20
-23.7538
  0
VERTEX
  8
LAYER_1
 10
138.3006
 20
-23.7538
  0
SEQEND
  0
POLYLINE
  8
LAYER_1
 40
0.1976
 41
0.1976
 66
1
 10
0
 20
0
 30
0
  0
VERTEX
  8
LAYER_1
 10
138.7505
 20
-23.7538
  0
VERTEX
  8
LAYER_1
 10
139.7717
 20
-23.7538
  0
SEQEND
  0
POLYLINE
  8
LAYER_1
 40
0.1976
 41
0.1976
 66
1
 10
0
 20
0
 30
0
  0
VERTEX
  8
LAYER_1
 10
140.2216
 20
-23.7538
  0
VERTEX
  8
LAYER_1
 10
142.7723
 20
-23.7538
  0
SEQEND
  0
POLYLINE
  8
LAYER_1
 40
0.1976
 41
0.1976
 66
1
 10
0
 20
0
 30
0
  0
VERTEX
  8
LAYER_1
 10
143.2429
 20
-23.7538
  0
VERTEX
  8
LAYER_1
 10
144.2434
 20
-23.7538
  0
SEQEND
  0
POLYLINE
  8
LAYER_1
 40
0.1976
 41
0.1976
 66
1
 10
0
 20
0
 30
0
  0
VERTEX
  8
LAYER_1
 10
144.7195
 20
-23.7538
  0
VERTEX
  8
LAYER_1
 10
147.2703
 20
-23.7538
  0
SEQEND
  0
POLYLINE
  8
LAYER_1
 40
0.1976
 41
0.1976
 66
1
 10
0
 20
0
 30
0
  0
VERTEX
  8
LAYER_1
 10
147.7202
 20
-23.7538
  0
VERTEX
  8
LAYER_1
 10
148.7413
 20
-23.7538
  0
SEQEND
  0
POLYLINE
  8
LAYER_1
 40
0.1976
 41
0.1976
 66
1
 10
0
 20
0
 30
0
  0
VERTEX
  8
LAYER_1
 10
149.1912
 20
-23.7538
  0
VERTEX
  8
LAYER_1
 10
151.7413
 20
-23.7538
  0
SEQEND
  0
POLYLINE
  8
LAYER_1
 40
0.1976
 41
0.1976
 66
1
 10
0
 20
0
 30
0
  0
VERTEX
  8
LAYER_1
 10
152.1912
 20
-23.7538
  0
VERTEX
  8
LAYER_1
 10
153.2124
 20
-23.7538
  0
SEQEND
  0
POLYLINE
  8
LAYER_1
 40
0.1976
 41
0.1976
 66
1
 10
0
 20
0
 30
0
  0
VERTEX
  8
LAYER_1
 10
153.6623
 20
-23.7538
  0
VERTEX
  8
LAYER_1
 10
156.213
 20
-23.7538
  0
SEQEND
  0
POLYLINE
  8
LAYER_1
 40
0.1976
 41
0.1976
 66
1
 10
0
 20
0
 30
0
  0
VERTEX
  8
LAYER_1
 10
156.6891
 20
-23.7538
  0
VERTEX
  8
LAYER_1
 10
157.6896
 20
-23.7538
  0
SEQEND
  0
POLYLINE
  8
LAYER_1
 40
0.1976
 41
0.1976
 66
1
 10
0
 20
0
 30
0
  0
VERTEX
  8
LAYER_1
 10
158.1602
 20
-23.7538
  0
VERTEX
  8
LAYER_1
 10
160.6848
 20
-23.7538
  0
SEQEND
  0
POLYLINE
  8
LAYER_1
 40
0.1976
 41
0.1976
 66
1
 10
0
 20
0
 30
0
  0
VERTEX
  8
LAYER_1
 10
151.7151
 20
-14.7579
  0
VERTEX
  8
LAYER_1
 10
151.7151
 20
-17.3826
  0
SEQEND
  0
POLYLINE
  8
LAYER_1
 40
0.1976
 41
0.1976
 66
1
 10
0
 20
0
 30
0
  0
VERTEX
  8
LAYER_1
 10
151.7151
 20
-17.8535
  0
VERTEX
  8
LAYER_1
 10
151.7151
 20
-18.9067
  0
SEQEND
  0
POLYLINE
  8
LAYER_1
 40
0.1976
 41
0.1976
 66
1
 10
0
 20
0
 30
0
  0
VERTEX
  8
LAYER_1
 10
151.7151
 20
-19.3776
  0
VERTEX
  8
LAYER_1
 10
151.7151
 20
-22.0023
  0
SEQEND
  0
POLYLINE
  8
LAYER_1
 40
0.1976
 41
0.1976
 66
1
 10
0
 20
0
 30
0
  0
VERTEX
  8
LAYER_1
 10
151.7151
 20
-22.4786
  0
VERTEX
  8
LAYER_1
 10
151.7151
 20
-23.505
  0
SEQEND
  0
POLYLINE
  8
LAYER_1
 40
0.1976
 41
0.1976
 66
1
 10
0
 20
0
 30
0
  0
VERTEX
  8
LAYER_1
 10
151.7151
 20
-23.9813
  0
VERTEX
  8
LAYER_1
 10
151.7151
 20
-26.6006
  0
SEQEND
  0
POLYLINE
  8
LAYER_1
 40
0.1976
 41
0.1976
 66
1
 10
0
 20
0
 30
0
  0
VERTEX
  8
LAYER_1
 10
151.7151
 20
-27.0769
  0
VERTEX
  8
LAYER_1
 10
151.7151
 20
-28.1299
  0
SEQEND
  0
POLYLINE
  8
LAYER_1
 40
0.1976
 41
0.1976
 66
1
 10
0
 20
0
 30
0
  0
VERTEX
  8
LAYER_1
 10
151.7151
 20
-28.6008
  0
VERTEX
  8
LAYER_1
 10
151.7151
 20
-31.2045
  0
SEQEND
  0
POLYLINE
  8
LAYER_1
 40
0.1976
 41
0.1976
 66
1
 10
0
 20
0
 30
0
  0
VERTEX
  8
LAYER_1
 10
151.7151
 20
-31.6754
  0
VERTEX
  8
LAYER_1
 10
151.7151
 20
-32.7284
  0
SEQEND
  0
POLYLINE
  8
LAYER_1
 40
0.1976
 41
0.1976
 66
1
 10
0
 20
0
 30
0
  0
VERTEX
  8
LAYER_1
 10
151.7151
 20
-33.1994
  0
VERTEX
  8
LAYER_1
 10
151.7151
 20
-35.824
  0
SEQEND
  0
POLYLINE
  8
LAYER_1
 40
0.1976
 41
0.1976
 66
1
 10
0
 20
0
 30
0
  0
VERTEX
  8
LAYER_1
 10
151.7151
 20
-36.3003
  0
VERTEX
  8
LAYER_1
 10
151.7151
 20
-37.3481
  0
SEQEND
  0
POLYLINE
  8
LAYER_1
 40
0.1976
 41
0.1976
 66
1
 10
0
 20
0
 30
0
  0
VERTEX
  8
LAYER_1
 10
151.7151
 20
-37.8244
  0
VERTEX
  8
LAYER_1
 10
151.7151
 20
-40.4225
  0
SEQEND
  0
POLYLINE
  8
LAYER_1
 40
0.1976
 41
0.1976
 66
1
 10
0
 20
0
 30
0
  0
VERTEX
  8
LAYER_1
 10
151.7151
 20
-40.8988
  0
VERTEX
  8
LAYER_1
 10
151.7151
 20
-41.9518
  0
SEQEND
  0
POLYLINE
  8
LAYER_1
 40
0.1976
 41
0.1976
 66
1
 10
0
 20
0
 30
0
  0
VERTEX
  8
LAYER_1
 10
151.7151
 20
-42.4227
  0
VERTEX
  8
LAYER_1
 10
151.7151
 20
-45.0474
  0
SEQEND
  0
POLYLINE
  8
LAYER_1
 40
0.1976
 41
0.1976
 66
1
 10
0
 20
0
 30
0
  0
VERTEX
  8
LAYER_1
 10
151.7151
 20
-45.5237
  0
VERTEX
  8
LAYER_1
 10
151.7151
 20
-46.5503
  0
SEQEND
  0
POLYLINE
  8
LAYER_1
 40
0.1976
 41
0.1976
 66
1
 10
0
 20
0
 30
0
  0
VERTEX
  8
LAYER_1
 10
151.7151
 20
-47.0212
  0
VERTEX
  8
LAYER_1
 10
151.7151
 20
-49.6459
  0
SEQEND
  0
POLYLINE
  8
LAYER_1
 40
0.1976
 41
0.1976
 66
1
 10
0
 20
0
 30
0
  0
VERTEX
  8
LAYER_1
 10
151.7151
 20
-50.1222
  0
VERTEX
  8
LAYER_1
 10
151.7151
 20
-51.1698
  0
SEQEND
  0
POLYLINE
  8
LAYER_1
 40
0.1976
 41
0.1976
 66
1
 10
0
 20
0
 30
0
  0
VERTEX
  8
LAYER_1
 10
151.7151
 20
-51.6461
  0
VERTEX
  8
LAYER_1
 10
151.7151
 20
-54.2444
  0
SEQEND
  0
POLYLINE
  8
LAYER_1
 40
0.1976
 41
0.1976
 66
1
 10
0
 20
0
 30
0
  0
VERTEX
  8
LAYER_1
 10
95.872
 20
-98.5621
  0
VERTEX
  8
LAYER_1
 10
94.8984
 20
-100.6099
  0
SEQEND
  0
POLYLINE
  8
LAYER_1
 40
0.1976
 41
0.1976
 66
1
 10
0
 20
0
 30
0
  0
VERTEX
  8
LAYER_1
 10
94.7451
 20
-100.9592
  0
VERTEX
  8
LAYER_1
 10
94.3482
 20
-101.7847
  0
SEQEND
  0
POLYLINE
  8
LAYER_1
 40
0.1976
 41
0.1976
 66
1
 10
0
 20
0
 30
0
  0
VERTEX
  8
LAYER_1
 10
94.1946
 20
-102.134
  0
VERTEX
  8
LAYER_1
 10
93.221
 20
-104.1818
  0
SEQEND
  0
POLYLINE
  8
LAYER_1
 40
0.1976
 41
0.1976
 66
1
 10
0
 20
0
 30
0
  0
VERTEX
  8
LAYER_1
 10
93.0729
 20
-104.5363
  0
VERTEX
  8
LAYER_1
 10
92.6708
 20
-105.3565
  0
SEQEND
  0
POLYLINE
  8
LAYER_1
 40
0.1976
 41
0.1976
 66
1
 10
0
 20
0
 30
0
  0
VERTEX
  8
LAYER_1
 10
92.5227
 20
-105.711
  0
VERTEX
  8
LAYER_1
 10
91.5753
 20
-107.7326
  0
SEQEND
  0
POLYLINE
  8
LAYER_1
 40
0.1976
 41
0.1976
 66
1
 10
0
 20
0
 30
0
  0
VERTEX
  8
LAYER_1
 10
85.7281
 20
-95.4875
  0
VERTEX
  8
LAYER_1
 10
88.0511
 20
-96.5882
  0
SEQEND
  0
POLYLINE
  8
LAYER_1
 40
0.1976
 41
0.1976
 66
1
 10
0
 20
0
 30
0
  0
VERTEX
  8
LAYER_1
 10
88.4744
 20
-96.7629
  0
VERTEX
  8
LAYER_1
 10
89.4004
 20
-97.2127
  0
SEQEND
  0
POLYLINE
  8
LAYER_1
 40
0.1976
 41
0.1976
 66
1
 10
0
 20
0
 30
0
  0
VERTEX
  8
LAYER_1
 10
89.8238
 20
-97.4085
  0
VERTEX
  8
LAYER_1
 10
92.0993
 20
-98.4827
  0
SEQEND
  0
POLYLINE
  8
LAYER_1
 40
0.1976
 41
0.1976
 66
1
 10
0
 20
0
 30
0
  0
VERTEX
  8
LAYER_1
 10
92.5227
 20
-98.6837
  0
VERTEX
  8
LAYER_1
 10
93.4487
 20
-99.1123
  0
SEQEND
  0
POLYLINE
  8
LAYER_1
 40
0.1976
 41
0.1976
 66
1
 10
0
 20
0
 30
0
  0
VERTEX
  8
LAYER_1
 10
93.8718
 20
-99.3082
  0
VERTEX
  8
LAYER_1
 10
96.1686
 20
-100.3823
  0
SEQEND
  0
POLYLINE
  8
LAYER_1
 40
0.1976
 41
0.1976
 66
1
 10
0
 20
0
 30
0
  0
VERTEX
  8
LAYER_1
 10
96.5972
 20
-100.5835
  0
VERTEX
  8
LAYER_1
 10
97.5177
 20
-101.0121
  0
SEQEND
  0
POLYLINE
  8
LAYER_1
 40
0.1976
 41
0.1976
 66
1
 10
0
 20
0
 30
0
  0
VERTEX
  8
LAYER_1
 10
97.9466
 20
-101.2079
  0
VERTEX
  8
LAYER_1
 10
100.2431
 20
-102.2821
  0
SEQEND
  0
POLYLINE
  8
LAYER_1
 40
0.1976
 41
0.1976
 66
1
 10
0
 20
0
 30
0
  0
VERTEX
  8
LAYER_1
 10
100.6666
 20
-102.4832
  0
VERTEX
  8
LAYER_1
 10
101.5926
 20
-102.9119
  0
SEQEND
  0
POLYLINE
  8
LAYER_1
 40
0.1976
 41
0.1976
 66
1
 10
0
 20
0
 30
0
  0
VERTEX
  8
LAYER_1
 10
102.0157
 20
-103.1076
  0
VERTEX
  8
LAYER_1
 10
104.3177
 20
-104.1818
  0
SEQEND
  0
POLYLINE
  8
LAYER_1
 40
0.1976
 41
0.1976
 66
1
 10
0
 20
0
 30
0
  0
VERTEX
  8
LAYER_1
 10
104.7411
 20
-104.3829
  0
VERTEX
  8
LAYER_1
 10
105.6673
 20
-104.8062
  0
SEQEND
  0
POLYLINE
  8
LAYER_1
 40
0.1976
 41
0.1976
 66
1
 10
0
 20
0
 30
0
  0
VERTEX
  8
LAYER_1
 10
106.0903
 20
-105.0074
  0
VERTEX
  8
LAYER_1
 10
108.3868
 20
-106.0816
  0
SEQEND
  0
POLYLINE
  8
LAYER_1
 40
0.1976
 41
0.1976
 66
1
 10
0
 20
0
 30
0
  0
VERTEX
  8
LAYER_1
 10
108.8154
 20
-106.2826
  0
VERTEX
  8
LAYER_1
 10
109.7366
 20
-106.706
  0
SEQEND
  0
POLYLINE
  8
LAYER_1
 40
0.1976
 41
0.1976
 66
1
 10
0
 20
0
 30
0
  0
VERTEX
  8
LAYER_1
 10
110.1652
 20
-106.907
  0
VERTEX
  8
LAYER_1
 10
112.4617
 20
-107.9812
  0
SEQEND
  0
POLYLINE
  8
LAYER_1
 40
0.1976
 41
0.1976
 66
1
 10
0
 20
0
 30
0
  0
VERTEX
  8
LAYER_1
 10
112.8848
 20
-108.1824
  0
VERTEX
  8
LAYER_1
 10
113.8108
 20
-108.6056
  0
SEQEND
  0
POLYLINE
  8
LAYER_1
 40
0.1976
 41
0.1976
 66
1
 10
0
 20
0
 30
0
  0
VERTEX
  8
LAYER_1
 10
114.2345
 20
-108.8068
  0
VERTEX
  8
LAYER_1
 10
116.5359
 20
-109.881
  0
SEQEND
  0
POLYLINE
  8
LAYER_1
 40
0.1976
 41
0.1976
 66
1
 10
0
 20
0
 30
0
  0
VERTEX
  8
LAYER_1
 10
116.9596
 20
-110.082
  0
VERTEX
  8
LAYER_1
 10
117.8857
 20
-110.5054
  0
SEQEND
  0
POLYLINE
  8
LAYER_1
 40
0.1976
 41
0.1976
 66
1
 10
0
 20
0
 30
0
  0
VERTEX
  8
LAYER_1
 10
118.3087
 20
-110.7064
  0
VERTEX
  8
LAYER_1
 10
120.6052
 20
-111.7806
  0
SEQEND
  0
POLYLINE
  8
LAYER_1
 40
0.1976
 41
0.1976
 66
1
 10
0
 20
0
 30
0
  0
VERTEX
  8
LAYER_1
 10
121.0338
 20
-111.9818
  0
VERTEX
  8
LAYER_1
 10
121.955
 20
-112.405
  0
SEQEND
  0
POLYLINE
  8
LAYER_1
 40
0.1976
 41
0.1976
 66
1
 10
0
 20
0
 30
0
  0
VERTEX
  8
LAYER_1
 10
122.3836
 20
-112.606
  0
VERTEX
  8
LAYER_1
 10
124.6801
 20
-113.6804
  0
SEQEND
  0
POLYLINE
  8
LAYER_1
 40
0.1976
 41
0.1976
 66
1
 10
0
 20
0
 30
0
  0
VERTEX
  8
LAYER_1
 10
125.1031
 20
-113.8814
  0
VERTEX
  8
LAYER_1
 10
126.0292
 20
-114.3048
  0
SEQEND
  0
POLYLINE
  8
LAYER_1
 40
0.1976
 41
0.1976
 66
1
 10
0
 20
0
 30
0
  0
VERTEX
  8
LAYER_1
 10
126.4529
 20
-114.5058
  0
VERTEX
  8
LAYER_1
 10
128.7542
 20
-115.58
  0
SEQEND
  0
POLYLINE
  8
LAYER_1
 40
0.1976
 41
0.1976
 66
1
 10
0
 20
0
 30
0
  0
VERTEX
  8
LAYER_1
 10
129.178
 20
-115.781
  0
VERTEX
  8
LAYER_1
 10
130.104
 20
-116.2044
  0
SEQEND
  0
POLYLINE
  8
LAYER_1
 40
0.1976
 41
0.1976
 66
1
 10
0
 20
0
 30
0
  0
VERTEX
  8
LAYER_1
 10
130.5271
 20
-116.4056
  0
VERTEX
  8
LAYER_1
 10
132.8236
 20
-117.4798
  0
SEQEND
  0
POLYLINE
  8
LAYER_1
 40
0.1976
 41
0.1976
 66
1
 10
0
 20
0
 30
0
  0
VERTEX
  8
LAYER_1
 10
133.2522
 20
-117.6808
  0
VERTEX
  8
LAYER_1
 10
134.1734
 20
-118.1042
  0
SEQEND
  0
POLYLINE
  8
LAYER_1
 40
0.1976
 41
0.1976
 66
1
 10
0
 20
0
 30
0
  0
VERTEX
  8
LAYER_1
 10
134.6019
 20
-118.3053
  0
VERTEX
  8
LAYER_1
 10
136.8984
 20
-119.3794
  0
SEQEND
  0
POLYLINE
  8
LAYER_1
 40
0.1976
 41
0.1976
 66
1
 10
0
 20
0
 30
0
  0
VERTEX
  8
LAYER_1
 10
137.3215
 20
-119.5806
  0
VERTEX
  8
LAYER_1
 10
138.2475
 20
-120.0039
  0
SEQEND
  0
POLYLINE
  8
LAYER_1
 40
0.1976
 41
0.1976
 66
1
 10
0
 20
0
 30
0
  0
VERTEX
  8
LAYER_1
 10
138.6713
 20
-120.2049
  0
VERTEX
  8
LAYER_1
 10
140.9733
 20
-121.2792
  0
SEQEND
  0
POLYLINE
  8
LAYER_1
 40
0.1976
 41
0.1976
 66
1
 10
0
 20
0
 30
0
  0
VERTEX
  8
LAYER_1
 10
141.3964
 20
-121.4803
  0
VERTEX
  8
LAYER_1
 10
142.3224
 20
-121.9037
  0
SEQEND
  0
POLYLINE
  8
LAYER_1
 40
0.1976
 41
0.1976
 66
1
 10
0
 20
0
 30
0
  0
VERTEX
  8
LAYER_1
 10
142.7455
 20
-122.1047
  0
VERTEX
  8
LAYER_1
 10
145.0427
 20
-123.1789
  0
SEQEND
  0
POLYLINE
  8
LAYER_1
 40
0.1976
 41
0.1976
 66
1
 10
0
 20
0
 30
0
  0
VERTEX
  8
LAYER_1
 10
145.4712
 20
-123.3799
  0
VERTEX
  8
LAYER_1
 10
146.3918
 20
-123.8033
  0
SEQEND
  0
POLYLINE
  8
LAYER_1
 40
0.1976
 41
0.1976
 66
1
 10
0
 20
0
 30
0
  0
VERTEX
  8
LAYER_1
 10
146.8203
 20
-124.0043
  0
VERTEX
  8
LAYER_1
 10
149.1168
 20
-125.0787
  0
SEQEND
  0
POLYLINE
  8
LAYER_1
 40
0.1976
 41
0.1976
 66
1
 10
0
 20
0
 30
0
  0
VERTEX
  8
LAYER_1
 10
149.5406
 20
-125.2797
  0
VERTEX
  8
LAYER_1
 10
150.4666
 20
-125.7294
  0
SEQEND
  0
POLYLINE
  8
LAYER_1
 40
0.1976
 41
0.1976
 66
1
 10
0
 20
0
 30
0
  0
VERTEX
  8
LAYER_1
 10
150.8897
 20
-125.9041
  0
VERTEX
  8
LAYER_1
 10
153.2124
 20
-126.9783
  0
SEQEND
  0
POLYLINE
  8
LAYER_1
 40
0.1976
 41
0.1976
 66
1
 10
0
 20
0
 30
0
  0
VERTEX
  8
LAYER_1
 10
161.1133
 20
-79.9882
  0
VERTEX
  8
LAYER_1
 10
158.7107
 20
-79.9882
  0
SEQEND
  0
POLYLINE
  8
LAYER_1
 40
0.1976
 41
0.1976
 66
1
 10
0
 20
0
 30
0
  0
VERTEX
  8
LAYER_1
 10
158.2877
 20
-79.9882
  0
VERTEX
  8
LAYER_1
 10
157.3403
 20
-79.9882
  0
SEQEND
  0
POLYLINE
  8
LAYER_1
 40
0.1976
 41
0.1976
 66
1
 10
0
 20
0
 30
0
  0
VERTEX
  8
LAYER_1
 10
156.9117
 20
-79.9882
  0
VERTEX
  8
LAYER_1
 10
154.5408
 20
-79.9882
  0
SEQEND
  0
POLYLINE
  8
LAYER_1
 40
0.1976
 41
0.1976
 66
1
 10
0
 20
0
 30
0
  0
VERTEX
  8
LAYER_1
 10
154.1122
 20
-79.9882
  0
VERTEX
  8
LAYER_1
 10
153.1648
 20
-79.9882
  0
SEQEND
  0
POLYLINE
  8
LAYER_1
 40
0.1976
 41
0.1976
 66
1
 10
0
 20
0
 30
0
  0
VERTEX
  8
LAYER_1
 10
152.7418
 20
-79.9882
  0
VERTEX
  8
LAYER_1
 10
150.366
 20
-79.9882
  0
SEQEND
  0
POLYLINE
  8
LAYER_1
 40
0.1976
 41
0.1976
 66
1
 10
0
 20
0
 30
0
  0
VERTEX
  8
LAYER_1
 10
149.9423
 20
-79.9882
  0
VERTEX
  8
LAYER_1
 10
148.99
 20
-79.9882
  0
SEQEND
  0
POLYLINE
  8
LAYER_1
 40
0.1976
 41
0.1976
 66
1
 10
0
 20
0
 30
0
  0
VERTEX
  8
LAYER_1
 10
148.5663
 20
-79.9882
  0
VERTEX
  8
LAYER_1
 10
146.1961
 20
-79.9882
  0
SEQEND
  0
POLYLINE
  8
LAYER_1
 40
0.1976
 41
0.1976
 66
1
 10
0
 20
0
 30
0
  0
VERTEX
  8
LAYER_1
 10
145.7675
 20
-79.9882
  0
VERTEX
  8
LAYER_1
 10
144.8201
 20
-79.9882
  0
SEQEND
  0
POLYLINE
  8
LAYER_1
 40
0.1976
 41
0.1976
 66
1
 10
0
 20
0
 30
0
  0
VERTEX
  8
LAYER_1
 10
144.397
 20
-79.9882
  0
VERTEX
  8
LAYER_1
 10
142.0206
 20
-79.9882
  0
SEQEND
  0
POLYLINE
  8
LAYER_1
 40
0.1976
 41
0.1976
 66
1
 10
0
 20
0
 30
0
  0
VERTEX
  8
LAYER_1
 10
141.5976
 20
-79.9882
  0
VERTEX
  8
LAYER_1
 10
140.624
 20
-79.9882
  0
SEQEND
  0
POLYLINE
  8
LAYER_1
 40
0.1976
 41
0.1976
 66
1
 10
0
 20
0
 30
0
  0
VERTEX
  8
LAYER_1
 10
140.1954
 20
-79.9882
  0
VERTEX
  8
LAYER_1
 10
137.8245
 20
-79.9882
  0
SEQEND
  0
POLYLINE
  8
LAYER_1
 40
0.1976
 41
0.1976
 66
1
 10
0
 20
0
 30
0
  0
VERTEX
  8
LAYER_1
 10
137.4014
 20
-79.9882
  0
VERTEX
  8
LAYER_1
 10
136.4485
 20
-79.9882
  0
SEQEND
  0
POLYLINE
  8
LAYER_1
 40
0.1976
 41
0.1976
 66
1
 10
0
 20
0
 30
0
  0
VERTEX
  8
LAYER_1
 10
136.0255
 20
-79.9882
  0
VERTEX
  8
LAYER_1
 10
133.649
 20
-79.9882
  0
SEQEND
  0
POLYLINE
  8
LAYER_1
 40
0.1976
 41
0.1976
 66
1
 10
0
 20
0
 30
0
  0
VERTEX
  8
LAYER_1
 10
133.226
 20
-79.9882
  0
VERTEX
  8
LAYER_1
 10
132.2786
 20
-79.9882
  0
SEQEND
  0
POLYLINE
  8
LAYER_1
 40
0.1976
 41
0.1976
 66
1
 10
0
 20
0
 30
0
  0
VERTEX
  8
LAYER_1
 10
131.85
 20
-79.9882
  0
VERTEX
  8
LAYER_1
 10
129.4798
 20
-79.9882
  0
SEQEND
  0
POLYLINE
  8
LAYER_1
 40
0.1976
 41
0.1976
 66
1
 10
0
 20
0
 30
0
  0
VERTEX
  8
LAYER_1
 10
129.0512
 20
-79.9882
  0
VERTEX
  8
LAYER_1
 10
128.1038
 20
-79.9882
  0
SEQEND
  0
POLYLINE
  8
LAYER_1
 40
0.1976
 41
0.1976
 66
1
 10
0
 20
0
 30
0
  0
VERTEX
  8
LAYER_1
 10
127.6801
 20
-79.9882
  0
VERTEX
  8
LAYER_1
 10
125.3043
 20
-79.9882
  0
SEQEND
  0
POLYLINE
  8
LAYER_1
 40
0.1976
 41
0.1976
 66
1
 10
0
 20
0
 30
0
  0
VERTEX
  8
LAYER_1
 10
124.8813
 20
-79.9882
  0
VERTEX
  8
LAYER_1
 10
123.9284
 20
-79.9882
  0
SEQEND
  0
POLYLINE
  8
LAYER_1
 40
0.1976
 41
0.1976
 66
1
 10
0
 20
0
 30
0
  0
VERTEX
  8
LAYER_1
 10
123.5053
 20
-79.9882
  0
VERTEX
  8
LAYER_1
 10
121.1344
 20
-79.9882
  0
SEQEND
  0
POLYLINE
  8
LAYER_1
 40
0.1976
 41
0.1976
 66
1
 10
0
 20
0
 30
0
  0
VERTEX
  8
LAYER_1
 10
151.7151
 20
-73.94
  0
VERTEX
  8
LAYER_1
 10
151.7151
 20
-76.4429
  0
SEQEND
  0
POLYLINE
  8
LAYER_1
 40
0.1976
 41
0.1976
 66
1
 10
0
 20
0
 30
0
  0
VERTEX
  8
LAYER_1
 10
151.7151
 20
-76.8926
  0
VERTEX
  8
LAYER_1
 10
151.7151
 20
-77.8927
  0
SEQEND
  0
POLYLINE
  8
LAYER_1
 40
0.1976
 41
0.1976
 66
1
 10
0
 20
0
 30
0
  0
VERTEX
  8
LAYER_1
 10
151.7151
 20
-78.3425
  0
VERTEX
  8
LAYER_1
 10
151.7151
 20
-80.8402
  0
SEQEND
  0
POLYLINE
  8
LAYER_1
 40
0.1976
 41
0.1976
 66
1
 10
0
 20
0
 30
0
  0
VERTEX
  8
LAYER_1
 10
151.7151
 20
-81.2901
  0
VERTEX
  8
LAYER_1
 10
151.7151
 20
-82.2902
  0
SEQEND
  0
POLYLINE
  8
LAYER_1
 40
0.1976
 41
0.1976
 66
1
 10
0
 20
0
 30
0
  0
VERTEX
  8
LAYER_1
 10
151.7151
 20
-82.74
  0
VERTEX
  8
LAYER_1
 10
151.7151
 20
-85.2112
  0
SEQEND
  0
POLYLINE
  8
LAYER_1
 40
0.1976
 41
0.1976
 66
1
 10
0
 20
0
 30
0
  0
VERTEX
  8
LAYER_1
 10
151.7151
 20
-85.6609
  0
VERTEX
  8
LAYER_1
 10
151.7151
 20
-86.661
  0
SEQEND
  0
POLYLINE
  8
LAYER_1
 40
0.1976
 41
0.1976
 66
1
 10
0
 20
0
 30
0
  0
VERTEX
  8
LAYER_1
 10
151.7151
 20
-87.111
  0
VERTEX
  8
LAYER_1
 10
151.7151
 20
-89.6138
  0
SEQEND
  0
POLYLINE
  8
LAYER_1
 40
0.1976
 41
0.1976
 66
1
 10
0
 20
0
 30
0
  0
VERTEX
  8
LAYER_1
 10
151.7151
 20
-90.0636
  0
VERTEX
  8
LAYER_1
 10
151.7151
 20
-91.0639
  0
SEQEND
  0
POLYLINE
  8
LAYER_1
 40
0.1976
 41
0.1976
 66
1
 10
0
 20
0
 30
0
  0
VERTEX
  8
LAYER_1
 10
151.7151
 20
-91.5136
  0
VERTEX
  8
LAYER_1
 10
151.7151
 20
-93.9848
  0
SEQEND
  0
POLYLINE
  8
LAYER_1
 40
0.1976
 41
0.1976
 66
1
 10
0
 20
0
 30
0
  0
VERTEX
  8
LAYER_1
 10
151.7151
 20
-94.4345
  0
VERTEX
  8
LAYER_1
 10
151.7151
 20
-95.4347
  0
SEQEND
  0
POLYLINE
  8
LAYER_1
 40
0.1976
 41
0.1976
 66
1
 10
0
 20
0
 30
0
  0
VERTEX
  8
LAYER_1
 10
151.7151
 20
-95.8844
  0
VERTEX
  8
LAYER_1
 10
151.7151
 20
-98.3874
  0
SEQEND
  0
POLYLINE
  8
LAYER_1
 40
0.1976
 41
0.1976
 66
1
 10
0
 20
0
 30
0
  0
VERTEX
  8
LAYER_1
 10
151.7151
 20
-98.8372
  0
VERTEX
  8
LAYER_1
 10
151.7151
 20
-99.8373
  0
SEQEND
  0
POLYLINE
  8
LAYER_1
 40
0.1976
 41
0.1976
 66
1
 10
0
 20
0
 30
0
  0
VERTEX
  8
LAYER_1
 10
151.7151
 20
-100.2871
  0
VERTEX
  8
LAYER_1
 10
151.7151
 20
-102.7584
  0
SEQEND
  0
POLYLINE
  8
LAYER_1
 40
0.1976
 41
0.1976
 66
1
 10
0
 20
0
 30
0
  0
VERTEX
  8
LAYER_1
 10
151.7151
 20
-103.2082
  0
VERTEX
  8
LAYER_1
 10
151.7151
 20
-104.2083
  0
SEQEND
  0
POLYLINE
  8
LAYER_1
 40
0.1976
 41
0.1976
 66
1
 10
0
 20
0
 30
0
  0
VERTEX
  8
LAYER_1
 10
151.7151
 20
-104.658
  0
VERTEX
  8
LAYER_1
 10
151.7151
 20
-107.1557
  0
SEQEND
  0
POLYLINE
  8
LAYER_1
 40
0.1976
 41
0.1976
 66
1
 10
0
 20
0
 30
0
  0
VERTEX
  8
LAYER_1
 10
151.7151
 20
-107.6055
  0
VERTEX
  8
LAYER_1
 10
151.7151
 20
-108.6056
  0
SEQEND
  0
POLYLINE
  8
LAYER_1
 40
0.1976
 41
0.1976
 66
1
 10
0
 20
0
 30
0
  0
VERTEX
  8
LAYER_1
 10
151.7151
 20
-109.0555
  0
VERTEX
  8
LAYER_1
 10
151.7151
 20
-111.5319
  0
SEQEND
  0
POLYLINE
  8
LAYER_1
 40
0.1976
 41
0.1976
 66
1
 10
0
 20
0
 30
0
  0
VERTEX
  8
LAYER_1
 10
151.7151
 20
-111.9818
  0
VERTEX
  8
LAYER_1
 10
151.7151
 20
-112.9819
  0
SEQEND
  0
POLYLINE
  8
LAYER_1
 40
0.1976
 41
0.1976
 66
1
 10
0
 20
0
 30
0
  0
VERTEX
  8
LAYER_1
 10
151.7151
 20
-113.4317
  0
VERTEX
  8
LAYER_1
 10
151.7151
 20
-115.9294
  0
SEQEND
  0
POLYLINE
  8
LAYER_1
 40
0.1976
 41
0.1976
 66
1
 10
0
 20
0
 30
0
  0
VERTEX
  8
LAYER_1
 10
151.7151
 20
-116.3791
  0
VERTEX
  8
LAYER_1
 10
151.7151
 20
-117.3792
  0
SEQEND
  0
POLYLINE
  8
LAYER_1
 40
0.1976
 41
0.1976
 66
1
 10
0
 20
0
 30
0
  0
VERTEX
  8
LAYER_1
 10
151.7151
 20
-117.829
  0
VERTEX
  8
LAYER_1
 10
151.7151
 20
-120.332
  0
SEQEND
  0
POLYLINE
  8
LAYER_1
 40
0.1976
 41
0.1976
 66
1
 10
0
 20
0
 30
0
  0
VERTEX
  8
LAYER_1
 10
151.7151
 20
-120.7818
  0
VERTEX
  8
LAYER_1
 10
151.7151
 20
-121.7554
  0
SEQEND
  0
POLYLINE
  8
LAYER_1
 40
0.1976
 41
0.1976
 66
1
 10
0
 20
0
 30
0
  0
VERTEX
  8
LAYER_1
 10
151.7151
 20
-122.2053
  0
VERTEX
  8
LAYER_1
 10
151.7151
 20
-124.7028
  0
SEQEND
  0
POLYLINE
  8
LAYER_1
 40
0.1976
 41
0.1976
 66
1
 10
0
 20
0
 30
0
  0
VERTEX
  8
LAYER_1
 10
151.7151
 20
-125.1527
  0
VERTEX
  8
LAYER_1
 10
151.7151
 20
-126.1529
  0
SEQEND
  0
POLYLINE
  8
LAYER_1
 40
0.1976
 41
0.1976
 66
1
 10
0
 20
0
 30
0
  0
VERTEX
  8
LAYER_1
 10
151.7151
 20
-126.6026
  0
VERTEX
  8
LAYER_1
 10
151.7151
 20
-129.1003
  0
SEQEND
  0
POLYLINE
  8
LAYER_1
 40
0.1976
 41
0.1976
 66
1
 10
0
 20
0
 30
0
  0
VERTEX
  8
LAYER_1
 10
151.7151
 20
-129.5501
  0
VERTEX
  8
LAYER_1
 10
151.7151
 20
-130.529
  0
SEQEND
  0
POLYLINE
  8
LAYER_1
 40
0.1976
 41
0.1976
 66
1
 10
0
 20
0
 30
0
  0
VERTEX
  8
LAYER_1
 10
151.7151
 20
-130.9787
  0
VERTEX
  8
LAYER_1
 10
151.7151
 20
-133.4764
  0
SEQEND
  0
POLYLINE
  8
LAYER_1
 40
0.1976
 41
0.1976
 66
1
 10
0
 20
0
 30
0
  0
VERTEX
  8
LAYER_1
 10
151.7151
 20
-133.9262
  0
VERTEX
  8
LAYER_1
 10
151.7151
 20
-134.9265
  0
SEQEND
  0
POLYLINE
  8
LAYER_1
 40
0.1976
 41
0.1976
 66
1
 10
0
 20
0
 30
0
  0
VERTEX
  8
LAYER_1
 10
151.7151
 20
-135.3762
  0
VERTEX
  8
LAYER_1
 10
151.7151
 20
-137.8741
  0
SEQEND
  0
POLYLINE
  8
LAYER_1
 40
0.1976
 41
0.1976
 66
1
 10
0
 20
0
 30
0
  0
VERTEX
  8
LAYER_1
 10
151.7151
 20
-138.3237
  0
VERTEX
  8
LAYER_1
 10
151.7151
 20
-139.3238
  0
SEQEND
  0
POLYLINE
  8
LAYER_1
 40
0.1976
 41
0.1976
 66
1
 10
0
 20
0
 30
0
  0
VERTEX
  8
LAYER_1
 10
151.7151
 20
-139.7524
  0
VERTEX
  8
LAYER_1
 10
151.7151
 20
-142.2501
  0
SEQEND
  0
POLYLINE
  8
LAYER_1
 40
0.1976
 41
0.1976
 66
1
 10
0
 20
0
 30
0
  0
VERTEX
  8
LAYER_1
 10
151.7151
 20
-142.7
  0
VERTEX
  8
LAYER_1
 10
151.7151
 20
-143.6998
  0
SEQEND
  0
POLYLINE
  8
LAYER_1
 40
0.1976
 41
0.1976
 66
1
 10
0
 20
0
 30
0
  0
VERTEX
  8
LAYER_1
 10
151.7151
 20
-144.1497
  0
VERTEX
  8
LAYER_1
 10
151.7151
 20
-146.6474
  0
SEQEND
  0
POLYLINE
  8
LAYER_1
 40
0.1976
 41
0.1976
 66
1
 10
0
 20
0
 30
0
  0
VERTEX
  8
LAYER_1
 10
151.7151
 20
-147.0973
  0
VERTEX
  8
LAYER_1
 10
151.7151
 20
-148.0974
  0
SEQEND
  0
POLYLINE
  8
LAYER_1
 40
0.1976
 41
0.1976
 66
1
 10
0
 20
0
 30
0
  0
VERTEX
  8
LAYER_1
 10
151.7151
 20
-148.547
  0
VERTEX
  8
LAYER_1
 10
151.7151
 20
-150.9972
  0
SEQEND
  0
POLYLINE
  8
LAYER_1
 40
0.1976
 41
0.1976
 66
1
 10
0
 20
0
 30
0
  0
VERTEX
  8
LAYER_1
 10
151.7151
 20
-151.4471
  0
VERTEX
  8
LAYER_1
 10
151.7151
 20
-152.4472
  0
SEQEND
  0
POLYLINE
  8
LAYER_1
 40
0.1976
 41
0.1976
 66
1
 10
0
 20
0
 30
0
  0
VERTEX
  8
LAYER_1
 10
151.7151
 20
-152.8968
  0
VERTEX
  8
LAYER_1
 10
151.7151
 20
-155.3945
  0
SEQEND
  0
POLYLINE
  8
LAYER_1
 40
0.1976
 41
0.1976
 66
1
 10
0
 20
0
 30
0
  0
VERTEX
  8
LAYER_1
 10
151.7151
 20
-155.8444
  0
VERTEX
  8
LAYER_1
 10
151.7151
 20
-156.8445
  0
SEQEND
  0
POLYLINE
  8
LAYER_1
 40
0.1976
 41
0.1976
 66
1
 10
0
 20
0
 30
0
  0
VERTEX
  8
LAYER_1
 10
151.7151
 20
-157.2941
  0
VERTEX
  8
LAYER_1
 10
151.7151
 20
-159.7708
  0
SEQEND
  0
POLYLINE
  8
LAYER_1
 40
0.1976
 41
0.1976
 66
1
 10
0
 20
0
 30
0
  0
VERTEX
  8
LAYER_1
 10
151.7151
 20
-160.2207
  0
VERTEX
  8
LAYER_1
 10
151.7151
 20
-161.2208
  0
SEQEND
  0
POLYLINE
  8
LAYER_1
 40
0.1976
 41
0.1976
 66
1
 10
0
 20
0
 30
0
  0
VERTEX
  8
LAYER_1
 10
151.7151
 20
-161.6704
  0
VERTEX
  8
LAYER_1
 10
151.7151
 20
-164.1681
  0
SEQEND
  0
POLYLINE
  8
LAYER_1
 40
0.1976
 41
0.1976
 66
1
 10
0
 20
0
 30
0
  0
VERTEX
  8
LAYER_1
 10
151.7151
 20
-164.618
  0
VERTEX
  8
LAYER_1
 10
151.7151
 20
-165.6181
  0
SEQEND
  0
POLYLINE
  8
LAYER_1
 40
0.1976
 41
0.1976
 66
1
 10
0
 20
0
 30
0
  0
VERTEX
  8
LAYER_1
 10
151.7151
 20
-166.0677
  0
VERTEX
  8
LAYER_1
 10
151.7151
 20
-168.5444
  0
SEQEND
  0
POLYLINE
  8
LAYER_1
 40
0.1976
 41
0.1976
 66
1
 10
0
 20
0
 30
0
  0
VERTEX
  8
LAYER_1
 10
151.7151
 20
-168.994
  0
VERTEX
  8
LAYER_1
 10
151.7151
 20
-169.9941
  0
SEQEND
  0
POLYLINE
  8
LAYER_1
 40
0.1976
 41
0.1976
 66
1
 10
0
 20
0
 30
0
  0
VERTEX
  8
LAYER_1
 10
151.7151
 20
-170.444
  0
VERTEX
  8
LAYER_1
 10
151.7151
 20
-172.9417
  0
SEQEND
  0
POLYLINE
  8
LAYER_1
 40
0.1976
 41
0.1976
 66
1
 10
0
 20
0
 30
0
  0
VERTEX
  8
LAYER_1
 10
151.7151
 20
-173.3917
  0
VERTEX
  8
LAYER_1
 10
151.7151
 20
-174.3918
  0
SEQEND
  0
POLYLINE
  8
LAYER_1
 40
0.1976
 41
0.1976
 66
1
 10
0
 20
0
 30
0
  0
VERTEX
  8
LAYER_1
 10
151.7151
 20
-174.8414
  0
VERTEX
  8
LAYER_1
 10
151.7151
 20
-177.318
  0
SEQEND
  0
POLYLINE
  8
LAYER_1
 40
0.1976
 41
0.1976
 66
1
 10
0
 20
0
 30
0
  0
VERTEX
  8
LAYER_1
 10
151.7151
 20
-177.7676
  0
VERTEX
  8
LAYER_1
 10
151.7151
 20
-178.7677
  0
SEQEND
  0
POLYLINE
  8
LAYER_1
 40
0.1976
 41
0.1976
 66
1
 10
0
 20
0
 30
0
  0
VERTEX
  8
LAYER_1
 10
151.7151
 20
-179.2177
  0
VERTEX
  8
LAYER_1
 10
151.7151
 20
-181.7154
  0
SEQEND
  0
POLYLINE
  8
LAYER_1
 40
0.1976
 41
0.1976
 66
1
 10
0
 20
0
 30
0
  0
VERTEX
  8
LAYER_1
 10
151.7151
 20
-182.1649
  0
VERTEX
  8
LAYER_1
 10
151.7151
 20
-183.1654
  0
SEQEND
  0
POLYLINE
  8
LAYER_1
 40
0.1976
 41
0.1976
 66
1
 10
0
 20
0
 30
0
  0
VERTEX
  8
LAYER_1
 10
151.7151
 20
-183.615
  0
VERTEX
  8
LAYER_1
 10
151.7151
 20
-186.1127
  0
SEQEND
  0
POLYLINE
  8
LAYER_1
 40
0.1976
 41
0.1976
 66
1
 10
0
 20
0
 30
0
  0
VERTEX
  8
LAYER_1
 10
151.7151
 20
-186.5361
  0
VERTEX
  8
LAYER_1
 10
151.7151
 20
-187.5362
  0
SEQEND
  0
POLYLINE
  8
LAYER_1
 40
0.1976
 41
0.1976
 66
1
 10
0
 20
0
 30
0
  0
VERTEX
  8
LAYER_1
 10
151.7151
 20
-187.9858
  0
VERTEX
  8
LAYER_1
 10
151.7151
 20
-190.489
  0
SEQEND
  0
POLYLINE
  8
LAYER_1
 40
0.1976
 41
0.1976
 66
1
 10
0
 20
0
 30
0
  0
VERTEX
  8
LAYER_1
 10
151.7151
 20
-190.9386
  0
VERTEX
  8
LAYER_1
 10
151.7151
 20
-191.9387
  0
SEQEND
  0
POLYLINE
  8
LAYER_1
 40
0.1976
 41
0.1976
 66
1
 10
0
 20
0
 30
0
  0
VERTEX
  8
LAYER_1
 10
151.7151
 20
-192.3886
  0
VERTEX
  8
LAYER_1
 10
151.7151
 20
-194.8863
  0
SEQEND
  0
POLYLINE
  8
LAYER_1
 40
0.1976
 41
0.1976
 66
1
 10
0
 20
0
 30
0
  0
VERTEX
  8
LAYER_1
 10
151.7151
 20
-195.3362
  0
VERTEX
  8
LAYER_1
 10
151.7151
 20
-196.3098
  0
SEQEND
  0
POLYLINE
  8
LAYER_1
 40
0.1976
 41
0.1976
 66
1
 10
0
 20
0
 30
0
  0
VERTEX
  8
LAYER_1
 10
151.7151
 20
-196.7594
  0
VERTEX
  8
LAYER_1
 10
151.7151
 20
-199.2626
  0
SEQEND
  0
POLYLINE
  8
LAYER_1
 40
0.1976
 41
0.1976
 66
1
 10
0
 20
0
 30
0
  0
VERTEX
  8
LAYER_1
 10
151.7151
 20
-199.7122
  0
VERTEX
  8
LAYER_1
 10
151.7151
 20
-200.7123
  0
SEQEND
  0
POLYLINE
  8
LAYER_1
 40
0.1976
 41
0.1976
 66
1
 10
0
 20
0
 30
0
  0
VERTEX
  8
LAYER_1
 10
151.7151
 20
-201.1622
  0
VERTEX
  8
LAYER_1
 10
151.7151
 20
-203.6599
  0
SEQEND
  0
POLYLINE
  8
LAYER_1
 40
0.1976
 41
0.1976
 66
1
 10
0
 20
0
 30
0
  0
VERTEX
  8
LAYER_1
 10
151.7151
 20
-204.1095
  0
VERTEX
  8
LAYER_1
 10
151.7151
 20
-205.0834
  0
SEQEND
  0
POLYLINE
  8
LAYER_1
 40
0.1976
 41
0.1976
 66
1
 10
0
 20
0
 30
0
  0
VERTEX
  8
LAYER_1
 10
151.7151
 20
-205.533
  0
VERTEX
  8
LAYER_1
 10
151.7151
 20
-208.0307
  0
SEQEND
  0
POLYLINE
  8
LAYER_1
 40
0.1976
 41
0.1976
 66
1
 10
0
 20
0
 30
0
  0
VERTEX
  8
LAYER_1
 10
151.7151
 20
-208.4806
  0
VERTEX
  8
LAYER_1
 10
151.7151
 20
-209.4808
  0
SEQEND
  0
POLYLINE
  8
LAYER_1
 40
0.1976
 41
0.1976
 66
1
 10
0
 20
0
 30
0
  0
VERTEX
  8
LAYER_1
 10
151.7151
 20
-209.9303
  0
VERTEX
  8
LAYER_1
 10
151.7151
 20
-212.4335
  0
SEQEND
  0
POLYLINE
  8
LAYER_1
 40
0.1976
 41
0.1976
 66
1
 10
0
 20
0
 30
0
  0
VERTEX
  8
LAYER_1
 10
151.7151
 20
-212.8831
  0
VERTEX
  8
LAYER_1
 10
151.7151
 20
-213.8832
  0
SEQEND
  0
POLYLINE
  8
LAYER_1
 40
0.1976
 41
0.1976
 66
1
 10
0
 20
0
 30
0
  0
VERTEX
  8
LAYER_1
 10
151.7151
 20
-214.3332
  0
VERTEX
  8
LAYER_1
 10
151.7151
 20
-216.8043
  0
SEQEND
  0
POLYLINE
  8
LAYER_1
 40
0.1976
 41
0.1976
 66
1
 10
0
 20
0
 30
0
  0
VERTEX
  8
LAYER_1
 10
151.7151
 20
-217.2543
  0
VERTEX
  8
LAYER_1
 10
151.7151
 20
-218.2544
  0
SEQEND
  0
POLYLINE
  8
LAYER_1
 40
0.1976
 41
0.1976
 66
1
 10
0
 20
0
 30
0
  0
VERTEX
  8
LAYER_1
 10
151.7151
 20
-218.704
  0
VERTEX
  8
LAYER_1
 10
151.7151
 20
-221.2072
  0
SEQEND
  0
POLYLINE
  8
LAYER_1
 40
0.1976
 41
0.1976
 66
1
 10
0
 20
0
 30
0
  0
VERTEX
  8
LAYER_1
 10
151.7151
 20
-221.6568
  0
VERTEX
  8
LAYER_1
 10
151.7151
 20
-222.6569
  0
SEQEND
  0
POLYLINE
  8
LAYER_1
 40
0.1976
 41
0.1976
 66
1
 10
0
 20
0
 30
0
  0
VERTEX
  8
LAYER_1
 10
151.7151
 20
-223.1068
  0
VERTEX
  8
LAYER_1
 10
151.7151
 20
-225.578
  0
SEQEND
  0
POLYLINE
  8
LAYER_1
 40
0.1976
 41
0.1976
 66
1
 10
0
 20
0
 30
0
  0
VERTEX
  8
LAYER_1
 10
151.7151
 20
-226.0279
  0
VERTEX
  8
LAYER_1
 10
151.7151
 20
-227.028
  0
SEQEND
  0
POLYLINE
  8
LAYER_1
 40
0.1976
 41
0.1976
 66
1
 10
0
 20
0
 30
0
  0
VERTEX
  8
LAYER_1
 10
151.7151
 20
-227.4776
  0
VERTEX
  8
LAYER_1
 10
151.7151
 20
-229.9753
  0
SEQEND
  0
POLYLINE
  8
LAYER_1
 40
0.1976
 41
0.1976
 66
1
 10
0
 20
0
 30
0
  0
VERTEX
  8
LAYER_1
 10
151.7151
 20
-230.4252
  0
VERTEX
  8
LAYER_1
 10
151.7151
 20
-231.4253
  0
SEQEND
  0
POLYLINE
  8
LAYER_1
 40
0.1976
 41
0.1976
 66
1
 10
0
 20
0
 30
0
  0
VERTEX
  8
LAYER_1
 10
151.7151
 20
-231.8749
  0
VERTEX
  8
LAYER_1
 10
151.7151
 20
-234.3516
  0
SEQEND
  0
POLYLINE
  8
LAYER_1
 40
0.1976
 41
0.1976
 66
1
 10
0
 20
0
 30
0
  0
VERTEX
  8
LAYER_1
 10
151.7151
 20
-234.8012
  0
VERTEX
  8
LAYER_1
 10
151.7151
 20
-235.8013
  0
SEQEND
  0
POLYLINE
  8
LAYER_1
 40
0.1976
 41
0.1976
 66
1
 10
0
 20
0
 30
0
  0
VERTEX
  8
LAYER_1
 10
151.7151
 20
-236.2512
  0
VERTEX
  8
LAYER_1
 10
151.7151
 20
-238.7489
  0
SEQEND
  0
POLYLINE
  8
LAYER_1
 40
0.1976
 41
0.1976
 66
1
 10
0
 20
0
 30
0
  0
VERTEX
  8
LAYER_1
 10
151.7151
 20
-239.1988
  0
VERTEX
  8
LAYER_1
 10
151.7151
 20
-240.1989
  0
SEQEND
  0
POLYLINE
  8
LAYER_1
 40
0.1976
 41
0.1976
 66
1
 10
0
 20
0
 30
0
  0
VERTEX
  8
LAYER_1
 10
151.7151
 20
-240.6485
  0
VERTEX
  8
LAYER_1
 10
151.7151
 20
-243.1252
  0
SEQEND
  0
POLYLINE
  8
LAYER_1
 40
0.1976
 41
0.1976
 66
1
 10
0
 20
0
 30
0
  0
VERTEX
  8
LAYER_1
 10
151.7151
 20
-243.5748
  0
VERTEX
  8
LAYER_1
 10
151.7151
 20
-244.5749
  0
SEQEND
  0
POLYLINE
  8
LAYER_1
 40
0.1976
 41
0.1976
 66
1
 10
0
 20
0
 30
0
  0
VERTEX
  8
LAYER_1
 10
151.7151
 20
-245.0248
  0
VERTEX
  8
LAYER_1
 10
151.7151
 20
-247.5225
  0
SEQEND
  0
POLYLINE
  8
LAYER_1
 40
0.1976
 41
0.1976
 66
1
 10
0
 20
0
 30
0
  0
VERTEX
  8
LAYER_1
 10
151.7151
 20
-247.9721
  0
VERTEX
  8
LAYER_1
 10
151.7151
 20
-248.9722
  0
SEQEND
  0
POLYLINE
  8
LAYER_1
 40
0.1976
 41
0.1976
 66
1
 10
0
 20
0
 30
0
  0
VERTEX
  8
LAYER_1
 10
151.7151
 20
-249.4222
  0
VERTEX
  8
LAYER_1
 10
151.7151
 20
-251.9199
  0
SEQEND
  0
POLYLINE
  8
LAYER_1
 40
0.1976
 41
0.1976
 66
1
 10
0
 20
0
 30
0
  0
VERTEX
  8
LAYER_1
 10
116.7109
 20
-36.8029
  0
VERTEX
  8
LAYER_1
 10
117.0602
 20
-38.4486
  0
VERTEX
  8
LAYER_1
 10
117.5363
 20
-40.0997
  0
VERTEX
  8
LAYER_1
 10
118.1075
 20
-41.7508
  0
VERTEX
  8
LAYER_1
 10
118.8324
 20
-43.3965
  0
VERTEX
  8
LAYER_1
 10
119.6585
 20
-45.0474
  0
VERTEX
  8
LAYER_1
 10
120.6583
 20
-46.6984
  0
VERTEX
  8
LAYER_1
 10
121.8069
 20
-48.3495
  0
VERTEX
  8
LAYER_1
 10
123.156
 20
-49.9952
  0
VERTEX
  8
LAYER_1
 10
124.7331
 20
-51.6196
  0
VERTEX
  8
LAYER_1
 10
126.3785
 20
-53.0696
  0
VERTEX
  8
LAYER_1
 10
128.0294
 20
-54.3236
  0
VERTEX
  8
LAYER_1
 10
129.6755
 20
-55.398
  0
VERTEX
  8
LAYER_1
 10
131.3264
 20
-56.2975
  0
VERTEX
  8
LAYER_1
 10
132.9772
 20
-57.0435
  0
VERTEX
  8
LAYER_1
 10
134.6233
 20
-57.6945
  0
VERTEX
  8
LAYER_1
 10
136.2742
 20
-58.2183
  0
VERTEX
  8
LAYER_1
 10
137.5758
 20
-58.5465
  0
SEQEND
  0
POLYLINE
  8
LAYER_1
 40
0.1976
 41
0.1976
 66
1
 10
0
 20
0
 30
0
  0
VERTEX
  8
LAYER_1
 10
175.9775
 20
-249.5228
  0
VERTEX
  8
LAYER_1
 10
160.2348
 20
-249.5228
  0
VERTEX
  8
LAYER_1
 10
156.9379
 20
-243.1728
  0
SEQEND
  0
POLYLINE
  8
LAYER_1
 40
0.05
 41
0.05
 66
1
 10
0
 20
0
 30
0
 70
1
  0
VERTEX
  8
LAYER_1
 10
156.9379
 20
-243.1728
  0
VERTEX
  8
LAYER_1
 10
158.965
 20
-246.0725
  0
VERTEX
  8
LAYER_1
 10
158.1395
 20
-246.4959
  0
SEQEND
  0
POLYLINE
  8
LAYER_1
 40
0.0847
 41
0.0847
 66
1
 10
0
 20
0
 30
0
 70
1
  0
VERTEX
  8
LAYER_1
 10
156.9379
 20
-243.1728
  0
VERTEX
  8
LAYER_1
 10
158.965
 20
-246.0725
  0
VERTEX
  8
LAYER_1
 10
158.1395
 20
-246.4959
  0
SEQEND
  0
POLYLINE
  8
LAYER_1
 40
0.1976
 41
0.1976
 66
1
 10
0
 20
0
 30
0
  0
VERTEX
  8
LAYER_1
 10
114.2869
 20
-217.3283
  0
VERTEX
  8
LAYER_1
 10
138.0994
 20
-217.3283
  0
VERTEX
  8
LAYER_1
 10
140.8197
 20
-222.0271
  0
SEQEND
  0
POLYLINE
  8
LAYER_1
 40
0.05
 41
0.05
 66
1
 10
0
 20
0
 30
0
 70
1
  0
VERTEX
  8
LAYER_1
 10
140.8197
 20
-222.0271
  0
VERTEX
  8
LAYER_1
 10
138.6713
 20
-219.228
  0
VERTEX
  8
LAYER_1
 10
139.4699
 20
-218.778
  0
SEQEND
  0
POLYLINE
  8
LAYER_1
 40
0.0847
 41
0.0847
 66
1
 10
0
 20
0
 30
0
 70
1
  0
VERTEX
  8
LAYER_1
 10
140.8197
 20
-222.0271
  0
VERTEX
  8
LAYER_1
 10
138.6713
 20
-219.228
  0
VERTEX
  8
LAYER_1
 10
139.4699
 20
-218.778
  0
SEQEND
  0
POLYLINE
  8
LAYER_1
 40
0.1976
 41
0.1976
 66
1
 10
0
 20
0
 30
0
  0
VERTEX
  8
LAYER_1
 10
136.3479
 20
-58.2449
  0
VERTEX
  8
LAYER_1
 10
137.5758
 20
-58.5465
  0
SEQEND
  0
POLYLINE
  8
LAYER_1
 40
0.05
 41
0.05
 66
1
 10
0
 20
0
 30
0
 70
1
  0
VERTEX
  8
LAYER_1
 10
137.5758
 20
-58.5465
  0
VERTEX
  8
LAYER_1
 10
134.0783
 20
-58.1443
  0
VERTEX
  8
LAYER_1
 10
134.3002
 20
-57.2447
  0
SEQEND
  0
POLYLINE
  8
LAYER_1
 40
0.0847
 41
0.0847
 66
1
 10
0
 20
0
 30
0
 70
1
  0
VERTEX
  8
LAYER_1
 10
137.5758
 20
-58.5465
  0
VERTEX
  8
LAYER_1
 10
134.0783
 20
-58.1443
  0
VERTEX
  8
LAYER_1
 10
134.3002
 20
-57.2447
  0
SEQEND
  0
POLYLINE
  8
LAYER_1
 40
0.1976
 41
0.1976
 66
1
 10
0
 20
0
 30
0
  0
VERTEX
  8
LAYER_1
 10
116.9121
 20
-37.7979
  0
VERTEX
  8
LAYER_1
 10
116.684
 20
-36.8029
  0
SEQEND
  0
POLYLINE
  8
LAYER_1
 40
0.05
 41
0.05
 66
1
 10
0
 20
0
 30
0
 70
1
  0
VERTEX
  8
LAYER_1
 10
116.684
 20
-36.8029
  0
VERTEX
  8
LAYER_1
 10
117.8588
 20
-40.1262
  0
VERTEX
  8
LAYER_1
 10
116.9596
 20
-40.3273
  0
SEQEND
  0
POLYLINE
  8
LAYER_1
 40
0.0847
 41
0.0847
 66
1
 10
0
 20
0
 30
0
 70
1
  0
VERTEX
  8
LAYER_1
 10
116.684
 20
-36.8029
  0
VERTEX
  8
LAYER_1
 10
117.8588
 20
-40.1262
  0
VERTEX
  8
LAYER_1
 10
116.9596
 20
-40.3273
  0
SEQEND
  0
POLYLINE
  8
LAYER_1
 40
0.4974
 41
0.4974
 66
1
 10
0
 20
0
 30
0
  0
VERTEX
  8
LAYER_1
 10
162.5368
 20
-248.2739
  0
VERTEX
  8
LAYER_1
 10
162.5368
 20
-246.5224
  0
VERTEX
  8
LAYER_1
 10
162.5368
 20
-244.7761
  0
VERTEX
  8
LAYER_1
 10
164.2084
 20
-244.7761
  0
VERTEX
  8
LAYER_1
 10
164.5577
 20
-244.8502
  0
VERTEX
  8
LAYER_1
 10
164.8065
 20
-245.0248
  0
VERTEX
  8
LAYER_1
 10
164.9071
 20
-245.1995
  0
VERTEX
  8
LAYER_1
 10
164.9863
 20
-245.4748
  0
VERTEX
  8
LAYER_1
 10
164.9863
 20
-245.8238
  0
VERTEX
  8
LAYER_1
 10
164.9071
 20
-246.0725
  0
VERTEX
  8
LAYER_1
 10
164.8065
 20
-246.2472
  0
VERTEX
  8
LAYER_1
 10
164.5577
 20
-246.4218
  0
VERTEX
  8
LAYER_1
 10
164.2084
 20
-246.5224
  0
VERTEX
  8
LAYER_1
 10
162.5368
 20
-246.5224
  0
SEQEND
  0
POLYLINE
  8
LAYER_1
 40
0.4974
 41
0.4974
 66
1
 10
0
 20
0
 30
0
  0
VERTEX
  8
LAYER_1
 10
167.4316
 20
-244.7761
  0
VERTEX
  8
LAYER_1
 10
167.4316
 20
-247.6493
  0
VERTEX
  8
LAYER_1
 10
167.2566
 20
-247.9986
  0
VERTEX
  8
LAYER_1
 10
167.0079
 20
-248.1733
  0
VERTEX
  8
LAYER_1
 10
166.733
 20
-248.2739
  0
VERTEX
  8
LAYER_1
 10
166.0343
 20
-248.2739
  0
SEQEND
  0
POLYLINE
  8
LAYER_1
 40
0.4974
 41
0.4974
 66
1
 10
0
 20
0
 30
0
  0
VERTEX
  8
LAYER_1
 10
168.4845
 20
-245.8238
  0
VERTEX
  8
LAYER_1
 10
169.5325
 20
-244.7761
  0
VERTEX
  8
LAYER_1
 10
169.5325
 20
-248.2739
  0
SEQEND
  0
POLYLINE
  8
LAYER_1
 40
0.4974
 41
0.4974
 66
1
 10
0
 20
0
 30
0
  0
VERTEX
  8
LAYER_1
 10
170.5798
 20
-248.2739
  0
VERTEX
  8
LAYER_1
 10
171.9819
 20
-244.7761
  0
SEQEND
  0
POLYLINE
  8
LAYER_1
 40
0.4974
 41
0.4974
 66
1
 10
0
 20
0
 30
0
  0
VERTEX
  8
LAYER_1
 10
173.0299
 20
-245.3001
  0
VERTEX
  8
LAYER_1
 10
173.2042
 20
-245.0248
  0
VERTEX
  8
LAYER_1
 10
173.4799
 20
-244.8502
  0
VERTEX
  8
LAYER_1
 10
173.8292
 20
-244.7761
  0
VERTEX
  8
LAYER_1
 10
174.3528
 20
-244.7761
  0
VERTEX
  8
LAYER_1
 10
174.7022
 20
-244.8502
  0
VERTEX
  8
LAYER_1
 10
174.9564
 20
-245.0248
  0
VERTEX
  8
LAYER_1
 10
175.1307
 20
-245.3001
  0
VERTEX
  8
LAYER_1
 10
175.1307
 20
-245.6491
  0
VERTEX
  8
LAYER_1
 10
174.9564
 20
-245.9984
  0
VERTEX
  8
LAYER_1
 10
173.0299
 20
-248.2739
  0
VERTEX
  8
LAYER_1
 10
175.1307
 20
-248.2739
  0
SEQEND
  0
POLYLINE
  8
LAYER_1
 40
0.4974
 41
0.4974
 66
1
 10
0
 20
0
 30
0
  0
VERTEX
  8
LAYER_1
 10
119.4098
 20
-215.5079
  0
VERTEX
  8
LAYER_1
 10
120.6583
 20
-215.2062
  0
SEQEND
  0
POLYLINE
  8
LAYER_1
 40
0.4974
 41
0.4974
 66
1
 10
0
 20
0
 30
0
  0
VERTEX
  8
LAYER_1
 10
120.6583
 20
-215.9314
  0
VERTEX
  8
LAYER_1
 10
120.6583
 20
-213.0051
  0
SEQEND
  0
POLYLINE
  8
LAYER_1
 40
0.4974
 41
0.4974
 66
1
 10
0
 20
0
 30
0
  0
VERTEX
  8
LAYER_1
 10
121.0551
 20
-213.0051
  0
VERTEX
  8
LAYER_1
 10
119.4835
 20
-213.0051
  0
SEQEND
  0
POLYLINE
  8
LAYER_1
 40
0.4974
 41
0.4974
 66
1
 10
0
 20
0
 30
0
  0
VERTEX
  8
LAYER_1
 10
119.8804
 20
-213.0051
  0
VERTEX
  8
LAYER_1
 10
119.8804
 20
-215.4074
  0
SEQEND
  0
POLYLINE
  8
LAYER_1
 40
0.4974
 41
0.4974
 66
1
 10
0
 20
0
 30
0
  0
VERTEX
  8
LAYER_1
 10
119.8804
 20
-214.5289
  0
VERTEX
  8
LAYER_1
 10
120.6583
 20
-214.5289
  0
SEQEND
  0
POLYLINE
  8
LAYER_1
 40
0.4974
 41
0.4974
 66
1
 10
0
 20
0
 30
0
  0
VERTEX
  8
LAYER_1
 10
120.6583
 20
-213.7565
  0
VERTEX
  8
LAYER_1
 10
119.8804
 20
-213.7565
  0
SEQEND
  0
POLYLINE
  8
LAYER_1
 40
0.4974
 41
0.4974
 66
1
 10
0
 20
0
 30
0
  0
VERTEX
  8
LAYER_1
 10
121.1557
 20
-213.1053
  0
VERTEX
  8
LAYER_1
 10
122.2086
 20
-213.1053
  0
VERTEX
  8
LAYER_1
 10
121.9336
 20
-214.1054
  0
VERTEX
  8
LAYER_1
 10
121.4575
 20
-215.058
  0
VERTEX
  8
LAYER_1
 10
120.9814
 20
-215.7302
  0
SEQEND
  0
POLYLINE
  8
LAYER_1
 40
0.4974
 41
0.4974
 66
1
 10
0
 20
0
 30
0
  0
VERTEX
  8
LAYER_1
 10
121.2302
 20
-213.5343
  0
VERTEX
  8
LAYER_1
 10
121.5313
 20
-214.4072
  0
VERTEX
  8
LAYER_1
 10
122.0342
 20
-215.2802
  0
VERTEX
  8
LAYER_1
 10
122.4042
 20
-215.7302
  0
SEQEND
  0
POLYLINE
  8
LAYER_1
 40
0.4974
 41
0.4974
 66
1
 10
0
 20
0
 30
0
  0
VERTEX
  8
LAYER_1
 10
123.6059
 20
-216.0795
  0
VERTEX
  8
LAYER_1
 10
123.6059
 20
-213.2325
  0
SEQEND
  0
POLYLINE
  8
LAYER_1
 40
0.4974
 41
0.4974
 66
1
 10
0
 20
0
 30
0
  0
VERTEX
  8
LAYER_1
 10
122.9816
 20
-214.1795
  0
VERTEX
  8
LAYER_1
 10
123.6059
 20
-213.2325
  0
VERTEX
  8
LAYER_1
 10
123.8546
 20
-212.5817
  0
SEQEND
  0
POLYLINE
  8
LAYER_1
 40
0.4974
 41
0.4974
 66
1
 10
0
 20
0
 30
0
  0
VERTEX
  8
LAYER_1
 10
123.9552
 20
-213.7565
  0
VERTEX
  8
LAYER_1
 10
125.9024
 20
-213.7565
  0
SEQEND
  0
POLYLINE
  8
LAYER_1
 40
0.4974
 41
0.4974
 66
1
 10
0
 20
0
 30
0
  0
VERTEX
  8
LAYER_1
 10
125.3574
 20
-212.7825
  0
VERTEX
  8
LAYER_1
 10
125.3574
 20
-215.9314
  0
VERTEX
  8
LAYER_1
 10
124.955
 20
-215.9314
  0
SEQEND
  0
POLYLINE
  8
LAYER_1
 40
0.4974
 41
0.4974
 66
1
 10
0
 20
0
 30
0
  0
VERTEX
  8
LAYER_1
 10
124.3307
 20
-214.3332
  0
VERTEX
  8
LAYER_1
 10
124.6532
 20
-214.8572
  0
SEQEND
  0
POLYLINE
  8
LAYER_1
 40
0.4974
 41
0.4974
 66
1
 10
0
 20
0
 30
0
  0
VERTEX
  8
LAYER_1
 10
126.5797
 20
-215.9314
  0
VERTEX
  8
LAYER_1
 10
127.1778
 20
-215.2802
  0
VERTEX
  8
LAYER_1
 10
127.5802
 20
-214.5289
  0
SEQEND
  0
POLYLINE
  8
LAYER_1
 40
0.4974
 41
0.4974
 66
1
 10
0
 20
0
 30
0
  0
VERTEX
  8
LAYER_1
 10
126.7809
 20
-213.8832
  0
VERTEX
  8
LAYER_1
 10
126.7809
 20
-213.3065
  0
VERTEX
  8
LAYER_1
 10
129.2042
 20
-213.3065
  0
VERTEX
  8
LAYER_1
 10
129.2042
 20
-213.7565
  0
SEQEND
  0
POLYLINE
  8
LAYER_1
 40
0.4974
 41
0.4974
 66
1
 10
0
 20
0
 30
0
  0
VERTEX
  8
LAYER_1
 10
127.977
 20
-212.6558
  0
VERTEX
  8
LAYER_1
 10
127.977
 20
-213.3065
  0
SEQEND
  0
POLYLINE
  8
LAYER_1
 40
0.4974
 41
0.4974
 66
1
 10
0
 20
0
 30
0
  0
VERTEX
  8
LAYER_1
 10
127.2784
 20
-214.1054
  0
VERTEX
  8
LAYER_1
 10
128.3257
 20
-214.1054
  0
VERTEX
  8
LAYER_1
 10
128.5269
 20
-214.8572
  0
VERTEX
  8
LAYER_1
 10
128.9293
 20
-215.5079
  0
VERTEX
  8
LAYER_1
 10
129.4054
 20
-215.9314
  0
SEQEND
  0
POLYLINE
  8
LAYER_1
 40
0.4974
 41
0.4974
 66
1
 10
0
 20
0
 30
0
  0
VERTEX
  8
LAYER_1
 10
130.4534
 20
-216.0795
  0
VERTEX
  8
LAYER_1
 10
130.4534
 20
-213.8832
  0
SEQEND
  0
POLYLINE
  8
LAYER_1
 40
0.4974
 41
0.4974
 66
1
 10
0
 20
0
 30
0
  0
VERTEX
  8
LAYER_1
 10
129.9028
 20
-214.5289
  0
VERTEX
  8
LAYER_1
 10
130.3789
 20
-213.9838
  0
VERTEX
  8
LAYER_1
 10
130.8502
 20
-213.3065
  0
SEQEND
  0
POLYLINE
  8
LAYER_1
 40
0.4974
 41
0.4974
 66
1
 10
0
 20
0
 30
0
  0
VERTEX
  8
LAYER_1
 10
130.8502
 20
-212.5817
  0
VERTEX
  8
LAYER_1
 10
130.4534
 20
-213.0051
  0
VERTEX
  8
LAYER_1
 10
130.0772
 20
-213.3065
  0
SEQEND
  0
POLYLINE
  8
LAYER_1
 40
0.4974
 41
0.4974
 66
1
 10
0
 20
0
 30
0
  0
VERTEX
  8
LAYER_1
 10
131.152
 20
-212.7825
  0
VERTEX
  8
LAYER_1
 10
132.6017
 20
-212.7825
  0
VERTEX
  8
LAYER_1
 10
131.8293
 20
-213.8832
  0
VERTEX
  8
LAYER_1
 10
131.0776
 20
-214.4072
  0
SEQEND
  0
POLYLINE
  8
LAYER_1
 40
0.4974
 41
0.4974
 66
1
 10
0
 20
0
 30
0
  0
VERTEX
  8
LAYER_1
 10
131.4745
 20
-213.0051
  0
VERTEX
  8
LAYER_1
 10
131.9506
 20
-213.6559
  0
VERTEX
  8
LAYER_1
 10
132.4267
 20
-214.1054
  0
VERTEX
  8
LAYER_1
 10
132.9035
 20
-214.4072
  0
SEQEND
  0
POLYLINE
  8
LAYER_1
 40
0.4974
 41
0.4974
 66
1
 10
0
 20
0
 30
0
  0
VERTEX
  8
LAYER_1
 10
132.8236
 20
-214.9788
  0
VERTEX
  8
LAYER_1
 10
131.152
 20
-214.9788
  0
SEQEND
  0
POLYLINE
  8
LAYER_1
 40
0.4974
 41
0.4974
 66
1
 10
0
 20
0
 30
0
  0
VERTEX
  8
LAYER_1
 10
131.9506
 20
-214.1795
  0
VERTEX
  8
LAYER_1
 10
131.9506
 20
-215.8573
  0
SEQEND
  0
POLYLINE
  8
LAYER_1
 40
0.4974
 41
0.4974
 66
1
 10
0
 20
0
 30
0
  0
VERTEX
  8
LAYER_1
 10
130.8502
 20
-215.8573
  0
VERTEX
  8
LAYER_1
 10
132.9986
 20
-215.8573
  0
SEQEND
  0
POLYLINE
  8
LAYER_1
 40
0.4974
 41
0.4974
 66
1
 10
0
 20
0
 30
0
  0
VERTEX
  8
LAYER_1
 10
117.8112
 20
-220.154
  0
VERTEX
  8
LAYER_1
 10
117.8112
 20
-220.5033
  0
VERTEX
  8
LAYER_1
 10
117.7106
 20
-220.8523
  0
VERTEX
  8
LAYER_1
 10
117.4571
 20
-221.2072
  0
VERTEX
  8
LAYER_1
 10
117.1078
 20
-221.4556
  0
VERTEX
  8
LAYER_1
 10
116.7584
 20
-221.5562
  0
VERTEX
  8
LAYER_1
 10
116.4091
 20
-221.5562
  0
VERTEX
  8
LAYER_1
 10
116.0598
 20
-221.4556
  0
VERTEX
  8
LAYER_1
 10
115.7104
 20
-221.2072
  0
VERTEX
  8
LAYER_1
 10
115.4355
 20
-220.8523
  0
VERTEX
  8
LAYER_1
 10
115.3611
 20
-220.5033
  0
VERTEX
  8
LAYER_1
 10
115.3611
 20
-220.154
  0
VERTEX
  8
LAYER_1
 10
115.4355
 20
-219.8047
  0
VERTEX
  8
LAYER_1
 10
115.7104
 20
-219.4553
  0
VERTEX
  8
LAYER_1
 10
116.0598
 20
-219.1804
  0
VERTEX
  8
LAYER_1
 10
116.4091
 20
-219.1064
  0
VERTEX
  8
LAYER_1
 10
116.7584
 20
-219.1064
  0
VERTEX
  8
LAYER_1
 10
117.1078
 20
-219.1804
  0
VERTEX
  8
LAYER_1
 10
117.4571
 20
-219.4553
  0
VERTEX
  8
LAYER_1
 10
117.7106
 20
-219.8047
  0
VERTEX
  8
LAYER_1
 10
117.8112
 20
-220.154
  0
SEQEND
  0
POLYLINE
  8
LAYER_1
 40
0.4974
 41
0.4974
 66
1
 10
0
 20
0
 30
0
  0
VERTEX
  8
LAYER_1
 10
117.2821
 20
-218.5824
  0
VERTEX
  8
LAYER_1
 10
115.8854
 20
-222.0802
  0
SEQEND
  0
POLYLINE
  8
LAYER_1
 40
0.4974
 41
0.4974
 66
1
 10
0
 20
0
 30
0
  0
VERTEX
  8
LAYER_1
 10
118.8592
 20
-219.1064
  0
VERTEX
  8
LAYER_1
 10
119.0336
 20
-218.8311
  0
VERTEX
  8
LAYER_1
 10
119.2823
 20
-218.6564
  0
VERTEX
  8
LAYER_1
 10
119.6316
 20
-218.5824
  0
VERTEX
  8
LAYER_1
 10
120.1553
 20
-218.5824
  0
VERTEX
  8
LAYER_1
 10
120.5101
 20
-218.6564
  0
VERTEX
  8
LAYER_1
 10
120.7802
 20
-218.8311
  0
VERTEX
  8
LAYER_1
 10
120.9601
 20
-219.1064
  0
VERTEX
  8
LAYER_1
 10
120.9601
 20
-219.4553
  0
VERTEX
  8
LAYER_1
 10
120.7802
 20
-219.8047
  0
VERTEX
  8
LAYER_1
 10
118.8592
 20
-222.0802
  0
VERTEX
  8
LAYER_1
 10
120.9601
 20
-222.0802
  0
SEQEND
  0
POLYLINE
  8
LAYER_1
 40
0.4974
 41
0.4974
 66
1
 10
0
 20
0
 30
0
  0
VERTEX
  8
LAYER_1
 10
122.0074
 20
-219.1064
  0
VERTEX
  8
LAYER_1
 10
122.1824
 20
-218.8311
  0
VERTEX
  8
LAYER_1
 10
122.4311
 20
-218.6564
  0
VERTEX
  8
LAYER_1
 10
122.7804
 20
-218.5824
  0
VERTEX
  8
LAYER_1
 10
123.3041
 20
-218.5824
  0
VERTEX
  8
LAYER_1
 10
123.6534
 20
-218.6564
  0
VERTEX
  8
LAYER_1
 10
123.9284
 20
-218.8311
  0
VERTEX
  8
LAYER_1
 10
124.1034
 20
-219.1064
  0
VERTEX
  8
LAYER_1
 10
124.1034
 20
-219.4553
  0
VERTEX
  8
LAYER_1
 10
123.9284
 20
-219.8047
  0
VERTEX
  8
LAYER_1
 10
122.0074
 20
-222.0802
  0
VERTEX
  8
LAYER_1
 10
124.1034
 20
-222.0802
  0
SEQEND
  0
POLYLINE
  8
LAYER_1
 40
0.4974
 41
0.4974
 66
1
 10
0
 20
0
 30
0
  0
VERTEX
  8
LAYER_1
 10
125.1562
 20
-220.8523
  0
VERTEX
  8
LAYER_1
 10
125.5055
 20
-220.5033
  0
VERTEX
  8
LAYER_1
 10
125.8549
 20
-220.5033
  0
VERTEX
  8
LAYER_1
 10
126.5535
 20
-221.2072
  0
VERTEX
  8
LAYER_1
 10
126.9022
 20
-221.2072
  0
VERTEX
  8
LAYER_1
 10
127.2515
 20
-220.8523
  0
SEQEND
  0
POLYLINE
  8
LAYER_1
 40
0.4974
 41
0.4974
 66
1
 10
0
 20
0
 30
0
  0
VERTEX
  8
LAYER_1
 10
130.7496
 20
-220.154
  0
VERTEX
  8
LAYER_1
 10
130.7496
 20
-220.5033
  0
VERTEX
  8
LAYER_1
 10
130.6546
 20
-220.8523
  0
VERTEX
  8
LAYER_1
 10
130.4003
 20
-221.2072
  0
VERTEX
  8
LAYER_1
 10
130.051
 20
-221.4556
  0
VERTEX
  8
LAYER_1
 10
129.7016
 20
-221.5562
  0
VERTEX
  8
LAYER_1
 10
129.3523
 20
-221.5562
  0
VERTEX
  8
LAYER_1
 10
129.003
 20
-221.4556
  0
VERTEX
  8
LAYER_1
 10
128.6543
 20
-221.2072
  0
VERTEX
  8
LAYER_1
 10
128.3787
 20
-220.8523
  0
VERTEX
  8
LAYER_1
 10
128.305
 20
-220.5033
  0
VERTEX
  8
LAYER_1
 10
128.305
 20
-220.154
  0
VERTEX
  8
LAYER_1
 10
128.3787
 20
-219.8047
  0
VERTEX
  8
LAYER_1
 10
128.6543
 20
-219.4553
  0
VERTEX
  8
LAYER_1
 10
129.003
 20
-219.1804
  0
VERTEX
  8
LAYER_1
 10
129.3523
 20
-219.1064
  0
VERTEX
  8
LAYER_1
 10
129.7016
 20
-219.1064
  0
VERTEX
  8
LAYER_1
 10
130.051
 20
-219.1804
  0
VERTEX
  8
LAYER_1
 10
130.4003
 20
-219.4553
  0
VERTEX
  8
LAYER_1
 10
130.6546
 20
-219.8047
  0
VERTEX
  8
LAYER_1
 10
130.7496
 20
-220.154
  0
SEQEND
  0
POLYLINE
  8
LAYER_1
 40
0.4974
 41
0.4974
 66
1
 10
0
 20
0
 30
0
  0
VERTEX
  8
LAYER_1
 10
130.226
 20
-218.5824
  0
VERTEX
  8
LAYER_1
 10
128.8287
 20
-222.0802
  0
SEQEND
  0
POLYLINE
  8
LAYER_1
 40
0.4974
 41
0.4974
 66
1
 10
0
 20
0
 30
0
  0
VERTEX
  8
LAYER_1
 10
131.8025
 20
-219.1064
  0
VERTEX
  8
LAYER_1
 10
131.9775
 20
-218.8311
  0
VERTEX
  8
LAYER_1
 10
132.2262
 20
-218.6564
  0
VERTEX
  8
LAYER_1
 10
132.5749
 20
-218.5824
  0
VERTEX
  8
LAYER_1
 10
133.0992
 20
-218.5824
  0
VERTEX
  8
LAYER_1
 10
133.4485
 20
-218.6564
  0
VERTEX
  8
LAYER_1
 10
133.7234
 20
-218.8311
  0
VERTEX
  8
LAYER_1
 10
133.8978
 20
-219.1064
  0
VERTEX
  8
LAYER_1
 10
133.8978
 20
-219.4553
  0
VERTEX
  8
LAYER_1
 10
133.7234
 20
-219.8047
  0
VERTEX
  8
LAYER_1
 10
131.8025
 20
-222.0802
  0
VERTEX
  8
LAYER_1
 10
133.8978
 20
-222.0802
  0
SEQEND
  0
POLYLINE
  8
LAYER_1
 40
0.4974
 41
0.4974
 66
1
 10
0
 20
0
 30
0
  0
VERTEX
  8
LAYER_1
 10
134.9513
 20
-220.8523
  0
VERTEX
  8
LAYER_1
 10
135.025
 20
-220.5033
  0
VERTEX
  8
LAYER_1
 10
135.2
 20
-220.2281
  0
VERTEX
  8
LAYER_1
 10
135.4749
 20
-220.0534
  0
VERTEX
  8
LAYER_1
 10
135.7237
 20
-219.9793
  0
VERTEX
  8
LAYER_1
 10
136.2473
 20
-219.9793
  0
VERTEX
  8
LAYER_1
 10
136.5229
 20
-220.0534
  0
VERTEX
  8
LAYER_1
 10
136.7717
 20
-220.2281
  0
VERTEX
  8
LAYER_1
 10
136.9515
 20
-220.5033
  0
VERTEX
  8
LAYER_1
 10
137.0466
 20
-220.8523
  0
VERTEX
  8
LAYER_1
 10
137.0466
 20
-221.2072
  0
VERTEX
  8
LAYER_1
 10
136.9515
 20
-221.5562
  0
VERTEX
  8
LAYER_1
 10
136.7717
 20
-221.8049
  0
VERTEX
  8
LAYER_1
 10
136.5229
 20
-221.9796
  0
VERTEX
  8
LAYER_1
 10
136.2473
 20
-222.0802
  0
VERTEX
  8
LAYER_1
 10
135.7237
 20
-222.0802
  0
VERTEX
  8
LAYER_1
 10
135.4749
 20
-221.9796
  0
VERTEX
  8
LAYER_1
 10
135.2
 20
-221.8049
  0
VERTEX
  8
LAYER_1
 10
135.025
 20
-221.5562
  0
VERTEX
  8
LAYER_1
 10
134.9513
 20
-221.2072
  0
VERTEX
  8
LAYER_1
 10
134.9513
 20
-220.8523
  0
VERTEX
  8
LAYER_1
 10
135.025
 20
-220.154
  0
VERTEX
  8
LAYER_1
 10
135.2
 20
-219.8047
  0
VERTEX
  8
LAYER_1
 10
135.5493
 20
-219.3551
  0
VERTEX
  8
LAYER_1
 10
136.5229
 20
-218.5824
  0
SEQEND
  0
POLYLINE
  8
LAYER_1
 40
0.4974
 41
0.4974
 66
1
 10
0
 20
0
 30
0
  0
VERTEX
  8
LAYER_1
 10
128.4531
 20
-64.1663
  0
VERTEX
  8
LAYER_1
 10
129.5804
 20
-64.1663
  0
VERTEX
  8
LAYER_1
 10
129.5804
 20
-61.6686
  0
VERTEX
  8
LAYER_1
 10
128.4531
 20
-61.6686
  0
VERTEX
  8
LAYER_1
 10
128.4531
 20
-64.1663
  0
SEQEND
  0
POLYLINE
  8
LAYER_1
 40
0.4974
 41
0.4974
 66
1
 10
0
 20
0
 30
0
  0
VERTEX
  8
LAYER_1
 10
130.0296
 20
-62.7957
  0
VERTEX
  8
LAYER_1
 10
132.3261
 20
-62.7957
  0
SEQEND
  0
POLYLINE
  8
LAYER_1
 40
0.4974
 41
0.4974
 66
1
 10
0
 20
0
 30
0
  0
VERTEX
  8
LAYER_1
 10
131.0776
 20
-60.9172
  0
VERTEX
  8
LAYER_1
 10
131.0776
 20
-65.4203
  0
SEQEND
  0
POLYLINE
  8
LAYER_1
 40
0.4974
 41
0.4974
 66
1
 10
0
 20
0
 30
0
  0
VERTEX
  8
LAYER_1
 10
129.7016
 20
-65.4203
  0
VERTEX
  8
LAYER_1
 10
132.6493
 20
-65.4203
  0
SEQEND
  0
POLYLINE
  8
LAYER_1
 40
0.4974
 41
0.4974
 66
1
 10
0
 20
0
 30
0
  0
VERTEX
  8
LAYER_1
 10
133.5753
 20
-64.7959
  0
VERTEX
  8
LAYER_1
 10
134.152
 20
-64.1663
  0
VERTEX
  8
LAYER_1
 10
134.7025
 20
-63.2191
  0
VERTEX
  8
LAYER_1
 10
135.025
 20
-62.293
  0
VERTEX
  8
LAYER_1
 10
133.5753
 20
-62.293
  0
SEQEND
  0
POLYLINE
  8
LAYER_1
 40
0.4974
 41
0.4974
 66
1
 10
0
 20
0
 30
0
  0
VERTEX
  8
LAYER_1
 10
135.6975
 20
-60.7214
  0
VERTEX
  8
LAYER_1
 10
135.6975
 20
-65.595
  0
VERTEX
  8
LAYER_1
 10
135.2737
 20
-65.4203
  0
SEQEND
  0
POLYLINE
  8
LAYER_1
 40
0.4974
 41
0.4974
 66
1
 10
0
 20
0
 30
0
  0
VERTEX
  8
LAYER_1
 10
137.3215
 20
-61.8433
  0
VERTEX
  8
LAYER_1
 10
136.401
 20
-62.5946
  0
SEQEND
  0
POLYLINE
  8
LAYER_1
 40
0.4974
 41
0.4974
 66
1
 10
0
 20
0
 30
0
  0
VERTEX
  8
LAYER_1
 10
136.073
 20
-61.9702
  0
VERTEX
  8
LAYER_1
 10
136.5229
 20
-63.0921
  0
VERTEX
  8
LAYER_1
 10
137.0728
 20
-64.0445
  0
VERTEX
  8
LAYER_1
 10
137.7714
 20
-64.7959
  0
SEQEND
  0
POLYLINE
  8
LAYER_1
 40
0.4974
 41
0.4974
 66
1
 10
0
 20
0
 30
0
  0
VERTEX
  8
LAYER_1
 10
106.1648
 20
-45.4232
  0
VERTEX
  8
LAYER_1
 10
110.2127
 20
-45.4232
  0
SEQEND
  0
POLYLINE
  8
LAYER_1
 40
0.4974
 41
0.4974
 66
1
 10
0
 20
0
 30
0
  0
VERTEX
  8
LAYER_1
 10
109.9109
 20
-43.1
  0
VERTEX
  8
LAYER_1
 10
108.4137
 20
-43.1
  0
SEQEND
  0
POLYLINE
  8
LAYER_1
 40
0.4974
 41
0.4974
 66
1
 10
0
 20
0
 30
0
  0
VERTEX
  8
LAYER_1
 10
107.1645
 20
-42.4756
  0
VERTEX
  8
LAYER_1
 10
107.1645
 20
-45.4232
  0
SEQEND
  0
POLYLINE
  8
LAYER_1
 40
0.4974
 41
0.4974
 66
1
 10
0
 20
0
 30
0
  0
VERTEX
  8
LAYER_1
 10
108.4137
 20
-40.7241
  0
VERTEX
  8
LAYER_1
 10
108.4137
 20
-45.4232
  0
SEQEND
  0
POLYLINE
  8
LAYER_1
 40
0.4974
 41
0.4974
 66
1
 10
0
 20
0
 30
0
  0
VERTEX
  8
LAYER_1
 10
111.2869
 20
-44.7986
  0
VERTEX
  8
LAYER_1
 10
111.8374
 20
-44.1744
  0
VERTEX
  8
LAYER_1
 10
112.4142
 20
-43.2218
  0
VERTEX
  8
LAYER_1
 10
112.7104
 20
-42.3011
  0
VERTEX
  8
LAYER_1
 10
111.2869
 20
-42.3011
  0
SEQEND
  0
POLYLINE
  8
LAYER_1
 40
0.4974
 41
0.4974
 66
1
 10
0
 20
0
 30
0
  0
VERTEX
  8
LAYER_1
 10
113.4084
 20
-40.7241
  0
VERTEX
  8
LAYER_1
 10
113.4084
 20
-45.5977
  0
VERTEX
  8
LAYER_1
 10
112.964
 20
-45.4232
  0
SEQEND
  0
POLYLINE
  8
LAYER_1
 40
0.4974
 41
0.4974
 66
1
 10
0
 20
0
 30
0
  0
VERTEX
  8
LAYER_1
 10
115.0331
 20
-41.8514
  0
VERTEX
  8
LAYER_1
 10
114.0864
 20
-42.5974
  0
SEQEND
  0
POLYLINE
  8
LAYER_1
 40
0.4974
 41
0.4974
 66
1
 10
0
 20
0
 30
0
  0
VERTEX
  8
LAYER_1
 10
113.7846
 20
-41.973
  0
VERTEX
  8
LAYER_1
 10
114.2132
 20
-43.1
  0
VERTEX
  8
LAYER_1
 10
114.7844
 20
-44.0473
  0
VERTEX
  8
LAYER_1
 10
115.4617
 20
-44.7986
  0
SEQEND
  0
POLYLINE
  8
LAYER_1
 40
0.1976
 41
0.1976
 66
1
 10
0
 20
0
 30
0
  0
VERTEX
  8
LAYER_1
 10
74.5574
 20
-224.9272
  0
VERTEX
  8
LAYER_1
 10
74.5574
 20
-253.4226
  0
SEQEND
  0
POLYLINE
  8
LAYER_1
 40
0.1976
 41
0.1976
 66
1
 10
0
 20
0
 30
0
  0
VERTEX
  8
LAYER_1
 10
73.5573
 20
-224.9272
  0
VERTEX
  8
LAYER_1
 10
141.7188
 20
-224.9272
  0
SEQEND
  0
POLYLINE
  8
LAYER_1
 40
0.1976
 41
0.1976
 66
1
 10
0
 20
0
 30
0
  0
VERTEX
  8
LAYER_1
 10
147.0952
 20
-253.4226
  0
VERTEX
  8
LAYER_1
 10
73.5573
 20
-253.4226
  0
SEQEND
  0
POLYLINE
  8
LAYER_1
 40
0.05
 41
0.05
 66
1
 10
0
 20
0
 30
0
 70
1
  0
VERTEX
  8
LAYER_1
 10
74.5574
 20
-224.9272
  0
VERTEX
  8
LAYER_1
 10
75.0071
 20
-228.4302
  0
VERTEX
  8
LAYER_1
 10
74.0811
 20
-228.4302
  0
SEQEND
  0
POLYLINE
  8
LAYER_1
 40
0.0847
 41
0.0847
 66
1
 10
0
 20
0
 30
0
 70
1
  0
VERTEX
  8
LAYER_1
 10
74.5574
 20
-224.9272
  0
VERTEX
  8
LAYER_1
 10
75.0071
 20
-228.4302
  0
VERTEX
  8
LAYER_1
 10
74.0811
 20
-228.4302
  0
SEQEND
  0
POLYLINE
  8
LAYER_1
 40
0.05
 41
0.05
 66
1
 10
0
 20
0
 30
0
 70
1
  0
VERTEX
  8
LAYER_1
 10
74.5574
 20
-253.4226
  0
VERTEX
  8
LAYER_1
 10
74.0811
 20
-249.9248
  0
VERTEX
  8
LAYER_1
 10
75.0071
 20
-249.9248
  0
SEQEND
  0
POLYLINE
  8
LAYER_1
 40
0.0847
 41
0.0847
 66
1
 10
0
 20
0
 30
0
 70
1
  0
VERTEX
  8
LAYER_1
 10
74.5574
 20
-253.4226
  0
VERTEX
  8
LAYER_1
 10
74.0811
 20
-249.9248
  0
VERTEX
  8
LAYER_1
 10
75.0071
 20
-249.9248
  0
SEQEND
  0
POLYLINE
  8
LAYER_1
 40
0.4974
 41
0.4974
 66
1
 10
0
 20
0
 30
0
  0
VERTEX
  8
LAYER_1
 10
70.0595
 20
-239.1248
  0
VERTEX
  8
LAYER_1
 10
70.0595
 20
-241.0509
  0
VERTEX
  8
LAYER_1
 10
71.4564
 20
-241.0509
  0
VERTEX
  8
LAYER_1
 10
71.4564
 20
-239.749
  0
VERTEX
  8
LAYER_1
 10
71.5359
 20
-239.2991
  0
VERTEX
  8
LAYER_1
 10
71.8109
 20
-239.0504
  0
VERTEX
  8
LAYER_1
 10
72.1601
 20
-238.9501
  0
VERTEX
  8
LAYER_1
 10
72.6841
 20
-238.9501
  0
VERTEX
  8
LAYER_1
 10
73.0333
 20
-239.0504
  0
VERTEX
  8
LAYER_1
 10
73.282
 20
-239.225
  0
VERTEX
  8
LAYER_1
 10
73.4567
 20
-239.4738
  0
VERTEX
  8
LAYER_1
 10
73.5573
 20
-239.749
  0
VERTEX
  8
LAYER_1
 10
73.5573
 20
-241.0509
  0
SEQEND
  0
POLYLINE
  8
LAYER_1
 40
0.4974
 41
0.4974
 66
1
 10
0
 20
0
 30
0
  0
VERTEX
  8
LAYER_1
 10
70.4086
 20
-237.9021
  0
VERTEX
  8
LAYER_1
 10
70.0595
 20
-237.9021
  0
VERTEX
  8
LAYER_1
 10
70.0595
 20
-235.8013
  0
VERTEX
  8
LAYER_1
 10
73.5573
 20
-237.5531
  0
SEQEND
  0
POLYLINE
  8
LAYER_1
 40
0.1976
 41
0.1976
 66
1
 10
0
 20
0
 30
0
  0
VERTEX
  8
LAYER_1
 10
74.5574
 20
-224.9272
  0
VERTEX
  8
LAYER_1
 10
74.5574
 20
-74.993
  0
SEQEND
  0
POLYLINE
  8
LAYER_1
 40
0.1976
 41
0.1976
 66
1
 10
0
 20
0
 30
0
  0
VERTEX
  8
LAYER_1
 10
73.5573
 20
-74.993
  0
VERTEX
  8
LAYER_1
 10
144.4708
 20
-74.993
  0
SEQEND
  0
POLYLINE
  8
LAYER_1
 40
0.1976
 41
0.1976
 66
1
 10
0
 20
0
 30
0
  0
VERTEX
  8
LAYER_1
 10
141.7188
 20
-224.9272
  0
VERTEX
  8
LAYER_1
 10
73.5573
 20
-224.9272
  0
SEQEND
  0
POLYLINE
  8
LAYER_1
 40
0.05
 41
0.05
 66
1
 10
0
 20
0
 30
0
 70
1
  0
VERTEX
  8
LAYER_1
 10
74.5574
 20
-224.9272
  0
VERTEX
  8
LAYER_1
 10
74.0811
 20
-221.4294
  0
VERTEX
  8
LAYER_1
 10
75.0071
 20
-221.4294
  0
SEQEND
  0
POLYLINE
  8
LAYER_1
 40
0.0847
 41
0.0847
 66
1
 10
0
 20
0
 30
0
 70
1
  0
VERTEX
  8
LAYER_1
 10
74.5574
 20
-224.9272
  0
VERTEX
  8
LAYER_1
 10
74.0811
 20
-221.4294
  0
VERTEX
  8
LAYER_1
 10
75.0071
 20
-221.4294
  0
SEQEND
  0
POLYLINE
  8
LAYER_1
 40
0.05
 41
0.05
 66
1
 10
0
 20
0
 30
0
 70
1
  0
VERTEX
  8
LAYER_1
 10
74.5574
 20
-74.993
  0
VERTEX
  8
LAYER_1
 10
75.0071
 20
-78.4908
  0
VERTEX
  8
LAYER_1
 10
74.0811
 20
-78.4908
  0
SEQEND
  0
POLYLINE
  8
LAYER_1
 40
0.0847
 41
0.0847
 66
1
 10
0
 20
0
 30
0
 70
1
  0
VERTEX
  8
LAYER_1
 10
74.5574
 20
-74.993
  0
VERTEX
  8
LAYER_1
 10
75.0071
 20
-78.4908
  0
VERTEX
  8
LAYER_1
 10
74.0811
 20
-78.4908
  0
SEQEND
  0
POLYLINE
  8
LAYER_1
 40
0.4974
 41
0.4974
 66
1
 10
0
 20
0
 30
0
  0
VERTEX
  8
LAYER_1
 10
71.4564
 20
-146.0762
  0
VERTEX
  8
LAYER_1
 10
71.4564
 20
-145.1977
  0
SEQEND
  0
POLYLINE
  8
LAYER_1
 40
0.4974
 41
0.4974
 66
1
 10
0
 20
0
 30
0
  0
VERTEX
  8
LAYER_1
 10
70.0595
 20
-146.5998
  0
VERTEX
  8
LAYER_1
 10
70.0595
 20
-145.2983
  0
VERTEX
  8
LAYER_1
 10
70.1335
 20
-144.8484
  0
VERTEX
  8
LAYER_1
 10
70.308
 20
-144.5996
  0
VERTEX
  8
LAYER_1
 10
70.5833
 20
-144.499
  0
VERTEX
  8
LAYER_1
 10
70.832
 20
-144.499
  0
VERTEX
  8
LAYER_1
 10
71.1071
 20
-144.5996
  0
VERTEX
  8
LAYER_1
 10
71.2818
 20
-144.7739
  0
VERTEX
  8
LAYER_1
 10
71.3612
 20
-144.9489
  0
VERTEX
  8
LAYER_1
 10
71.4564
 20
-145.1977
  0
VERTEX
  8
LAYER_1
 10
71.5359
 20
-144.8484
  0
VERTEX
  8
LAYER_1
 10
71.7104
 20
-144.6737
  0
VERTEX
  8
LAYER_1
 10
71.885
 20
-144.5996
  0
VERTEX
  8
LAYER_1
 10
72.2344
 20
-144.499
  0
VERTEX
  8
LAYER_1
 10
72.6841
 20
-144.499
  0
VERTEX
  8
LAYER_1
 10
73.0333
 20
-144.5996
  0
VERTEX
  8
LAYER_1
 10
73.282
 20
-144.7739
  0
VERTEX
  8
LAYER_1
 10
73.4567
 20
-145.0227
  0
VERTEX
  8
LAYER_1
 10
73.5573
 20
-145.2983
  0
VERTEX
  8
LAYER_1
 10
73.5573
 20
-146.5998
  0
SEQEND
  0
POLYLINE
  8
LAYER_1
 40
0.4974
 41
0.4974
 66
1
 10
0
 20
0
 30
0
  0
VERTEX
  8
LAYER_1
 10
72.2344
 20
-141.3771
  0
VERTEX
  8
LAYER_1
 10
72.7582
 20
-141.4508
  0
VERTEX
  8
LAYER_1
 10
73.1073
 20
-141.6258
  0
VERTEX
  8
LAYER_1
 10
73.282
 20
-141.8001
  0
VERTEX
  8
LAYER_1
 10
73.4567
 20
-142.0489
  0
VERTEX
  8
LAYER_1
 10
73.5573
 20
-142.3241
  0
VERTEX
  8
LAYER_1
 10
73.5573
 20
-142.4988
  0
VERTEX
  8
LAYER_1
 10
73.4567
 20
-142.7475
  0
VERTEX
  8
LAYER_1
 10
73.282
 20
-143.0225
  0
VERTEX
  8
LAYER_1
 10
73.1073
 20
-143.1975
  0
VERTEX
  8
LAYER_1
 10
72.7582
 20
-143.3718
  0
VERTEX
  8
LAYER_1
 10
72.2344
 20
-143.451
  0
VERTEX
  8
LAYER_1
 10
71.3612
 20
-143.451
  0
VERTEX
  8
LAYER_1
 10
70.832
 20
-143.3718
  0
VERTEX
  8
LAYER_1
 10
70.4827
 20
-143.1975
  0
VERTEX
  8
LAYER_1
 10
70.308
 20
-143.0225
  0
VERTEX
  8
LAYER_1
 10
70.1335
 20
-142.7475
  0
VERTEX
  8
LAYER_1
 10
70.0595
 20
-142.4988
  0
VERTEX
  8
LAYER_1
 10
70.0595
 20
-142.3241
  0
VERTEX
  8
LAYER_1
 10
70.1335
 20
-142.0489
  0
VERTEX
  8
LAYER_1
 10
70.308
 20
-141.8001
  0
VERTEX
  8
LAYER_1
 10
70.4827
 20
-141.6258
  0
VERTEX
  8
LAYER_1
 10
70.832
 20
-141.4508
  0
VERTEX
  8
LAYER_1
 10
71.3612
 20
-141.3771
  0
VERTEX
  8
LAYER_1
 10
72.2344
 20
-141.3771
  0
SEQEND
  0
POLYLINE
  8
LAYER_1
 40
0.4974
 41
0.4974
 66
1
 10
0
 20
0
 30
0
  0
VERTEX
  8
LAYER_1
 10
72.2344
 20
-138.2231
  0
VERTEX
  8
LAYER_1
 10
72.7582
 20
-138.3027
  0
VERTEX
  8
LAYER_1
 10
73.1073
 20
-138.477
  0
VERTEX
  8
LAYER_1
 10
73.282
 20
-138.6517
  0
VERTEX
  8
LAYER_1
 10
73.4567
 20
-138.9269
  0
VERTEX
  8
LAYER_1
 10
73.5573
 20
-139.1757
  0
VERTEX
  8
LAYER_1
 10
73.5573
 20
-139.35
  0
VERTEX
  8
LAYER_1
 10
73.4567
 20
-139.6256
  0
VERTEX
  8
LAYER_1
 10
73.282
 20
-139.8743
  0
VERTEX
  8
LAYER_1
 10
73.1073
 20
-140.0486
  0
VERTEX
  8
LAYER_1
 10
72.7582
 20
-140.2233
  0
VERTEX
  8
LAYER_1
 10
72.2344
 20
-140.3239
  0
VERTEX
  8
LAYER_1
 10
71.3612
 20
-140.3239
  0
VERTEX
  8
LAYER_1
 10
70.832
 20
-140.2233
  0
VERTEX
  8
LAYER_1
 10
70.4827
 20
-140.0486
  0
VERTEX
  8
LAYER_1
 10
70.308
 20
-139.8743
  0
VERTEX
  8
LAYER_1
 10
70.1335
 20
-139.6256
  0
VERTEX
  8
LAYER_1
 10
70.0595
 20
-139.35
  0
VERTEX
  8
LAYER_1
 10
70.0595
 20
-139.1757
  0
VERTEX
  8
LAYER_1
 10
70.1335
 20
-138.9269
  0
VERTEX
  8
LAYER_1
 10
70.308
 20
-138.6517
  0
VERTEX
  8
LAYER_1
 10
70.4827
 20
-138.477
  0
VERTEX
  8
LAYER_1
 10
70.832
 20
-138.3027
  0
VERTEX
  8
LAYER_1
 10
71.3612
 20
-138.2231
  0
VERTEX
  8
LAYER_1
 10
72.2344
 20
-138.2231
  0
SEQEND
  0
POLYLINE
  8
LAYER_1
 40
0.1976
 41
0.1976
 66
1
 10
0
 20
0
 30
0
  0
VERTEX
  8
LAYER_1
 10
173.453
 20
-237.6747
  0
VERTEX
  8
LAYER_1
 10
173.453
 20
-230.6791
  0
SEQEND
  0
POLYLINE
  8
LAYER_1
 40
0.1976
 41
0.1976
 66
1
 10
0
 20
0
 30
0
  0
VERTEX
  8
LAYER_1
 10
173.453
 20
-230.6791
  0
VERTEX
  8
LAYER_1
 10
173.453
 20
-225.6786
  0
SEQEND
  0
POLYLINE
  8
LAYER_1
 40
0.1976
 41
0.1976
 66
1
 10
0
 20
0
 30
0
  0
VERTEX
  8
LAYER_1
 10
173.453
 20
-225.6786
  0
VERTEX
  8
LAYER_1
 10
173.453
 20
-194.5635
  0
SEQEND
  0
POLYLINE
  8
LAYER_1
 40
0.1976
 41
0.1976
 66
1
 10
0
 20
0
 30
0
  0
VERTEX
  8
LAYER_1
 10
174.4534
 20
-230.6791
  0
VERTEX
  8
LAYER_1
 10
167.5846
 20
-230.6791
  0
SEQEND
  0
POLYLINE
  8
LAYER_1
 40
0.1976
 41
0.1976
 66
1
 10
0
 20
0
 30
0
  0
VERTEX
  8
LAYER_1
 10
167.5846
 20
-225.6786
  0
VERTEX
  8
LAYER_1
 10
174.4534
 20
-225.6786
  0
SEQEND
  0
POLYLINE
  8
LAYER_1
 40
0.05
 41
0.05
 66
1
 10
0
 20
0
 30
0
 70
1
  0
VERTEX
  8
LAYER_1
 10
173.453
 20
-230.6791
  0
VERTEX
  8
LAYER_1
 10
173.9029
 20
-234.1769
  0
VERTEX
  8
LAYER_1
 10
173.0037
 20
-234.1769
  0
SEQEND
  0
POLYLINE
  8
LAYER_1
 40
0.0847
 41
0.0847
 66
1
 10
0
 20
0
 30
0
 70
1
  0
VERTEX
  8
LAYER_1
 10
173.453
 20
-230.6791
  0
VERTEX
  8
LAYER_1
 10
173.9029
 20
-234.1769
  0
VERTEX
  8
LAYER_1
 10
173.0037
 20
-234.1769
  0
SEQEND
  0
POLYLINE
  8
LAYER_1
 40
0.05
 41
0.05
 66
1
 10
0
 20
0
 30
0
 70
1
  0
VERTEX
  8
LAYER_1
 10
173.453
 20
-225.6786
  0
VERTEX
  8
LAYER_1
 10
173.0037
 20
-222.1808
  0
VERTEX
  8
LAYER_1
 10
173.9029
 20
-222.1808
  0
SEQEND
  0
POLYLINE
  8
LAYER_1
 40
0.0847
 41
0.0847
 66
1
 10
0
 20
0
 30
0
 70
1
  0
VERTEX
  8
LAYER_1
 10
173.453
 20
-225.6786
  0
VERTEX
  8
LAYER_1
 10
173.0037
 20
-222.1808
  0
VERTEX
  8
LAYER_1
 10
173.9029
 20
-222.1808
  0
SEQEND
  0
POLYLINE
  8
LAYER_1
 40
0.4974
 41
0.4974
 66
1
 10
0
 20
0
 30
0
  0
VERTEX
  8
LAYER_1
 10
171.8813
 20
-216.7833
  0
VERTEX
  8
LAYER_1
 10
171.6808
 20
-215.6085
  0
SEQEND
  0
POLYLINE
  8
LAYER_1
 40
0.4974
 41
0.4974
 66
1
 10
0
 20
0
 30
0
  0
VERTEX
  8
LAYER_1
 10
172.4532
 20
-215.6085
  0
VERTEX
  8
LAYER_1
 10
170.3579
 20
-215.6085
  0
SEQEND
  0
POLYLINE
  8
LAYER_1
 40
0.4974
 41
0.4974
 66
1
 10
0
 20
0
 30
0
  0
VERTEX
  8
LAYER_1
 10
170.3579
 20
-216.4075
  0
VERTEX
  8
LAYER_1
 10
171.8076
 20
-216.4075
  0
SEQEND
  0
POLYLINE
  8
LAYER_1
 40
0.4974
 41
0.4974
 66
1
 10
0
 20
0
 30
0
  0
VERTEX
  8
LAYER_1
 10
171.2309
 20
-216.4075
  0
VERTEX
  8
LAYER_1
 10
171.2309
 20
-215.6085
  0
SEQEND
  0
POLYLINE
  8
LAYER_1
 40
0.4974
 41
0.4974
 66
1
 10
0
 20
0
 30
0
  0
VERTEX
  8
LAYER_1
 10
170.8071
 20
-215.6085
  0
VERTEX
  8
LAYER_1
 10
170.8071
 20
-216.4815
  0
SEQEND
  0
POLYLINE
  8
LAYER_1
 40
0.4974
 41
0.4974
 66
1
 10
0
 20
0
 30
0
  0
VERTEX
  8
LAYER_1
 10
170.3579
 20
-216.8784
  0
VERTEX
  8
LAYER_1
 10
170.3579
 20
-213.8571
  0
SEQEND
  0
POLYLINE
  8
LAYER_1
 40
0.4974
 41
0.4974
 66
1
 10
0
 20
0
 30
0
  0
VERTEX
  8
LAYER_1
 10
169.9293
 20
-214.5078
  0
VERTEX
  8
LAYER_1
 10
169.0557
 20
-214.5078
  0
VERTEX
  8
LAYER_1
 10
169.0557
 20
-216.0795
  0
VERTEX
  8
LAYER_1
 10
169.9293
 20
-216.0795
  0
VERTEX
  8
LAYER_1
 10
169.9293
 20
-214.5078
  0
SEQEND
  0
POLYLINE
  8
LAYER_1
 40
0.4974
 41
0.4974
 66
1
 10
0
 20
0
 30
0
  0
VERTEX
  8
LAYER_1
 10
169.4794
 20
-214.5078
  0
VERTEX
  8
LAYER_1
 10
169.4794
 20
-216.0795
  0
SEQEND
  0
POLYLINE
  8
LAYER_1
 40
0.4974
 41
0.4974
 66
1
 10
0
 20
0
 30
0
  0
VERTEX
  8
LAYER_1
 10
170.9291
 20
-215.1321
  0
VERTEX
  8
LAYER_1
 10
170.9291
 20
-214.1585
  0
VERTEX
  8
LAYER_1
 10
171.4528
 20
-214.4338
  0
VERTEX
  8
LAYER_1
 10
172.1039
 20
-214.9047
  0
VERTEX
  8
LAYER_1
 10
172.4532
 20
-215.3068
  0
SEQEND
  0
POLYLINE
  8
LAYER_1
 40
0.4974
 41
0.4974
 66
1
 10
0
 20
0
 30
0
  0
VERTEX
  8
LAYER_1
 10
171.1565
 20
-215.0315
  0
VERTEX
  8
LAYER_1
 10
171.5802
 20
-214.73
  0
VERTEX
  8
LAYER_1
 10
172.0302
 20
-214.3332
  0
VERTEX
  8
LAYER_1
 10
172.4532
 20
-213.8571
  0
SEQEND
  0
POLYLINE
  8
LAYER_1
 40
0.4974
 41
0.4974
 66
1
 10
0
 20
0
 30
0
  0
VERTEX
  8
LAYER_1
 10
172.3313
 20
-213.28
  0
VERTEX
  8
LAYER_1
 10
171.8076
 20
-212.5817
  0
VERTEX
  8
LAYER_1
 10
170.8071
 20
-212.1052
  0
VERTEX
  8
LAYER_1
 10
170.1298
 20
-211.883
  0
VERTEX
  8
LAYER_1
 10
169.0557
 20
-211.883
  0
SEQEND
  0
POLYLINE
  8
LAYER_1
 40
0.4974
 41
0.4974
 66
1
 10
0
 20
0
 30
0
  0
VERTEX
  8
LAYER_1
 10
170.0561
 20
-213.3806
  0
VERTEX
  8
LAYER_1
 10
170.0561
 20
-210.4595
  0
SEQEND
  0
POLYLINE
  8
LAYER_1
 40
0.4974
 41
0.4974
 66
1
 10
0
 20
0
 30
0
  0
VERTEX
  8
LAYER_1
 10
170.2835
 20
-211.883
  0
VERTEX
  8
LAYER_1
 10
170.9291
 20
-211.6343
  0
VERTEX
  8
LAYER_1
 10
171.5802
 20
-211.2322
  0
VERTEX
  8
LAYER_1
 10
172.1039
 20
-210.7561
  0
VERTEX
  8
LAYER_1
 10
172.3313
 20
-210.4595
  0
SEQEND
  0
POLYLINE
  8
LAYER_1
 40
0.4974
 41
0.4974
 66
1
 10
0
 20
0
 30
0
  0
VERTEX
  8
LAYER_1
 10
170.3579
 20
-209.4332
  0
VERTEX
  8
LAYER_1
 10
170.3579
 20
-208.5599
  0
SEQEND
  0
POLYLINE
  8
LAYER_1
 40
0.4974
 41
0.4974
 66
1
 10
0
 20
0
 30
0
  0
VERTEX
  8
LAYER_1
 10
168.9551
 20
-209.9569
  0
VERTEX
  8
LAYER_1
 10
168.9551
 20
-208.6553
  0
VERTEX
  8
LAYER_1
 10
169.0557
 20
-208.2054
  0
VERTEX
  8
LAYER_1
 10
169.2307
 20
-207.9566
  0
VERTEX
  8
LAYER_1
 10
169.4794
 20
-207.856
  0
VERTEX
  8
LAYER_1
 10
169.7543
 20
-207.856
  0
VERTEX
  8
LAYER_1
 10
170.0086
 20
-207.9566
  0
VERTEX
  8
LAYER_1
 10
170.1829
 20
-208.1313
  0
VERTEX
  8
LAYER_1
 10
170.2835
 20
-208.306
  0
VERTEX
  8
LAYER_1
 10
170.3579
 20
-208.5599
  0
VERTEX
  8
LAYER_1
 10
170.4585
 20
-208.2054
  0
VERTEX
  8
LAYER_1
 10
170.6328
 20
-208.0307
  0
VERTEX
  8
LAYER_1
 10
170.8071
 20
-207.9566
  0
VERTEX
  8
LAYER_1
 10
171.1565
 20
-207.856
  0
VERTEX
  8
LAYER_1
 10
171.5802
 20
-207.856
  0
VERTEX
  8
LAYER_1
 10
171.9296
 20
-207.9566
  0
VERTEX
  8
LAYER_1
 10
172.2045
 20
-208.1313
  0
VERTEX
  8
LAYER_1
 10
172.3788
 20
-208.3852
  0
VERTEX
  8
LAYER_1
 10
172.4532
 20
-208.6553
  0
VERTEX
  8
LAYER_1
 10
172.4532
 20
-209.9569
  0
SEQEND
  0
POLYLINE
  8
LAYER_1
 40
0.4974
 41
0.4974
 66
1
 10
0
 20
0
 30
0
  0
VERTEX
  8
LAYER_1
 10
171.1565
 20
-204.7076
  0
VERTEX
  8
LAYER_1
 10
171.6808
 20
-204.8082
  0
VERTEX
  8
LAYER_1
 10
172.0302
 20
-204.9828
  0
VERTEX
  8
LAYER_1
 10
172.2045
 20
-205.1575
  0
VERTEX
  8
LAYER_1
 10
172.3788
 20
-205.4062
  0
VERTEX
  8
LAYER_1
 10
172.4532
 20
-205.6812
  0
VERTEX
  8
LAYER_1
 10
172.4532
 20
-205.8558
  0
VERTEX
  8
LAYER_1
 10
172.3788
 20
-206.1097
  0
VERTEX
  8
LAYER_1
 10
172.2045
 20
-206.385
  0
VERTEX
  8
LAYER_1
 10
172.0302
 20
-206.5597
  0
VERTEX
  8
LAYER_1
 10
171.6808
 20
-206.7343
  0
VERTEX
  8
LAYER_1
 10
171.1565
 20
-206.8084
  0
VERTEX
  8
LAYER_1
 10
170.2835
 20
-206.8084
  0
VERTEX
  8
LAYER_1
 10
169.7543
 20
-206.7343
  0
VERTEX
  8
LAYER_1
 10
169.405
 20
-206.5597
  0
VERTEX
  8
LAYER_1
 10
169.2307
 20
-206.385
  0
VERTEX
  8
LAYER_1
 10
169.0557
 20
-206.1097
  0
VERTEX
  8
LAYER_1
 10
168.9551
 20
-205.8558
  0
VERTEX
  8
LAYER_1
 10
168.9551
 20
-205.6812
  0
VERTEX
  8
LAYER_1
 10
169.0557
 20
-205.4062
  0
VERTEX
  8
LAYER_1
 10
169.2307
 20
-205.1575
  0
VERTEX
  8
LAYER_1
 10
169.405
 20
-204.9828
  0
VERTEX
  8
LAYER_1
 10
169.7543
 20
-204.8082
  0
VERTEX
  8
LAYER_1
 10
170.2835
 20
-204.7076
  0
VERTEX
  8
LAYER_1
 10
171.1565
 20
-204.7076
  0
SEQEND
  0
POLYLINE
  8
LAYER_1
 40
0.4974
 41
0.4974
 66
1
 10
0
 20
0
 30
0
  0
VERTEX
  8
LAYER_1
 10
171.8813
 20
-203.4853
  0
VERTEX
  8
LAYER_1
 10
171.6808
 20
-202.3105
  0
SEQEND
  0
POLYLINE
  8
LAYER_1
 40
0.4974
 41
0.4974
 66
1
 10
0
 20
0
 30
0
  0
VERTEX
  8
LAYER_1
 10
172.4532
 20
-202.3105
  0
VERTEX
  8
LAYER_1
 10
170.3579
 20
-202.3105
  0
SEQEND
  0
POLYLINE
  8
LAYER_1
 40
0.4974
 41
0.4974
 66
1
 10
0
 20
0
 30
0
  0
VERTEX
  8
LAYER_1
 10
170.3579
 20
-203.1094
  0
VERTEX
  8
LAYER_1
 10
171.8076
 20
-203.1094
  0
SEQEND
  0
POLYLINE
  8
LAYER_1
 40
0.4974
 41
0.4974
 66
1
 10
0
 20
0
 30
0
  0
VERTEX
  8
LAYER_1
 10
171.2309
 20
-203.1094
  0
VERTEX
  8
LAYER_1
 10
171.2309
 20
-202.3105
  0
SEQEND
  0
POLYLINE
  8
LAYER_1
 40
0.4974
 41
0.4974
 66
1
 10
0
 20
0
 30
0
  0
VERTEX
  8
LAYER_1
 10
170.8071
 20
-202.3105
  0
VERTEX
  8
LAYER_1
 10
170.8071
 20
-203.1835
  0
SEQEND
  0
POLYLINE
  8
LAYER_1
 40
0.4974
 41
0.4974
 66
1
 10
0
 20
0
 30
0
  0
VERTEX
  8
LAYER_1
 10
170.3579
 20
-203.5859
  0
VERTEX
  8
LAYER_1
 10
170.3579
 20
-200.559
  0
SEQEND
  0
POLYLINE
  8
LAYER_1
 40
0.4974
 41
0.4974
 66
1
 10
0
 20
0
 30
0
  0
VERTEX
  8
LAYER_1
 10
169.9293
 20
-201.2098
  0
VERTEX
  8
LAYER_1
 10
169.0557
 20
-201.2098
  0
VERTEX
  8
LAYER_1
 10
169.0557
 20
-202.7866
  0
VERTEX
  8
LAYER_1
 10
169.9293
 20
-202.7866
  0
VERTEX
  8
LAYER_1
 10
169.9293
 20
-201.2098
  0
SEQEND
  0
POLYLINE
  8
LAYER_1
 40
0.4974
 41
0.4974
 66
1
 10
0
 20
0
 30
0
  0
VERTEX
  8
LAYER_1
 10
169.4794
 20
-201.2098
  0
VERTEX
  8
LAYER_1
 10
169.4794
 20
-202.7866
  0
SEQEND
  0
POLYLINE
  8
LAYER_1
 40
0.4974
 41
0.4974
 66
1
 10
0
 20
0
 30
0
  0
VERTEX
  8
LAYER_1
 10
170.9291
 20
-201.8344
  0
VERTEX
  8
LAYER_1
 10
170.9291
 20
-200.8604
  0
VERTEX
  8
LAYER_1
 10
171.4528
 20
-201.1357
  0
VERTEX
  8
LAYER_1
 10
172.1039
 20
-201.6118
  0
VERTEX
  8
LAYER_1
 10
172.4532
 20
-202.0087
  0
SEQEND
  0
POLYLINE
  8
LAYER_1
 40
0.4974
 41
0.4974
 66
1
 10
0
 20
0
 30
0
  0
VERTEX
  8
LAYER_1
 10
171.1565
 20
-201.7338
  0
VERTEX
  8
LAYER_1
 10
171.5802
 20
-201.432
  0
VERTEX
  8
LAYER_1
 10
172.0302
 20
-201.0351
  0
VERTEX
  8
LAYER_1
 10
172.4532
 20
-200.559
  0
SEQEND
  0
POLYLINE
  8
LAYER_1
 40
0.4974
 41
0.4974
 66
1
 10
0
 20
0
 30
0
  0
VERTEX
  8
LAYER_1
 10
171.4528
 20
-200.0825
  0
VERTEX
  8
LAYER_1
 10
170.9291
 20
-199.6857
  0
VERTEX
  8
LAYER_1
 10
170.2835
 20
-199.3842
  0
SEQEND
  0
POLYLINE
  8
LAYER_1
 40
0.4974
 41
0.4974
 66
1
 10
0
 20
0
 30
0
  0
VERTEX
  8
LAYER_1
 10
169.0557
 20
-198.5853
  0
VERTEX
  8
LAYER_1
 10
172.3313
 20
-198.5853
  0
VERTEX
  8
LAYER_1
 10
172.3313
 20
-198.9081
  0
SEQEND
  0
POLYLINE
  8
LAYER_1
 40
0.4974
 41
0.4974
 66
1
 10
0
 20
0
 30
0
  0
VERTEX
  8
LAYER_1
 10
170.2835
 20
-197.9342
  0
VERTEX
  8
LAYER_1
 10
171.4528
 20
-197.1618
  0
SEQEND
  0
POLYLINE
  8
LAYER_1
 40
0.4974
 41
0.4974
 66
1
 10
0
 20
0
 30
0
  0
VERTEX
  8
LAYER_1
 10
168.9551
 20
-194.7382
  0
VERTEX
  8
LAYER_1
 10
168.9551
 20
-196.6591
  0
VERTEX
  8
LAYER_1
 10
170.3579
 20
-196.6591
  0
VERTEX
  8
LAYER_1
 10
170.3579
 20
-195.3624
  0
VERTEX
  8
LAYER_1
 10
170.4585
 20
-194.9128
  0
VERTEX
  8
LAYER_1
 10
170.7072
 20
-194.6586
  0
VERTEX
  8
LAYER_1
 10
171.0559
 20
-194.5635
  0
VERTEX
  8
LAYER_1
 10
171.5802
 20
-194.5635
  0
VERTEX
  8
LAYER_1
 10
171.9296
 20
-194.6586
  0
VERTEX
  8
LAYER_1
 10
172.2045
 20
-194.8388
  0
VERTEX
  8
LAYER_1
 10
172.3788
 20
-195.0875
  0
VERTEX
  8
LAYER_1
 10
172.4532
 20
-195.3624
  0
VERTEX
  8
LAYER_1
 10
172.4532
 20
-196.6591
  0
SEQEND
  0
POLYLINE
  8
LAYER_1
 40
0.1976
 41
0.1976
 66
1
 10
0
 20
0
 30
0
  0
VERTEX
  8
LAYER_1
 10
151.5932
 20
-242.4741
  0
VERTEX
  8
LAYER_1
 10
131.6013
 20
-242.4741
  0
SEQEND
  0
POLYLINE
  8
LAYER_1
 40
0.1976
 41
0.1976
 66
1
 10
0
 20
0
 30
0
  0
VERTEX
  8
LAYER_1
 10
151.0909
 20
-243.3261
  0
VERTEX
  8
LAYER_1
 10
161.7114
 20
-224.9272
  0
SEQEND
  0
POLYLINE
  8
LAYER_1
 40
0.1976
 41
0.1976
 66
1
 10
0
 20
0
 30
0
  0
VERTEX
  8
LAYER_1
 10
141.7188
 20
-224.9272
  0
VERTEX
  8
LAYER_1
 10
131.1038
 20
-243.3261
  0
SEQEND
  0
POLYLINE
  8
LAYER_1
 40
0.05
 41
0.05
 66
1
 10
0
 20
0
 30
0
 70
1
  0
VERTEX
  8
LAYER_1
 10
151.5932
 20
-242.4741
  0
VERTEX
  8
LAYER_1
 10
148.0902
 20
-242.924
  0
VERTEX
  8
LAYER_1
 10
148.0902
 20
-241.998
  0
SEQEND
  0
POLYLINE
  8
LAYER_1
 40
0.0847
 41
0.0847
 66
1
 10
0
 20
0
 30
0
 70
1
  0
VERTEX
  8
LAYER_1
 10
151.5932
 20
-242.4741
  0
VERTEX
  8
LAYER_1
 10
148.0902
 20
-242.924
  0
VERTEX
  8
LAYER_1
 10
148.0902
 20
-241.998
  0
SEQEND
  0
POLYLINE
  8
LAYER_1
 40
0.05
 41
0.05
 66
1
 10
0
 20
0
 30
0
 70
1
  0
VERTEX
  8
LAYER_1
 10
131.6013
 20
-242.4741
  0
VERTEX
  8
LAYER_1
 10
135.0994
 20
-241.998
  0
VERTEX
  8
LAYER_1
 10
135.0994
 20
-242.924
  0
SEQEND
  0
POLYLINE
  8
LAYER_1
 40
0.0847
 41
0.0847
 66
1
 10
0
 20
0
 30
0
 70
1
  0
VERTEX
  8
LAYER_1
 10
131.6013
 20
-242.4741
  0
VERTEX
  8
LAYER_1
 10
135.0994
 20
-241.998
  0
VERTEX
  8
LAYER_1
 10
135.0994
 20
-242.924
  0
SEQEND
  0
POLYLINE
  8
LAYER_1
 40
0.4974
 41
0.4974
 66
1
 10
0
 20
0
 30
0
  0
VERTEX
  8
LAYER_1
 10
140.6977
 20
-237.9762
  0
VERTEX
  8
LAYER_1
 10
139.1212
 20
-240.7757
  0
VERTEX
  8
LAYER_1
 10
141.222
 20
-240.7757
  0
SEQEND
  0
POLYLINE
  8
LAYER_1
 40
0.4974
 41
0.4974
 66
1
 10
0
 20
0
 30
0
  0
VERTEX
  8
LAYER_1
 10
140.6977
 20
-240.077
  0
VERTEX
  8
LAYER_1
 10
140.6977
 20
-241.474
  0
SEQEND
  0
POLYLINE
  8
LAYER_1
 40
0.4974
 41
0.4974
 66
1
 10
0
 20
0
 30
0
  0
VERTEX
  8
LAYER_1
 10
144.3702
 20
-240.1511
  0
VERTEX
  8
LAYER_1
 10
144.2964
 20
-240.6751
  0
VERTEX
  8
LAYER_1
 10
144.1214
 20
-241.0244
  0
VERTEX
  8
LAYER_1
 10
143.9471
 20
-241.1991
  0
VERTEX
  8
LAYER_1
 10
143.6715
 20
-241.3737
  0
VERTEX
  8
LAYER_1
 10
143.4228
 20
-241.474
  0
VERTEX
  8
LAYER_1
 10
143.2429
 20
-241.474
  0
VERTEX
  8
LAYER_1
 10
142.9735
 20
-241.3737
  0
VERTEX
  8
LAYER_1
 10
142.7193
 20
-241.1991
  0
VERTEX
  8
LAYER_1
 10
142.545
 20
-241.0244
  0
VERTEX
  8
LAYER_1
 10
142.3699
 20
-240.6751
  0
VERTEX
  8
LAYER_1
 10
142.2694
 20
-240.1511
  0
VERTEX
  8
LAYER_1
 10
142.2694
 20
-239.2729
  0
VERTEX
  8
LAYER_1
 10
142.3699
 20
-238.7489
  0
VERTEX
  8
LAYER_1
 10
142.545
 20
-238.3996
  0
VERTEX
  8
LAYER_1
 10
142.7193
 20
-238.2249
  0
VERTEX
  8
LAYER_1
 10
142.9735
 20
-238.0502
  0
VERTEX
  8
LAYER_1
 10
143.2429
 20
-237.9762
  0
VERTEX
  8
LAYER_1
 10
143.4228
 20
-237.9762
  0
VERTEX
  8
LAYER_1
 10
143.6715
 20
-238.0502
  0
VERTEX
  8
LAYER_1
 10
143.9471
 20
-238.2249
  0
VERTEX
  8
LAYER_1
 10
144.1214
 20
-238.3996
  0
VERTEX
  8
LAYER_1
 10
144.2964
 20
-238.7489
  0
VERTEX
  8
LAYER_1
 10
144.3702
 20
-239.2729
  0
VERTEX
  8
LAYER_1
 10
144.3702
 20
-240.1511
  0
SEQEND
  0
POLYLINE
  8
LAYER_1
 40
0.4974
 41
0.4974
 66
1
 10
0
 20
0
 30
0
  0
VERTEX
  8
LAYER_1
 10
137.3746
 20
-239.5478
  0
VERTEX
  8
LAYER_1
 10
137.3746
 20
-239.9023
  0
VERTEX
  8
LAYER_1
 10
137.3008
 20
-240.2517
  0
VERTEX
  8
LAYER_1
 10
137.0252
 20
-240.601
  0
VERTEX
  8
LAYER_1
 10
136.6759
 20
-240.8497
  0
VERTEX
  8
LAYER_1
 10
136.3217
 20
-240.9503
  0
VERTEX
  8
LAYER_1
 10
135.9724
 20
-240.9503
  0
VERTEX
  8
LAYER_1
 10
135.6231
 20
-240.8497
  0
VERTEX
  8
LAYER_1
 10
135.2737
 20
-240.601
  0
VERTEX
  8
LAYER_1
 10
135.025
 20
-240.2517
  0
VERTEX
  8
LAYER_1
 10
134.9244
 20
-239.9023
  0
VERTEX
  8
LAYER_1
 10
134.9244
 20
-239.5478
  0
VERTEX
  8
LAYER_1
 10
135.025
 20
-239.1988
  0
VERTEX
  8
LAYER_1
 10
135.2737
 20
-238.8495
  0
VERTEX
  8
LAYER_1
 10
135.6231
 20
-238.5742
  0
VERTEX
  8
LAYER_1
 10
135.9724
 20
-238.5002
  0
VERTEX
  8
LAYER_1
 10
136.3217
 20
-238.5002
  0
VERTEX
  8
LAYER_1
 10
136.6759
 20
-238.5742
  0
VERTEX
  8
LAYER_1
 10
137.0252
 20
-238.8495
  0
VERTEX
  8
LAYER_1
 10
137.3008
 20
-239.1988
  0
VERTEX
  8
LAYER_1
 10
137.3746
 20
-239.5478
  0
SEQEND
  0
POLYLINE
  8
LAYER_1
 40
0.4974
 41
0.4974
 66
1
 10
0
 20
0
 30
0
  0
VERTEX
  8
LAYER_1
 10
136.8509
 20
-237.9762
  0
VERTEX
  8
LAYER_1
 10
135.4488
 20
-241.474
  0
SEQEND
  0
POLYLINE
  8
LAYER_1
 40
0.1976
 41
0.1976
 66
1
 10
0
 20
0
 30
0
  0
VERTEX
  8
LAYER_1
 10
144.222
 20
-135.175
  0
VERTEX
  8
LAYER_1
 10
159.2137
 20
-135.175
  0
SEQEND
  0
POLYLINE
  8
LAYER_1
 40
0.1976
 41
0.1976
 66
1
 10
0
 20
0
 30
0
  0
VERTEX
  8
LAYER_1
 10
144.222
 20
-135.175
  0
VERTEX
  8
LAYER_1
 10
129.6755
 20
-135.175
  0
SEQEND
  0
POLYLINE
  8
LAYER_1
 40
0.05
 41
0.05
 66
1
 10
0
 20
0
 30
0
 70
1
  0
VERTEX
  8
LAYER_1
 10
144.222
 20
-135.175
  0
VERTEX
  8
LAYER_1
 10
147.7202
 20
-134.7253
  0
VERTEX
  8
LAYER_1
 10
147.7202
 20
-135.6513
  0
SEQEND
  0
POLYLINE
  8
LAYER_1
 40
0.0847
 41
0.0847
 66
1
 10
0
 20
0
 30
0
 70
1
  0
VERTEX
  8
LAYER_1
 10
144.222
 20
-135.175
  0
VERTEX
  8
LAYER_1
 10
147.7202
 20
-134.7253
  0
VERTEX
  8
LAYER_1
 10
147.7202
 20
-135.6513
  0
SEQEND
  0
POLYLINE
  8
LAYER_1
 40
0.05
 41
0.05
 66
1
 10
0
 20
0
 30
0
 70
1
  0
VERTEX
  8
LAYER_1
 10
159.2137
 20
-135.175
  0
VERTEX
  8
LAYER_1
 10
155.7156
 20
-135.6513
  0
VERTEX
  8
LAYER_1
 10
155.7156
 20
-134.7253
  0
SEQEND
  0
POLYLINE
  8
LAYER_1
 40
0.0847
 41
0.0847
 66
1
 10
0
 20
0
 30
0
 70
1
  0
VERTEX
  8
LAYER_1
 10
159.2137
 20
-135.175
  0
VERTEX
  8
LAYER_1
 10
155.7156
 20
-135.6513
  0
VERTEX
  8
LAYER_1
 10
155.7156
 20
-134.7253
  0
SEQEND
  0
POLYLINE
  8
LAYER_1
 40
0.4974
 41
0.4974
 66
1
 10
0
 20
0
 30
0
  0
VERTEX
  8
LAYER_1
 10
134.4008
 20
-132.0794
  0
VERTEX
  8
LAYER_1
 10
135.2737
 20
-132.0794
  0
SEQEND
  0
POLYLINE
  8
LAYER_1
 40
0.4974
 41
0.4974
 66
1
 10
0
 20
0
 30
0
  0
VERTEX
  8
LAYER_1
 10
133.8771
 20
-130.6771
  0
VERTEX
  8
LAYER_1
 10
135.2
 20
-130.6771
  0
VERTEX
  8
LAYER_1
 10
135.6231
 20
-130.7777
  0
VERTEX
  8
LAYER_1
 10
135.898
 20
-130.9524
  0
VERTEX
  8
LAYER_1
 10
135.9724
 20
-131.2011
  0
VERTEX
  8
LAYER_1
 10
135.9724
 20
-131.4762
  0
VERTEX
  8
LAYER_1
 10
135.898
 20
-131.7249
  0
VERTEX
  8
LAYER_1
 10
135.7237
 20
-131.8996
  0
VERTEX
  8
LAYER_1
 10
135.5493
 20
-132
  0
VERTEX
  8
LAYER_1
 10
135.2737
 20
-132.0794
  0
VERTEX
  8
LAYER_1
 10
135.6231
 20
-132.1747
  0
VERTEX
  8
LAYER_1
 10
135.7981
 20
-132.3494
  0
VERTEX
  8
LAYER_1
 10
135.898
 20
-132.5292
  0
VERTEX
  8
LAYER_1
 10
135.9724
 20
-132.8785
  0
VERTEX
  8
LAYER_1
 10
135.9724
 20
-133.3018
  0
VERTEX
  8
LAYER_1
 10
135.898
 20
-133.6511
  0
VERTEX
  8
LAYER_1
 10
135.7237
 20
-133.9262
  0
VERTEX
  8
LAYER_1
 10
135.4488
 20
-134.1009
  0
VERTEX
  8
LAYER_1
 10
135.2
 20
-134.1749
  0
VERTEX
  8
LAYER_1
 10
133.8771
 20
-134.1749
  0
SEQEND
  0
POLYLINE
  8
LAYER_1
 40
0.4974
 41
0.4974
 66
1
 10
0
 20
0
 30
0
  0
VERTEX
  8
LAYER_1
 10
139.1212
 20
-132.8785
  0
VERTEX
  8
LAYER_1
 10
139.0468
 20
-133.4024
  0
VERTEX
  8
LAYER_1
 10
138.8725
 20
-133.7517
  0
VERTEX
  8
LAYER_1
 10
138.6975
 20
-133.9262
  0
VERTEX
  8
LAYER_1
 10
138.4226
 20
-134.1009
  0
VERTEX
  8
LAYER_1
 10
138.1738
 20
-134.1749
  0
VERTEX
  8
LAYER_1
 10
137.9988
 20
-134.1749
  0
VERTEX
  8
LAYER_1
 10
137.7239
 20
-134.1009
  0
VERTEX
  8
LAYER_1
 10
137.4752
 20
-133.9262
  0
VERTEX
  8
LAYER_1
 10
137.3008
 20
-133.7517
  0
VERTEX
  8
LAYER_1
 10
137.1258
 20
-133.4024
  0
VERTEX
  8
LAYER_1
 10
137.0252
 20
-132.8785
  0
VERTEX
  8
LAYER_1
 10
137.0252
 20
-132
  0
VERTEX
  8
LAYER_1
 10
137.1258
 20
-131.4762
  0
VERTEX
  8
LAYER_1
 10
137.3008
 20
-131.1271
  0
VERTEX
  8
LAYER_1
 10
137.4752
 20
-130.9524
  0
VERTEX
  8
LAYER_1
 10
137.7239
 20
-130.7777
  0
VERTEX
  8
LAYER_1
 10
137.9988
 20
-130.6771
  0
VERTEX
  8
LAYER_1
 10
138.1738
 20
-130.6771
  0
VERTEX
  8
LAYER_1
 10
138.4226
 20
-130.7777
  0
VERTEX
  8
LAYER_1
 10
138.6975
 20
-130.9524
  0
VERTEX
  8
LAYER_1
 10
138.8725
 20
-131.1271
  0
VERTEX
  8
LAYER_1
 10
139.0468
 20
-131.4762
  0
VERTEX
  8
LAYER_1
 10
139.1212
 20
-132
  0
VERTEX
  8
LAYER_1
 10
139.1212
 20
-132.8785
  0
SEQEND
  0
POLYLINE
  8
LAYER_1
 40
0.4974
 41
0.4974
 66
1
 10
0
 20
0
 30
0
  0
VERTEX
  8
LAYER_1
 10
132.1256
 20
-132.2541
  0
VERTEX
  8
LAYER_1
 10
132.1256
 20
-132.6033
  0
VERTEX
  8
LAYER_1
 10
132.0512
 20
-132.9526
  0
VERTEX
  8
LAYER_1
 10
131.7763
 20
-133.3018
  0
VERTEX
  8
LAYER_1
 10
131.4269
 20
-133.577
  0
VERTEX
  8
LAYER_1
 10
131.0776
 20
-133.6511
  0
VERTEX
  8
LAYER_1
 10
130.7283
 20
-133.6511
  0
VERTEX
  8
LAYER_1
 10
130.3789
 20
-133.577
  0
VERTEX
  8
LAYER_1
 10
130.0296
 20
-133.3018
  0
VERTEX
  8
LAYER_1
 10
129.7761
 20
-132.9526
  0
VERTEX
  8
LAYER_1
 10
129.6755
 20
-132.6033
  0
VERTEX
  8
LAYER_1
 10
129.6755
 20
-132.2541
  0
VERTEX
  8
LAYER_1
 10
129.7761
 20
-131.8996
  0
VERTEX
  8
LAYER_1
 10
130.0296
 20
-131.5503
  0
VERTEX
  8
LAYER_1
 10
130.3789
 20
-131.3015
  0
VERTEX
  8
LAYER_1
 10
130.7283
 20
-131.2011
  0
VERTEX
  8
LAYER_1
 10
131.0776
 20
-131.2011
  0
VERTEX
  8
LAYER_1
 10
131.4269
 20
-131.3015
  0
VERTEX
  8
LAYER_1
 10
131.7763
 20
-131.5503
  0
VERTEX
  8
LAYER_1
 10
132.0512
 20
-131.8996
  0
VERTEX
  8
LAYER_1
 10
132.1256
 20
-132.2541
  0
SEQEND
  0
POLYLINE
  8
LAYER_1
 40
0.4974
 41
0.4974
 66
1
 10
0
 20
0
 30
0
  0
VERTEX
  8
LAYER_1
 10
131.6013
 20
-130.6771
  0
VERTEX
  8
LAYER_1
 10
130.2046
 20
-134.1749
  0
SEQEND
  0
POLYLINE
  8
LAYER_1
 40
0.1976
 41
0.1976
 66
1
 10
0
 20
0
 30
0
  0
VERTEX
  8
LAYER_1
 10
123.4047
 20
-106.182
  0
VERTEX
  8
LAYER_1
 10
118.1075
 20
-117.5062
  0
SEQEND
  0
POLYLINE
  8
LAYER_1
 40
0.1976
 41
0.1976
 66
1
 10
0
 20
0
 30
0
  0
VERTEX
  8
LAYER_1
 10
123.4047
 20
-106.182
  0
VERTEX
  8
LAYER_1
 10
127.7283
 20
-96.8582
  0
SEQEND
  0
POLYLINE
  8
LAYER_1
 40
0.05
 41
0.05
 66
1
 10
0
 20
0
 30
0
 70
1
  0
VERTEX
  8
LAYER_1
 10
123.4047
 20
-106.182
  0
VERTEX
  8
LAYER_1
 10
122.3305
 20
-109.5316
  0
VERTEX
  8
LAYER_1
 10
121.5051
 20
-109.156
  0
SEQEND
  0
POLYLINE
  8
LAYER_1
 40
0.0847
 41
0.0847
 66
1
 10
0
 20
0
 30
0
 70
1
  0
VERTEX
  8
LAYER_1
 10
123.4047
 20
-106.182
  0
VERTEX
  8
LAYER_1
 10
122.3305
 20
-109.5316
  0
VERTEX
  8
LAYER_1
 10
121.5051
 20
-109.156
  0
SEQEND
  0
POLYLINE
  8
LAYER_1
 40
0.05
 41
0.05
 66
1
 10
0
 20
0
 30
0
 70
1
  0
VERTEX
  8
LAYER_1
 10
118.1075
 20
-117.5062
  0
VERTEX
  8
LAYER_1
 10
119.1817
 20
-114.1302
  0
VERTEX
  8
LAYER_1
 10
120.0071
 20
-114.5324
  0
SEQEND
  0
POLYLINE
  8
LAYER_1
 40
0.0847
 41
0.0847
 66
1
 10
0
 20
0
 30
0
 70
1
  0
VERTEX
  8
LAYER_1
 10
118.1075
 20
-117.5062
  0
VERTEX
  8
LAYER_1
 10
119.1817
 20
-114.1302
  0
VERTEX
  8
LAYER_1
 10
120.0071
 20
-114.5324
  0
SEQEND
  0
POLYLINE
  8
LAYER_1
 40
0.4974
 41
0.4974
 66
1
 10
0
 20
0
 30
0
  0
VERTEX
  8
LAYER_1
 10
121.9075
 20
-99.9326
  0
VERTEX
  8
LAYER_1
 10
121.7593
 20
-99.6838
  0
VERTEX
  8
LAYER_1
 10
121.7063
 20
-99.361
  0
VERTEX
  8
LAYER_1
 10
121.78
 20
-99.0119
  0
VERTEX
  8
LAYER_1
 10
122.0074
 20
-98.5356
  0
VERTEX
  8
LAYER_1
 10
122.2299
 20
-98.2605
  0
VERTEX
  8
LAYER_1
 10
122.4842
 20
-98.0858
  0
VERTEX
  8
LAYER_1
 10
122.8066
 20
-98.0329
  0
VERTEX
  8
LAYER_1
 10
123.1298
 20
-98.1863
  0
VERTEX
  8
LAYER_1
 10
123.3572
 20
-98.4827
  0
VERTEX
  8
LAYER_1
 10
124.6057
 20
-101.2079
  0
VERTEX
  8
LAYER_1
 10
125.5055
 20
-99.287
  0
SEQEND
  0
POLYLINE
  8
LAYER_1
 40
0.4974
 41
0.4974
 66
1
 10
0
 20
0
 30
0
  0
VERTEX
  8
LAYER_1
 10
123.579
 20
-95.1119
  0
VERTEX
  8
LAYER_1
 10
122.7804
 20
-96.8582
  0
VERTEX
  8
LAYER_1
 10
124.0289
 20
-97.4614
  0
VERTEX
  8
LAYER_1
 10
124.6057
 20
-96.2601
  0
VERTEX
  8
LAYER_1
 10
124.8544
 20
-95.9109
  0
VERTEX
  8
LAYER_1
 10
125.2037
 20
-95.784
  0
VERTEX
  8
LAYER_1
 10
125.5531
 20
-95.8632
  0
VERTEX
  8
LAYER_1
 10
126.0292
 20
-96.0856
  0
VERTEX
  8
LAYER_1
 10
126.3048
 20
-96.3132
  0
VERTEX
  8
LAYER_1
 10
126.4791
 20
-96.5619
  0
VERTEX
  8
LAYER_1
 10
126.5266
 20
-96.8847
  0
VERTEX
  8
LAYER_1
 10
126.5053
 20
-97.1598
  0
VERTEX
  8
LAYER_1
 10
125.9286
 20
-98.3346
  0
SEQEND
  0
POLYLINE
  8
LAYER_1
 40
0.4974
 41
0.4974
 66
1
 10
0
 20
0
 30
0
  0
VERTEX
  8
LAYER_1
 10
122.1293
 20
-101.9859
  0
VERTEX
  8
LAYER_1
 10
122.4573
 20
-102.1075
  0
VERTEX
  8
LAYER_1
 10
122.7329
 20
-102.3615
  0
VERTEX
  8
LAYER_1
 10
122.9334
 20
-102.7319
  0
VERTEX
  8
LAYER_1
 10
123.0292
 20
-103.1605
  0
VERTEX
  8
LAYER_1
 10
122.9548
 20
-103.5098
  0
VERTEX
  8
LAYER_1
 10
122.8066
 20
-103.8326
  0
VERTEX
  8
LAYER_1
 10
122.5793
 20
-104.1077
  0
VERTEX
  8
LAYER_1
 10
122.1824
 20
-104.3089
  0
VERTEX
  8
LAYER_1
 10
121.7593
 20
-104.4093
  0
VERTEX
  8
LAYER_1
 10
121.41
 20
-104.3352
  0
VERTEX
  8
LAYER_1
 10
121.0813
 20
-104.1818
  0
VERTEX
  8
LAYER_1
 10
120.8064
 20
-103.9595
  0
VERTEX
  8
LAYER_1
 10
120.6052
 20
-103.5839
  0
VERTEX
  8
LAYER_1
 10
120.5101
 20
-103.1605
  0
VERTEX
  8
LAYER_1
 10
120.5845
 20
-102.8113
  0
VERTEX
  8
LAYER_1
 10
120.7327
 20
-102.4832
  0
VERTEX
  8
LAYER_1
 10
120.9601
 20
-102.2081
  0
VERTEX
  8
LAYER_1
 10
121.3569
 20
-101.9859
  0
VERTEX
  8
LAYER_1
 10
121.78
 20
-101.9118
  0
VERTEX
  8
LAYER_1
 10
122.1293
 20
-101.9859
  0
SEQEND
  0
POLYLINE
  8
LAYER_1
 40
0.4974
 41
0.4974
 66
1
 10
0
 20
0
 30
0
  0
VERTEX
  8
LAYER_1
 10
120.4839
 20
-101.7847
  0
VERTEX
  8
LAYER_1
 10
123.0554
 20
-104.5363
  0
SEQEND
  0
POLYLINE
  8
LAYER_1
 40
0.1976
 41
0.1976
 66
1
 10
0
 20
0
 30
0
  0
VERTEX
  8
LAYER_1
 10
84.5533
 20
-106.3832
  0
VERTEX
  8
LAYER_1
 10
84.5533
 20
-224.9272
  0
SEQEND
  0
POLYLINE
  8
LAYER_1
 40
0.1976
 41
0.1976
 66
1
 10
0
 20
0
 30
0
  0
VERTEX
  8
LAYER_1
 10
83.5532
 20
-106.3832
  0
VERTEX
  8
LAYER_1
 10
92.2209
 20
-106.3832
  0
SEQEND
  0
POLYLINE
  8
LAYER_1
 40
0.1976
 41
0.1976
 66
1
 10
0
 20
0
 30
0
  0
VERTEX
  8
LAYER_1
 10
83.5532
 20
-224.9272
  0
VERTEX
  8
LAYER_1
 10
141.7188
 20
-224.9272
  0
SEQEND
  0
POLYLINE
  8
LAYER_1
 40
0.05
 41
0.05
 66
1
 10
0
 20
0
 30
0
 70
1
  0
VERTEX
  8
LAYER_1
 10
84.5533
 20
-106.3832
  0
VERTEX
  8
LAYER_1
 10
85.0031
 20
-109.881
  0
VERTEX
  8
LAYER_1
 10
84.077
 20
-109.881
  0
SEQEND
  0
POLYLINE
  8
LAYER_1
 40
0.0847
 41
0.0847
 66
1
 10
0
 20
0
 30
0
 70
1
  0
VERTEX
  8
LAYER_1
 10
84.5533
 20
-106.3832
  0
VERTEX
  8
LAYER_1
 10
85.0031
 20
-109.881
  0
VERTEX
  8
LAYER_1
 10
84.077
 20
-109.881
  0
SEQEND
  0
POLYLINE
  8
LAYER_1
 40
0.05
 41
0.05
 66
1
 10
0
 20
0
 30
0
 70
1
  0
VERTEX
  8
LAYER_1
 10
84.5533
 20
-224.9272
  0
VERTEX
  8
LAYER_1
 10
84.077
 20
-221.4294
  0
VERTEX
  8
LAYER_1
 10
85.0031
 20
-221.4294
  0
SEQEND
  0
POLYLINE
  8
LAYER_1
 40
0.0847
 41
0.0847
 66
1
 10
0
 20
0
 30
0
 70
1
  0
VERTEX
  8
LAYER_1
 10
84.5533
 20
-224.9272
  0
VERTEX
  8
LAYER_1
 10
84.077
 20
-221.4294
  0
VERTEX
  8
LAYER_1
 10
85.0031
 20
-221.4294
  0
SEQEND
  0
POLYLINE
  8
LAYER_1
 40
0.4974
 41
0.4974
 66
1
 10
0
 20
0
 30
0
  0
VERTEX
  8
LAYER_1
 10
80.5792
 20
-169.8673
  0
VERTEX
  8
LAYER_1
 10
80.3041
 20
-169.6927
  0
VERTEX
  8
LAYER_1
 10
80.1295
 20
-169.4174
  0
VERTEX
  8
LAYER_1
 10
80.0554
 20
-169.0681
  0
VERTEX
  8
LAYER_1
 10
80.0554
 20
-168.5444
  0
VERTEX
  8
LAYER_1
 10
80.1295
 20
-168.1951
  0
VERTEX
  8
LAYER_1
 10
80.3041
 20
-167.9412
  0
VERTEX
  8
LAYER_1
 10
80.5792
 20
-167.7665
  0
VERTEX
  8
LAYER_1
 10
80.9286
 20
-167.7665
  0
VERTEX
  8
LAYER_1
 10
81.2777
 20
-167.9412
  0
VERTEX
  8
LAYER_1
 10
83.5532
 20
-169.8673
  0
VERTEX
  8
LAYER_1
 10
83.5532
 20
-167.7665
  0
SEQEND
  0
POLYLINE
  8
LAYER_1
 40
0.4974
 41
0.4974
 66
1
 10
0
 20
0
 30
0
  0
VERTEX
  8
LAYER_1
 10
81.4524
 20
-166.1949
  0
VERTEX
  8
LAYER_1
 10
81.4524
 20
-165.3164
  0
SEQEND
  0
POLYLINE
  8
LAYER_1
 40
0.4974
 41
0.4974
 66
1
 10
0
 20
0
 30
0
  0
VERTEX
  8
LAYER_1
 10
80.0554
 20
-166.7189
  0
VERTEX
  8
LAYER_1
 10
80.0554
 20
-165.3959
  0
VERTEX
  8
LAYER_1
 10
80.1295
 20
-164.967
  0
VERTEX
  8
LAYER_1
 10
80.3041
 20
-164.6921
  0
VERTEX
  8
LAYER_1
 10
80.5792
 20
-164.618
  0
VERTEX
  8
LAYER_1
 10
80.828
 20
-164.618
  0
VERTEX
  8
LAYER_1
 10
81.1031
 20
-164.6921
  0
VERTEX
  8
LAYER_1
 10
81.2777
 20
-164.8668
  0
VERTEX
  8
LAYER_1
 10
81.3518
 20
-165.0414
  0
VERTEX
  8
LAYER_1
 10
81.4524
 20
-165.3164
  0
VERTEX
  8
LAYER_1
 10
81.5265
 20
-164.967
  0
VERTEX
  8
LAYER_1
 10
81.7011
 20
-164.7927
  0
VERTEX
  8
LAYER_1
 10
81.8756
 20
-164.6921
  0
VERTEX
  8
LAYER_1
 10
82.2303
 20
-164.618
  0
VERTEX
  8
LAYER_1
 10
82.6801
 20
-164.618
  0
VERTEX
  8
LAYER_1
 10
83.0292
 20
-164.6921
  0
VERTEX
  8
LAYER_1
 10
83.2779
 20
-164.8668
  0
VERTEX
  8
LAYER_1
 10
83.4526
 20
-165.1417
  0
VERTEX
  8
LAYER_1
 10
83.5532
 20
-165.3959
  0
VERTEX
  8
LAYER_1
 10
83.5532
 20
-166.7189
  0
SEQEND
  0
POLYLINE
  8
LAYER_1
 40
0.4974
 41
0.4974
 66
1
 10
0
 20
0
 30
0
  0
VERTEX
  8
LAYER_1
 10
81.4524
 20
-162.6919
  0
VERTEX
  8
LAYER_1
 10
81.6271
 20
-163.1204
  0
VERTEX
  8
LAYER_1
 10
81.8756
 20
-163.3957
  0
VERTEX
  8
LAYER_1
 10
82.2303
 20
-163.57
  0
VERTEX
  8
LAYER_1
 10
82.7541
 20
-163.57
  0
VERTEX
  8
LAYER_1
 10
83.1033
 20
-163.3957
  0
VERTEX
  8
LAYER_1
 10
83.3785
 20
-163.1204
  0
VERTEX
  8
LAYER_1
 10
83.5532
 20
-162.7711
  0
VERTEX
  8
LAYER_1
 10
83.5532
 20
-162.2419
  0
VERTEX
  8
LAYER_1
 10
83.3785
 20
-161.8926
  0
VERTEX
  8
LAYER_1
 10
83.1033
 20
-161.6439
  0
VERTEX
  8
LAYER_1
 10
82.7541
 20
-161.4696
  0
VERTEX
  8
LAYER_1
 10
82.2303
 20
-161.4696
  0
VERTEX
  8
LAYER_1
 10
81.8756
 20
-161.6439
  0
VERTEX
  8
LAYER_1
 10
81.6271
 20
-161.8926
  0
VERTEX
  8
LAYER_1
 10
81.4524
 20
-162.3425
  0
SEQEND
  0
POLYLINE
  8
LAYER_1
 40
0.4974
 41
0.4974
 66
1
 10
0
 20
0
 30
0
  0
VERTEX
  8
LAYER_1
 10
80.1295
 20
-162.9458
  0
VERTEX
  8
LAYER_1
 10
80.0554
 20
-162.6919
  0
VERTEX
  8
LAYER_1
 10
80.0554
 20
-162.3425
  0
VERTEX
  8
LAYER_1
 10
80.1295
 20
-162.0673
  0
VERTEX
  8
LAYER_1
 10
80.3041
 20
-161.8185
  0
VERTEX
  8
LAYER_1
 10
80.5792
 20
-161.6439
  0
VERTEX
  8
LAYER_1
 10
80.9286
 20
-161.6439
  0
VERTEX
  8
LAYER_1
 10
81.1771
 20
-161.8185
  0
VERTEX
  8
LAYER_1
 10
81.3518
 20
-162.0673
  0
VERTEX
  8
LAYER_1
 10
81.4524
 20
-162.3425
  0
VERTEX
  8
LAYER_1
 10
81.4524
 20
-162.6919
  0
VERTEX
  8
LAYER_1
 10
81.3518
 20
-162.9458
  0
VERTEX
  8
LAYER_1
 10
81.1771
 20
-163.221
  0
VERTEX
  8
LAYER_1
 10
80.9286
 20
-163.3957
  0
VERTEX
  8
LAYER_1
 10
80.5792
 20
-163.3957
  0
VERTEX
  8
LAYER_1
 10
80.3041
 20
-163.221
  0
VERTEX
  8
LAYER_1
 10
80.1295
 20
-162.9458
  0
SEQEND
  0
POLYLINE
  8
LAYER_1
 40
0.1976
 41
0.1976
 66
1
 10
0
 20
0
 30
0
  0
VERTEX
  8
LAYER_1
 10
92.2209
 20
-195.463
  0
VERTEX
  8
LAYER_1
 10
151.7151
 20
-195.463
  0
SEQEND
  0
POLYLINE
  8
LAYER_1
 40
0.1976
 41
0.1976
 66
1
 10
0
 20
0
 30
0
  0
VERTEX
  8
LAYER_1
 10
92.2209
 20
-196.4631
  0
VERTEX
  8
LAYER_1
 10
92.2209
 20
-107.1345
  0
SEQEND
  0
POLYLINE
  8
LAYER_1
 40
0.1976
 41
0.1976
 66
1
 10
0
 20
0
 30
0
  0
VERTEX
  8
LAYER_1
 10
151.7151
 20
-194.4629
  0
VERTEX
  8
LAYER_1
 10
151.7151
 20
-256.9204
  0
SEQEND
  0
POLYLINE
  8
LAYER_1
 40
0.05
 41
0.05
 66
1
 10
0
 20
0
 30
0
 70
1
  0
VERTEX
  8
LAYER_1
 10
92.2209
 20
-195.463
  0
VERTEX
  8
LAYER_1
 10
95.7187
 20
-194.9869
  0
VERTEX
  8
LAYER_1
 10
95.7187
 20
-195.9129
  0
SEQEND
  0
POLYLINE
  8
LAYER_1
 40
0.0847
 41
0.0847
 66
1
 10
0
 20
0
 30
0
 70
1
  0
VERTEX
  8
LAYER_1
 10
92.2209
 20
-195.463
  0
VERTEX
  8
LAYER_1
 10
95.7187
 20
-194.9869
  0
VERTEX
  8
LAYER_1
 10
95.7187
 20
-195.9129
  0
SEQEND
  0
POLYLINE
  8
LAYER_1
 40
0.05
 41
0.05
 66
1
 10
0
 20
0
 30
0
 70
1
  0
VERTEX
  8
LAYER_1
 10
151.7151
 20
-195.463
  0
VERTEX
  8
LAYER_1
 10
148.2177
 20
-195.9129
  0
VERTEX
  8
LAYER_1
 10
148.2177
 20
-194.9869
  0
SEQEND
  0
POLYLINE
  8
LAYER_1
 40
0.0847
 41
0.0847
 66
1
 10
0
 20
0
 30
0
 70
1
  0
VERTEX
  8
LAYER_1
 10
151.7151
 20
-195.463
  0
VERTEX
  8
LAYER_1
 10
148.2177
 20
-195.9129
  0
VERTEX
  8
LAYER_1
 10
148.2177
 20
-194.9869
  0
SEQEND
  0
POLYLINE
  8
LAYER_1
 40
0.4974
 41
0.4974
 66
1
 10
0
 20
0
 30
0
  0
VERTEX
  8
LAYER_1
 10
115.483
 20
-192.0127
  0
VERTEX
  8
LAYER_1
 10
116.5359
 20
-190.9599
  0
VERTEX
  8
LAYER_1
 10
116.5359
 20
-194.4629
  0
SEQEND
  0
POLYLINE
  8
LAYER_1
 40
0.4974
 41
0.4974
 66
1
 10
0
 20
0
 30
0
  0
VERTEX
  8
LAYER_1
 10
117.5839
 20
-191.4891
  0
VERTEX
  8
LAYER_1
 10
117.7582
 20
-191.2138
  0
VERTEX
  8
LAYER_1
 10
118.0338
 20
-191.0392
  0
VERTEX
  8
LAYER_1
 10
118.3831
 20
-190.9599
  0
VERTEX
  8
LAYER_1
 10
118.9068
 20
-190.9599
  0
VERTEX
  8
LAYER_1
 10
119.2561
 20
-191.0392
  0
VERTEX
  8
LAYER_1
 10
119.5104
 20
-191.2138
  0
VERTEX
  8
LAYER_1
 10
119.6847
 20
-191.4891
  0
VERTEX
  8
LAYER_1
 10
119.6847
 20
-191.8384
  0
VERTEX
  8
LAYER_1
 10
119.5104
 20
-192.1874
  0
VERTEX
  8
LAYER_1
 10
117.5839
 20
-194.4629
  0
VERTEX
  8
LAYER_1
 10
119.6847
 20
-194.4629
  0
SEQEND
  0
POLYLINE
  8
LAYER_1
 40
0.4974
 41
0.4974
 66
1
 10
0
 20
0
 30
0
  0
VERTEX
  8
LAYER_1
 10
122.8335
 20
-193.1348
  0
VERTEX
  8
LAYER_1
 10
122.7536
 20
-193.664
  0
VERTEX
  8
LAYER_1
 10
122.5793
 20
-194.0133
  0
VERTEX
  8
LAYER_1
 10
122.4042
 20
-194.1876
  0
VERTEX
  8
LAYER_1
 10
122.1293
 20
-194.3623
  0
VERTEX
  8
LAYER_1
 10
121.8806
 20
-194.4629
  0
VERTEX
  8
LAYER_1
 10
121.7063
 20
-194.4629
  0
VERTEX
  8
LAYER_1
 10
121.4307
 20
-194.3623
  0
VERTEX
  8
LAYER_1
 10
121.1819
 20
-194.1876
  0
VERTEX
  8
LAYER_1
 10
121.0076
 20
-194.0133
  0
VERTEX
  8
LAYER_1
 10
120.8333
 20
-193.664
  0
VERTEX
  8
LAYER_1
 10
120.7327
 20
-193.1348
  0
VERTEX
  8
LAYER_1
 10
120.7327
 20
-192.2615
  0
VERTEX
  8
LAYER_1
 10
120.8333
 20
-191.7378
  0
VERTEX
  8
LAYER_1
 10
121.0076
 20
-191.3885
  0
VERTEX
  8
LAYER_1
 10
121.1819
 20
-191.2138
  0
VERTEX
  8
LAYER_1
 10
121.4307
 20
-191.0392
  0
VERTEX
  8
LAYER_1
 10
121.7063
 20
-190.9599
  0
VERTEX
  8
LAYER_1
 10
121.8806
 20
-190.9599
  0
VERTEX
  8
LAYER_1
 10
122.1293
 20
-191.0392
  0
VERTEX
  8
LAYER_1
 10
122.4042
 20
-191.2138
  0
VERTEX
  8
LAYER_1
 10
122.5793
 20
-191.3885
  0
VERTEX
  8
LAYER_1
 10
122.7536
 20
-191.7378
  0
VERTEX
  8
LAYER_1
 10
122.8335
 20
-192.2615
  0
VERTEX
  8
LAYER_1
 10
122.8335
 20
-193.1348
  0
SEQEND
  0
POLYLINE
  8
LAYER_1
 40
0.4974
 41
0.4974
 66
1
 10
0
 20
0
 30
0
  0
VERTEX
  8
LAYER_1
 10
45.1463
 20
-88.238
  0
VERTEX
  8
LAYER_1
 10
45.1463
 20
-88.4868
  0
SEQEND
  0
POLYLINE
  8
LAYER_1
 40
0.4974
 41
0.4974
 66
1
 10
0
 20
0
 30
0
  0
VERTEX
  8
LAYER_1
 10
44.2731
 20
-88.1374
  0
VERTEX
  8
LAYER_1
 10
44.2731
 20
-75.2417
  0
SEQEND
  0
POLYLINE
  8
LAYER_1
 40
0.4974
 41
0.4974
 66
1
 10
0
 20
0
 30
0
  0
VERTEX
  8
LAYER_1
 10
44.3737
 20
-88.238
  0
VERTEX
  8
LAYER_1
 10
59.1638
 20
-88.238
  0
SEQEND
  0
POLYLINE
  8
LAYER_1
 40
0.4974
 41
0.4974
 66
1
 10
0
 20
0
 30
0
  0
VERTEX
  8
LAYER_1
 10
59.0157
 20
-74.993
  0
VERTEX
  8
LAYER_1
 10
44.5218
 20
-74.993
  0
SEQEND
  0
POLYLINE
  8
LAYER_1
 40
0.4974
 41
0.4974
 66
1
 10
0
 20
0
 30
0
  0
VERTEX
  8
LAYER_1
 10
59.2644
 20
-75.2417
  0
VERTEX
  8
LAYER_1
 10
59.2644
 20
-88.1374
  0
SEQEND
  0
POLYLINE
  8
LAYER_1
 40
0.4974
 41
0.4974
 66
1
 10
0
 20
0
 30
0
  0
VERTEX
  8
LAYER_1
 10
58.3913
 20
-88.238
  0
VERTEX
  8
LAYER_1
 10
58.3913
 20
-88.4868
  0
SEQEND
  0
POLYLINE
  8
LAYER_1
 40
0.4974
 41
0.4974
 66
1
 10
0
 20
0
 30
0
  0
VERTEX
  8
LAYER_1
 10
158.3352
 20
-88.4868
  0
VERTEX
  8
LAYER_1
 10
158.3352
 20
-88.238
  0
SEQEND
  0
POLYLINE
  8
LAYER_1
 40
0.4974
 41
0.4974
 66
1
 10
0
 20
0
 30
0
  0
VERTEX
  8
LAYER_1
 10
145.095
 20
-88.238
  0
VERTEX
  8
LAYER_1
 10
145.095
 20
-88.4868
  0
SEQEND
  0
POLYLINE
  8
LAYER_1
 40
0.4974
 41
0.4974
 66
1
 10
0
 20
0
 30
0
  0
VERTEX
  8
LAYER_1
 10
144.222
 20
-88.1374
  0
VERTEX
  8
LAYER_1
 10
144.222
 20
-82.0415
  0
SEQEND
  0
POLYLINE
  8
LAYER_1
 40
0.4974
 41
0.4974
 66
1
 10
0
 20
0
 30
0
  0
VERTEX
  8
LAYER_1
 10
144.222
 20
-77.9405
  0
VERTEX
  8
LAYER_1
 10
144.222
 20
-75.2417
  0
SEQEND
  0
POLYLINE
  8
LAYER_1
 40
0.4974
 41
0.4974
 66
1
 10
0
 20
0
 30
0
  0
VERTEX
  8
LAYER_1
 10
159.2137
 20
-75.2417
  0
VERTEX
  8
LAYER_1
 10
159.2137
 20
-88.1374
  0
SEQEND
  0
POLYLINE
  8
LAYER_1
 40
0.4974
 41
0.4974
 66
1
 10
0
 20
0
 30
0
  0
VERTEX
  8
LAYER_1
 10
159.1131
 20
-88.238
  0
VERTEX
  8
LAYER_1
 10
144.3171
 20
-88.238
  0
SEQEND
  0
POLYLINE
  8
LAYER_1
 40
0.4974
 41
0.4974
 66
1
 10
0
 20
0
 30
0
  0
VERTEX
  8
LAYER_1
 10
144.4708
 20
-74.993
  0
VERTEX
  8
LAYER_1
 10
158.965
 20
-74.993
  0
SEQEND
  0
POLYLINE
  8
LAYER_1
 40
0.4974
 41
0.4974
 66
1
 10
0
 20
0
 30
0
  0
VERTEX
  8
LAYER_1
 10
144.222
 20
-82.0415
  0
VERTEX
  8
LAYER_1
 10
144.397
 20
-81.1895
  0
VERTEX
  8
LAYER_1
 10
144.497
 20
-80.3376
  0
VERTEX
  8
LAYER_1
 10
144.4708
 20
-79.4909
  0
VERTEX
  8
LAYER_1
 10
144.3702
 20
-78.639
  0
VERTEX
  8
LAYER_1
 10
144.222
 20
-77.9405
  0
SEQEND
  0
POLYLINE
  8
LAYER_1
 40
0.4974
 41
0.4974
 66
1
 10
0
 20
0
 30
0
  0
VERTEX
  8
LAYER_1
 10
44.2731
 20
-88.1374
  0
VERTEX
  8
LAYER_1
 10
44.2996
 20
-88.2115
  0
VERTEX
  8
LAYER_1
 10
44.3737
 20
-88.238
  0
SEQEND
  0
POLYLINE
  8
LAYER_1
 40
0.4974
 41
0.4974
 66
1
 10
0
 20
0
 30
0
  0
VERTEX
  8
LAYER_1
 10
44.5218
 20
-74.993
  0
VERTEX
  8
LAYER_1
 10
44.3737
 20
-75.0406
  0
VERTEX
  8
LAYER_1
 10
44.2731
 20
-75.1889
  0
VERTEX
  8
LAYER_1
 10
44.2731
 20
-75.2417
  0
SEQEND
  0
POLYLINE
  8
LAYER_1
 40
0.4974
 41
0.4974
 66
1
 10
0
 20
0
 30
0
  0
VERTEX
  8
LAYER_1
 10
59.2644
 20
-75.2417
  0
VERTEX
  8
LAYER_1
 10
59.2167
 20
-75.0934
  0
VERTEX
  8
LAYER_1
 10
59.0632
 20
-74.993
  0
VERTEX
  8
LAYER_1
 10
59.0157
 20
-74.993
  0
SEQEND
  0
POLYLINE
  8
LAYER_1
 40
0.4974
 41
0.4974
 66
1
 10
0
 20
0
 30
0
  0
VERTEX
  8
LAYER_1
 10
59.1638
 20
-88.238
  0
VERTEX
  8
LAYER_1
 10
59.2379
 20
-88.2115
  0
VERTEX
  8
LAYER_1
 10
59.2644
 20
-88.1374
  0
SEQEND
  0
POLYLINE
  8
LAYER_1
 40
0.4974
 41
0.4974
 66
1
 10
0
 20
0
 30
0
  0
VERTEX
  8
LAYER_1
 10
144.222
 20
-88.1374
  0
VERTEX
  8
LAYER_1
 10
144.2434
 20
-88.2115
  0
VERTEX
  8
LAYER_1
 10
144.3171
 20
-88.238
  0
SEQEND
  0
POLYLINE
  8
LAYER_1
 40
0.4974
 41
0.4974
 66
1
 10
0
 20
0
 30
0
  0
VERTEX
  8
LAYER_1
 10
144.222
 20
-88.1374
  0
VERTEX
  8
LAYER_1
 10
144.2434
 20
-88.2115
  0
VERTEX
  8
LAYER_1
 10
144.3171
 20
-88.238
  0
SEQEND
  0
POLYLINE
  8
LAYER_1
 40
0.4974
 41
0.4974
 66
1
 10
0
 20
0
 30
0
  0
VERTEX
  8
LAYER_1
 10
159.1131
 20
-88.238
  0
VERTEX
  8
LAYER_1
 10
159.1868
 20
-88.2115
  0
VERTEX
  8
LAYER_1
 10
159.2137
 20
-88.1374
  0
SEQEND
  0
POLYLINE
  8
LAYER_1
 40
0.4974
 41
0.4974
 66
1
 10
0
 20
0
 30
0
  0
VERTEX
  8
LAYER_1
 10
159.2137
 20
-75.2417
  0
VERTEX
  8
LAYER_1
 10
159.1607
 20
-75.0934
  0
VERTEX
  8
LAYER_1
 10
159.0125
 20
-74.993
  0
VERTEX
  8
LAYER_1
 10
158.965
 20
-74.993
  0
SEQEND
  0
POLYLINE
  8
LAYER_1
 40
0.4974
 41
0.4974
 66
1
 10
0
 20
0
 30
0
  0
VERTEX
  8
LAYER_1
 10
144.4708
 20
-74.993
  0
VERTEX
  8
LAYER_1
 10
144.3171
 20
-75.0406
  0
VERTEX
  8
LAYER_1
 10
144.222
 20
-75.1889
  0
VERTEX
  8
LAYER_1
 10
144.222
 20
-75.2417
  0
SEQEND
  0
POLYLINE
  8
LAYER_1
 40
0.4974
 41
0.4974
 66
1
 10
0
 20
0
 30
0
  0
VERTEX
  8
LAYER_1
 10
159.2137
 20
-23.7538
  0
VERTEX
  8
LAYER_1
 10
159.1607
 20
-22.9018
  0
VERTEX
  8
LAYER_1
 10
159.0125
 20
-22.0552
  0
VERTEX
  8
LAYER_1
 10
158.7638
 20
-21.2032
  0
VERTEX
  8
LAYER_1
 10
158.3876
 20
-20.3566
  0
VERTEX
  8
LAYER_1
 10
157.8853
 20
-19.5046
  0
VERTEX
  8
LAYER_1
 10
157.2135
 20
-18.6526
  0
VERTEX
  8
LAYER_1
 10
156.3612
 20
-17.88
  0
VERTEX
  8
LAYER_1
 10
155.5144
 20
-17.282
  0
VERTEX
  8
LAYER_1
 10
154.6627
 20
-16.8534
  0
VERTEX
  8
LAYER_1
 10
153.8159
 20
-16.5571
  0
VERTEX
  8
LAYER_1
 10
152.9636
 20
-16.3559
  0
VERTEX
  8
LAYER_1
 10
152.1175
 20
-16.2555
  0
VERTEX
  8
LAYER_1
 10
151.2652
 20
-16.2819
  0
VERTEX
  8
LAYER_1
 10
150.4184
 20
-16.3825
  0
VERTEX
  8
LAYER_1
 10
149.5668
 20
-16.5783
  0
VERTEX
  8
LAYER_1
 10
148.7199
 20
-16.8799
  0
VERTEX
  8
LAYER_1
 10
147.8683
 20
-17.3297
  0
VERTEX
  8
LAYER_1
 10
147.016
 20
-17.9066
  0
VERTEX
  8
LAYER_1
 10
146.1692
 20
-18.7055
  0
VERTEX
  8
LAYER_1
 10
145.4919
 20
-19.5575
  0
VERTEX
  8
LAYER_1
 10
145.0213
 20
-20.4041
  0
VERTEX
  8
LAYER_1
 10
144.6458
 20
-21.2561
  0
VERTEX
  8
LAYER_1
 10
144.397
 20
-22.1027
  0
VERTEX
  8
LAYER_1
 10
144.2696
 20
-22.9547
  0
VERTEX
  8
LAYER_1
 10
144.222
 20
-23.8015
  0
VERTEX
  8
LAYER_1
 10
144.2696
 20
-24.6534
  0
VERTEX
  8
LAYER_1
 10
144.4177
 20
-25.5052
  0
VERTEX
  8
LAYER_1
 10
144.6933
 20
-26.3519
  0
VERTEX
  8
LAYER_1
 10
145.0688
 20
-27.2039
  0
VERTEX
  8
LAYER_1
 10
145.5718
 20
-28.0507
  0
VERTEX
  8
LAYER_1
 10
146.2698
 20
-28.9026
  0
VERTEX
  8
LAYER_1
 10
147.1166
 20
-29.6752
  0
VERTEX
  8
LAYER_1
 10
147.9689
 20
-30.2519
  0
VERTEX
  8
LAYER_1
 10
148.815
 20
-30.6753
  0
VERTEX
  8
LAYER_1
 10
149.6674
 20
-30.9769
  0
VERTEX
  8
LAYER_1
 10
150.519
 20
-31.1516
  0
VERTEX
  8
LAYER_1
 10
151.3658
 20
-31.252
  0
VERTEX
  8
LAYER_1
 10
152.2181
 20
-31.2257
  0
VERTEX
  8
LAYER_1
 10
153.0642
 20
-31.1251
  0
VERTEX
  8
LAYER_1
 10
153.9165
 20
-30.9292
  0
VERTEX
  8
LAYER_1
 10
154.7633
 20
-30.6012
  0
VERTEX
  8
LAYER_1
 10
155.615
 20
-30.1515
  0
VERTEX
  8
LAYER_1
 10
156.4618
 20
-29.5534
  0
VERTEX
  8
LAYER_1
 10
157.3134
 20
-28.7545
  0
VERTEX
  8
LAYER_1
 10
157.9645
 20
-27.9025
  0
VERTEX
  8
LAYER_1
 10
158.4358
 20
-27.0505
  0
VERTEX
  8
LAYER_1
 10
158.8113
 20
-26.2037
  0
VERTEX
  8
LAYER_1
 10
159.0387
 20
-25.3518
  0
VERTEX
  8
LAYER_1
 10
159.1607
 20
-24.5051
  0
VERTEX
  8
LAYER_1
 10
159.2137
 20
-23.7538
  0
SEQEND
  0
POLYLINE
  8
LAYER_1
 40
0.4974
 41
0.4974
 66
1
 10
0
 20
0
 30
0
  0
VERTEX
  8
LAYER_1
 10
144.222
 20
-81.9886
  0
VERTEX
  8
LAYER_1
 10
122.9816
 20
-81.9886
  0
SEQEND
  0
POLYLINE
  8
LAYER_1
 40
0.1976
 41
0.1976
 66
1
 10
0
 20
0
 30
0
  0
VERTEX
  8
LAYER_1
 10
151.5932
 20
-52.7468
  0
VERTEX
  8
LAYER_1
 10
153.4666
 20
-52.7468
  0
SEQEND
  0
POLYLINE
  8
LAYER_1
 40
0.1976
 41
0.1976
 66
1
 10
0
 20
0
 30
0
  0
VERTEX
  8
LAYER_1
 10
149.7149
 20
-52.4981
  0
VERTEX
  8
LAYER_1
 10
149.7149
 20
-48.0477
  0
SEQEND
  0
POLYLINE
  8
LAYER_1
 40
0.1976
 41
0.1976
 66
1
 10
0
 20
0
 30
0
  0
VERTEX
  8
LAYER_1
 10
149.7149
 20
-47.3494
  0
VERTEX
  8
LAYER_1
 10
149.7149
 20
-46.3493
  0
SEQEND
  0
POLYLINE
  8
LAYER_1
 40
0.1976
 41
0.1976
 66
1
 10
0
 20
0
 30
0
  0
VERTEX
  8
LAYER_1
 10
149.7149
 20
-45.6718
  0
VERTEX
  8
LAYER_1
 10
149.7149
 20
-44.6717
  0
SEQEND
  0
POLYLINE
  8
LAYER_1
 40
0.1976
 41
0.1976
 66
1
 10
0
 20
0
 30
0
  0
VERTEX
  8
LAYER_1
 10
149.7149
 20
-43.9732
  0
VERTEX
  8
LAYER_1
 10
149.7149
 20
-39.523
  0
SEQEND
  0
POLYLINE
  8
LAYER_1
 40
0.1976
 41
0.1976
 66
1
 10
0
 20
0
 30
0
  0
VERTEX
  8
LAYER_1
 10
149.7149
 20
-38.8245
  0
VERTEX
  8
LAYER_1
 10
149.7149
 20
-37.8244
  0
SEQEND
  0
POLYLINE
  8
LAYER_1
 40
0.1976
 41
0.1976
 66
1
 10
0
 20
0
 30
0
  0
VERTEX
  8
LAYER_1
 10
149.7149
 20
-37.1257
  0
VERTEX
  8
LAYER_1
 10
149.7149
 20
-36.1521
  0
SEQEND
  0
POLYLINE
  8
LAYER_1
 40
0.1976
 41
0.1976
 66
1
 10
0
 20
0
 30
0
  0
VERTEX
  8
LAYER_1
 10
149.7149
 20
-35.4483
  0
VERTEX
  8
LAYER_1
 10
149.7149
 20
-30.9769
  0
SEQEND
  0
POLYLINE
  8
LAYER_1
 40
0.1976
 41
0.1976
 66
1
 10
0
 20
0
 30
0
  0
VERTEX
  8
LAYER_1
 10
149.9691
 20
-52.7468
  0
VERTEX
  8
LAYER_1
 10
151.5932
 20
-52.7468
  0
SEQEND
  0
POLYLINE
  8
LAYER_1
 40
0.1976
 41
0.1976
 66
1
 10
0
 20
0
 30
0
  0
VERTEX
  8
LAYER_1
 10
153.7153
 20
-52.4981
  0
VERTEX
  8
LAYER_1
 10
153.7153
 20
-48.0477
  0
SEQEND
  0
POLYLINE
  8
LAYER_1
 40
0.1976
 41
0.1976
 66
1
 10
0
 20
0
 30
0
  0
VERTEX
  8
LAYER_1
 10
153.7153
 20
-47.3494
  0
VERTEX
  8
LAYER_1
 10
153.7153
 20
-46.3493
  0
SEQEND
  0
POLYLINE
  8
LAYER_1
 40
0.1976
 41
0.1976
 66
1
 10
0
 20
0
 30
0
  0
VERTEX
  8
LAYER_1
 10
153.7153
 20
-45.6718
  0
VERTEX
  8
LAYER_1
 10
153.7153
 20
-44.6717
  0
SEQEND
  0
POLYLINE
  8
LAYER_1
 40
0.1976
 41
0.1976
 66
1
 10
0
 20
0
 30
0
  0
VERTEX
  8
LAYER_1
 10
153.7153
 20
-43.9732
  0
VERTEX
  8
LAYER_1
 10
153.7153
 20
-39.523
  0
SEQEND
  0
POLYLINE
  8
LAYER_1
 40
0.1976
 41
0.1976
 66
1
 10
0
 20
0
 30
0
  0
VERTEX
  8
LAYER_1
 10
153.7153
 20
-38.8245
  0
VERTEX
  8
LAYER_1
 10
153.7153
 20
-37.8244
  0
SEQEND
  0
POLYLINE
  8
LAYER_1
 40
0.1976
 41
0.1976
 66
1
 10
0
 20
0
 30
0
  0
VERTEX
  8
LAYER_1
 10
153.7153
 20
-37.1257
  0
VERTEX
  8
LAYER_1
 10
153.7153
 20
-36.1521
  0
SEQEND
  0
POLYLINE
  8
LAYER_1
 40
0.1976
 41
0.1976
 66
1
 10
0
 20
0
 30
0
  0
VERTEX
  8
LAYER_1
 10
153.7153
 20
-35.4483
  0
VERTEX
  8
LAYER_1
 10
153.7153
 20
-30.9769
  0
SEQEND
  0
POLYLINE
  8
LAYER_1
 40
0.4974
 41
0.4974
 66
1
 10
0
 20
0
 30
0
  0
VERTEX
  8
LAYER_1
 10
144.497
 20
-25.754
  0
VERTEX
  8
LAYER_1
 10
122.9816
 20
-25.754
  0
SEQEND
  0
POLYLINE
  8
LAYER_1
 40
0.4974
 41
0.4974
 66
1
 10
0
 20
0
 30
0
  0
VERTEX
  8
LAYER_1
 10
122.7329
 20
-23.6268
  0
VERTEX
  8
LAYER_1
 10
122.7329
 20
-22.0023
  0
SEQEND
  0
POLYLINE
  8
LAYER_1
 40
0.4974
 41
0.4974
 66
1
 10
0
 20
0
 30
0
  0
VERTEX
  8
LAYER_1
 10
122.9816
 20
-21.7535
  0
VERTEX
  8
LAYER_1
 10
144.497
 20
-21.7535
  0
SEQEND
  0
POLYLINE
  8
LAYER_1
 40
0.4974
 41
0.4974
 66
1
 10
0
 20
0
 30
0
  0
VERTEX
  8
LAYER_1
 10
122.7329
 20
-23.6268
  0
VERTEX
  8
LAYER_1
 10
122.7329
 20
-25.5052
  0
SEQEND
  0
POLYLINE
  8
LAYER_1
 40
0.4974
 41
0.4974
 66
1
 10
0
 20
0
 30
0
  0
VERTEX
  8
LAYER_1
 10
122.7329
 20
-79.8666
  0
VERTEX
  8
LAYER_1
 10
122.7329
 20
-81.7399
  0
SEQEND
  0
POLYLINE
  8
LAYER_1
 40
0.4974
 41
0.4974
 66
1
 10
0
 20
0
 30
0
  0
VERTEX
  8
LAYER_1
 10
122.9816
 20
-77.988
  0
VERTEX
  8
LAYER_1
 10
144.222
 20
-77.988
  0
SEQEND
  0
POLYLINE
  8
LAYER_1
 40
0.4974
 41
0.4974
 66
1
 10
0
 20
0
 30
0
  0
VERTEX
  8
LAYER_1
 10
122.7329
 20
-78.2421
  0
VERTEX
  8
LAYER_1
 10
122.7329
 20
-79.8666
  0
SEQEND
  0
POLYLINE
  8
LAYER_1
 40
0.1976
 41
0.1976
 66
1
 10
0
 20
0
 30
0
  0
VERTEX
  8
LAYER_1
 10
153.4666
 20
-52.7468
  0
VERTEX
  8
LAYER_1
 10
153.6147
 20
-52.6993
  0
SEQEND
  0
POLYLINE
  8
LAYER_1
 40
0.1976
 41
0.1976
 66
1
 10
0
 20
0
 30
0
  0
VERTEX
  8
LAYER_1
 10
153.6147
 20
-52.6993
  0
VERTEX
  8
LAYER_1
 10
153.7153
 20
-52.5456
  0
SEQEND
  0
POLYLINE
  8
LAYER_1
 40
0.1976
 41
0.1976
 66
1
 10
0
 20
0
 30
0
  0
VERTEX
  8
LAYER_1
 10
153.7153
 20
-52.5456
  0
VERTEX
  8
LAYER_1
 10
153.7153
 20
-52.4981
  0
SEQEND
  0
POLYLINE
  8
LAYER_1
 40
0.1976
 41
0.1976
 66
1
 10
0
 20
0
 30
0
  0
VERTEX
  8
LAYER_1
 10
149.7149
 20
-52.4981
  0
VERTEX
  8
LAYER_1
 10
149.7679
 20
-52.6462
  0
SEQEND
  0
POLYLINE
  8
LAYER_1
 40
0.1976
 41
0.1976
 66
1
 10
0
 20
0
 30
0
  0
VERTEX
  8
LAYER_1
 10
149.7679
 20
-52.6462
  0
VERTEX
  8
LAYER_1
 10
149.9161
 20
-52.7468
  0
SEQEND
  0
POLYLINE
  8
LAYER_1
 40
0.1976
 41
0.1976
 66
1
 10
0
 20
0
 30
0
  0
VERTEX
  8
LAYER_1
 10
149.9161
 20
-52.7468
  0
VERTEX
  8
LAYER_1
 10
149.9691
 20
-52.7468
  0
SEQEND
  0
POLYLINE
  8
LAYER_1
 40
0.4974
 41
0.4974
 66
1
 10
0
 20
0
 30
0
  0
VERTEX
  8
LAYER_1
 10
122.9816
 20
-21.7535
  0
VERTEX
  8
LAYER_1
 10
122.8335
 20
-21.8064
  0
VERTEX
  8
LAYER_1
 10
122.7329
 20
-21.9546
  0
VERTEX
  8
LAYER_1
 10
122.7329
 20
-22.0023
  0
SEQEND
  0
POLYLINE
  8
LAYER_1
 40
0.4974
 41
0.4974
 66
1
 10
0
 20
0
 30
0
  0
VERTEX
  8
LAYER_1
 10
122.7329
 20
-25.5052
  0
VERTEX
  8
LAYER_1
 10
122.7804
 20
-25.6536
  0
VERTEX
  8
LAYER_1
 10
122.9334
 20
-25.754
  0
VERTEX
  8
LAYER_1
 10
122.9816
 20
-25.754
  0
SEQEND
  0
POLYLINE
  8
LAYER_1
 40
0.4974
 41
0.4974
 66
1
 10
0
 20
0
 30
0
  0
VERTEX
  8
LAYER_1
 10
122.7329
 20
-81.7399
  0
VERTEX
  8
LAYER_1
 10
122.7804
 20
-81.888
  0
VERTEX
  8
LAYER_1
 10
122.9334
 20
-81.9886
  0
VERTEX
  8
LAYER_1
 10
122.9816
 20
-81.9886
  0
SEQEND
  0
POLYLINE
  8
LAYER_1
 40
0.4974
 41
0.4974
 66
1
 10
0
 20
0
 30
0
  0
VERTEX
  8
LAYER_1
 10
122.9816
 20
-77.988
  0
VERTEX
  8
LAYER_1
 10
122.8335
 20
-78.0411
  0
VERTEX
  8
LAYER_1
 10
122.7329
 20
-78.1892
  0
VERTEX
  8
LAYER_1
 10
122.7329
 20
-78.2421
  0
SEQEND
  0
POLYLINE
  8
LAYER_1
 40
0.4974
 41
0.4974
 66
1
 10
0
 20
0
 30
0
  0
VERTEX
  8
LAYER_1
 10
53.7664
 20
-79.9882
  0
VERTEX
  8
LAYER_1
 10
53.7187
 20
-79.565
  0
VERTEX
  8
LAYER_1
 10
53.5705
 20
-79.1416
  0
VERTEX
  8
LAYER_1
 10
53.3166
 20
-78.713
  0
VERTEX
  8
LAYER_1
 10
52.8932
 20
-78.3425
  0
VERTEX
  8
LAYER_1
 10
52.4698
 20
-78.1151
  0
VERTEX
  8
LAYER_1
 10
52.0413
 20
-78.0145
  0
VERTEX
  8
LAYER_1
 10
51.6179
 20
-77.988
  0
VERTEX
  8
LAYER_1
 10
51.1946
 20
-78.0674
  0
VERTEX
  8
LAYER_1
 10
50.7712
 20
-78.2633
  0
VERTEX
  8
LAYER_1
 10
50.3427
 20
-78.5912
  0
VERTEX
  8
LAYER_1
 10
50.0199
 20
-79.0146
  0
VERTEX
  8
LAYER_1
 10
49.8452
 20
-79.438
  0
VERTEX
  8
LAYER_1
 10
49.7711
 20
-79.8666
  0
VERTEX
  8
LAYER_1
 10
49.7976
 20
-80.29
  0
VERTEX
  8
LAYER_1
 10
49.8929
 20
-80.7132
  0
VERTEX
  8
LAYER_1
 10
50.1468
 20
-81.142
  0
VERTEX
  8
LAYER_1
 10
50.5173
 20
-81.5389
  0
VERTEX
  8
LAYER_1
 10
50.9459
 20
-81.814
  0
VERTEX
  8
LAYER_1
 10
51.3693
 20
-81.9409
  0
VERTEX
  8
LAYER_1
 10
51.7925
 20
-81.9886
  0
VERTEX
  8
LAYER_1
 10
52.2213
 20
-81.9409
  0
VERTEX
  8
LAYER_1
 10
52.6445
 20
-81.7874
  0
VERTEX
  8
LAYER_1
 10
53.0679
 20
-81.5123
  0
VERTEX
  8
LAYER_1
 10
53.4436
 20
-81.0889
  0
VERTEX
  8
LAYER_1
 10
53.6446
 20
-80.6657
  0
VERTEX
  8
LAYER_1
 10
53.7452
 20
-80.2423
  0
VERTEX
  8
LAYER_1
 10
53.7664
 20
-79.9882
  0
SEQEND
  0
POLYLINE
  8
LAYER_1
 40
0.4974
 41
0.4974
 66
1
 10
0
 20
0
 30
0
  0
VERTEX
  8
LAYER_1
 10
42.5216
 20
-225.6786
  0
VERTEX
  8
LAYER_1
 10
42.5216
 20
-224.9272
  0
SEQEND
  0
POLYLINE
  8
LAYER_1
 40
0.4974
 41
0.4974
 66
1
 10
0
 20
0
 30
0
  0
VERTEX
  8
LAYER_1
 10
61.0159
 20
-224.9272
  0
VERTEX
  8
LAYER_1
 10
61.0159
 20
-225.6786
  0
SEQEND
  0
POLYLINE
  8
LAYER_1
 40
0.4974
 41
0.4974
 66
1
 10
0
 20
0
 30
0
  0
VERTEX
  8
LAYER_1
 10
61.0159
 20
-225.6786
  0
VERTEX
  8
LAYER_1
 10
42.5216
 20
-225.6786
  0
SEQEND
  0
POLYLINE
  8
LAYER_1
 40
0.4974
 41
0.4974
 66
1
 10
0
 20
0
 30
0
  0
VERTEX
  8
LAYER_1
 10
142.4705
 20
-225.6786
  0
VERTEX
  8
LAYER_1
 10
160.9597
 20
-225.6786
  0
SEQEND
  0
POLYLINE
  8
LAYER_1
 40
0.4974
 41
0.4974
 66
1
 10
0
 20
0
 30
0
  0
VERTEX
  8
LAYER_1
 10
160.9597
 20
-225.6786
  0
VERTEX
  8
LAYER_1
 10
160.9597
 20
-224.9272
  0
SEQEND
  0
POLYLINE
  8
LAYER_1
 40
0.4974
 41
0.4974
 66
1
 10
0
 20
0
 30
0
  0
VERTEX
  8
LAYER_1
 10
142.4705
 20
-224.9272
  0
VERTEX
  8
LAYER_1
 10
142.4705
 20
-225.6786
  0
SEQEND
  0
POLYLINE
  8
LAYER_1
 40
0.4974
 41
0.4974
 66
1
 10
0
 20
0
 30
0
  0
VERTEX
  8
LAYER_1
 10
61.5134
 20
-223.9271
  0
VERTEX
  8
LAYER_1
 10
42.0241
 20
-223.9271
  0
SEQEND
  0
POLYLINE
  8
LAYER_1
 40
0.4974
 41
0.4974
 66
1
 10
0
 20
0
 30
0
  0
VERTEX
  8
LAYER_1
 10
41.7754
 20
-224.181
  0
VERTEX
  8
LAYER_1
 10
41.7754
 20
-224.9272
  0
SEQEND
  0
POLYLINE
  8
LAYER_1
 40
0.4974
 41
0.4974
 66
1
 10
0
 20
0
 30
0
  0
VERTEX
  8
LAYER_1
 10
61.7621
 20
-224.9272
  0
VERTEX
  8
LAYER_1
 10
61.7621
 20
-224.181
  0
SEQEND
  0
POLYLINE
  8
LAYER_1
 40
0.4974
 41
0.4974
 66
1
 10
0
 20
0
 30
0
  0
VERTEX
  8
LAYER_1
 10
61.7621
 20
-224.9272
  0
VERTEX
  8
LAYER_1
 10
41.7754
 20
-224.9272
  0
SEQEND
  0
POLYLINE
  8
LAYER_1
 40
0.4974
 41
0.4974
 66
1
 10
0
 20
0
 30
0
  0
VERTEX
  8
LAYER_1
 10
141.7188
 20
-224.9272
  0
VERTEX
  8
LAYER_1
 10
161.7114
 20
-224.9272
  0
SEQEND
  0
POLYLINE
  8
LAYER_1
 40
0.4974
 41
0.4974
 66
1
 10
0
 20
0
 30
0
  0
VERTEX
  8
LAYER_1
 10
161.7114
 20
-224.9272
  0
VERTEX
  8
LAYER_1
 10
161.7114
 20
-224.181
  0
SEQEND
  0
POLYLINE
  8
LAYER_1
 40
0.4974
 41
0.4974
 66
1
 10
0
 20
0
 30
0
  0
VERTEX
  8
LAYER_1
 10
141.7188
 20
-224.181
  0
VERTEX
  8
LAYER_1
 10
141.7188
 20
-224.9272
  0
SEQEND
  0
POLYLINE
  8
LAYER_1
 40
0.4974
 41
0.4974
 66
1
 10
0
 20
0
 30
0
  0
VERTEX
  8
LAYER_1
 10
141.9731
 20
-223.9271
  0
VERTEX
  8
LAYER_1
 10
161.4627
 20
-223.9271
  0
SEQEND
  0
POLYLINE
  8
LAYER_1
 40
0.4974
 41
0.4974
 66
1
 10
0
 20
0
 30
0
  0
VERTEX
  8
LAYER_1
 10
42.0241
 20
-223.9533
  0
VERTEX
  8
LAYER_1
 10
41.876
 20
-224.0063
  0
VERTEX
  8
LAYER_1
 10
41.7754
 20
-224.1544
  0
VERTEX
  8
LAYER_1
 10
41.7754
 20
-224.202
  0
SEQEND
  0
POLYLINE
  8
LAYER_1
 40
0.4974
 41
0.4974
 66
1
 10
0
 20
0
 30
0
  0
VERTEX
  8
LAYER_1
 10
61.7621
 20
-224.202
  0
VERTEX
  8
LAYER_1
 10
61.7144
 20
-224.0539
  0
VERTEX
  8
LAYER_1
 10
61.5663
 20
-223.9533
  0
VERTEX
  8
LAYER_1
 10
61.5134
 20
-223.9533
  0
SEQEND
  0
POLYLINE
  8
LAYER_1
 40
0.4974
 41
0.4974
 66
1
 10
0
 20
0
 30
0
  0
VERTEX
  8
LAYER_1
 10
161.7114
 20
-224.202
  0
VERTEX
  8
LAYER_1
 10
161.6583
 20
-224.0539
  0
VERTEX
  8
LAYER_1
 10
161.5102
 20
-223.9533
  0
VERTEX
  8
LAYER_1
 10
161.4627
 20
-223.9533
  0
SEQEND
  0
POLYLINE
  8
LAYER_1
 40
0.4974
 41
0.4974
 66
1
 10
0
 20
0
 30
0
  0
VERTEX
  8
LAYER_1
 10
141.9731
 20
-223.9533
  0
VERTEX
  8
LAYER_1
 10
141.8194
 20
-224.0063
  0
VERTEX
  8
LAYER_1
 10
141.7188
 20
-224.1544
  0
VERTEX
  8
LAYER_1
 10
141.7188
 20
-224.202
  0
SEQEND
  0
POLYLINE
  8
LAYER_1
 40
0.4974
 41
0.4974
 66
1
 10
0
 20
0
 30
0
  0
VERTEX
  8
LAYER_1
 10
46.7708
 20
-106.3832
  0
VERTEX
  8
LAYER_1
 10
46.7708
 20
-105.1078
  0
SEQEND
  0
POLYLINE
  8
LAYER_1
 40
0.4974
 41
0.4974
 66
1
 10
0
 20
0
 30
0
  0
VERTEX
  8
LAYER_1
 10
56.7667
 20
-105.1078
  0
VERTEX
  8
LAYER_1
 10
56.7667
 20
-106.3832
  0
SEQEND
  0
POLYLINE
  8
LAYER_1
 40
0.4974
 41
0.4974
 66
1
 10
0
 20
0
 30
0
  0
VERTEX
  8
LAYER_1
 10
87.8024
 20
-104.0336
  0
VERTEX
  8
LAYER_1
 10
88.1252
 20
-103.3088
  0
SEQEND
  0
POLYLINE
  8
LAYER_1
 40
0.4974
 41
0.4974
 66
1
 10
0
 20
0
 30
0
  0
VERTEX
  8
LAYER_1
 10
87.924
 20
-104.3829
  0
VERTEX
  8
LAYER_1
 10
96.5176
 20
-108.3834
  0
SEQEND
  0
POLYLINE
  8
LAYER_1
 40
0.4974
 41
0.4974
 66
1
 10
0
 20
0
 30
0
  0
VERTEX
  8
LAYER_1
 10
96.8459
 20
-108.2564
  0
VERTEX
  8
LAYER_1
 10
97.1949
 20
-107.5314
  0
SEQEND
  0
POLYLINE
  8
LAYER_1
 40
0.4974
 41
0.4974
 66
1
 10
0
 20
0
 30
0
  0
VERTEX
  8
LAYER_1
 10
87.8024
 20
-104.0336
  0
VERTEX
  8
LAYER_1
 10
87.7759
 20
-104.1818
  0
VERTEX
  8
LAYER_1
 10
87.8765
 20
-104.3352
  0
VERTEX
  8
LAYER_1
 10
87.924
 20
-104.3564
  0
SEQEND
  0
POLYLINE
  8
LAYER_1
 40
0.4974
 41
0.4974
 66
1
 10
0
 20
0
 30
0
  0
VERTEX
  8
LAYER_1
 10
96.5176
 20
-108.3834
  0
VERTEX
  8
LAYER_1
 10
96.6713
 20
-108.4099
  0
VERTEX
  8
LAYER_1
 10
96.8194
 20
-108.3093
  0
VERTEX
  8
LAYER_1
 10
96.8459
 20
-108.2564
  0
SEQEND
  0
POLYLINE
  8
LAYER_1
 40
0.4974
 41
0.4974
 66
1
 10
0
 20
0
 30
0
  0
VERTEX
  8
LAYER_1
 10
55.6185
 20
-106.235
  0
VERTEX
  8
LAYER_1
 10
55.592
 20
-106.0816
  0
VERTEX
  8
LAYER_1
 10
55.5179
 20
-105.9598
  0
VERTEX
  8
LAYER_1
 10
55.3909
 20
-105.8063
  0
VERTEX
  8
LAYER_1
 10
55.2692
 20
-105.6847
  0
VERTEX
  8
LAYER_1
 10
55.1157
 20
-105.5577
  0
VERTEX
  8
LAYER_1
 10
54.9412
 20
-105.4359
  0
VERTEX
  8
LAYER_1
 10
54.7188
 20
-105.3353
  0
VERTEX
  8
LAYER_1
 10
54.4912
 20
-105.2349
  0
VERTEX
  8
LAYER_1
 10
54.2427
 20
-105.1343
  0
VERTEX
  8
LAYER_1
 10
53.9939
 20
-105.0337
  0
VERTEX
  8
LAYER_1
 10
53.6923
 20
-104.9597
  0
VERTEX
  8
LAYER_1
 10
53.3907
 20
-104.9068
  0
VERTEX
  8
LAYER_1
 10
53.0943
 20
-104.8327
  0
VERTEX
  8
LAYER_1
 10
52.7663
 20
-104.8062
  0
VERTEX
  8
LAYER_1
 10
52.4435
 20
-104.7586
  0
VERTEX
  8
LAYER_1
 10
52.1207
 20
-104.7586
  0
VERTEX
  8
LAYER_1
 10
51.7713
 20
-104.7321
  0
VERTEX
  8
LAYER_1
 10
51.4434
 20
-104.7586
  0
VERTEX
  8
LAYER_1
 10
51.094
 20
-104.7586
  0
VERTEX
  8
LAYER_1
 10
50.7712
 20
-104.8062
  0
VERTEX
  8
LAYER_1
 10
50.4433
 20
-104.8327
  0
VERTEX
  8
LAYER_1
 10
50.1468
 20
-104.9068
  0
VERTEX
  8
LAYER_1
 10
49.8452
 20
-104.9597
  0
VERTEX
  8
LAYER_1
 10
49.5436
 20
-105.0337
  0
VERTEX
  8
LAYER_1
 10
49.2948
 20
-105.1343
  0
VERTEX
  8
LAYER_1
 10
49.0463
 20
-105.2349
  0
VERTEX
  8
LAYER_1
 10
48.8187
 20
-105.3353
  0
VERTEX
  8
LAYER_1
 10
48.5963
 20
-105.4359
  0
VERTEX
  8
LAYER_1
 10
48.4219
 20
-105.5577
  0
VERTEX
  8
LAYER_1
 10
48.2684
 20
-105.6847
  0
VERTEX
  8
LAYER_1
 10
48.1466
 20
-105.8063
  0
VERTEX
  8
LAYER_1
 10
48.046
 20
-105.9598
  0
VERTEX
  8
LAYER_1
 10
47.9719
 20
-106.0816
  0
VERTEX
  8
LAYER_1
 10
47.919
 20
-106.235
  0
VERTEX
  8
LAYER_1
 10
47.8979
 20
-106.3832
  0
VERTEX
  8
LAYER_1
 10
47.919
 20
-106.5313
  0
VERTEX
  8
LAYER_1
 10
47.9719
 20
-106.6848
  0
VERTEX
  8
LAYER_1
 10
48.046
 20
-106.8066
  0
VERTEX
  8
LAYER_1
 10
48.1466
 20
-106.9599
  0
VERTEX
  8
LAYER_1
 10
48.2684
 20
-107.0817
  0
VERTEX
  8
LAYER_1
 10
48.4219
 20
-107.2086
  0
VERTEX
  8
LAYER_1
 10
48.5963
 20
-107.3357
  0
VERTEX
  8
LAYER_1
 10
48.8187
 20
-107.4308
  0
VERTEX
  8
LAYER_1
 10
49.0463
 20
-107.5314
  0
VERTEX
  8
LAYER_1
 10
49.2948
 20
-107.632
  0
VERTEX
  8
LAYER_1
 10
49.5436
 20
-107.7326
  0
VERTEX
  8
LAYER_1
 10
49.8452
 20
-107.8067
  0
VERTEX
  8
LAYER_1
 10
50.1468
 20
-107.8596
  0
VERTEX
  8
LAYER_1
 10
50.4433
 20
-107.9336
  0
VERTEX
  8
LAYER_1
 10
50.7712
 20
-107.96
  0
VERTEX
  8
LAYER_1
 10
51.094
 20
-107.9812
  0
VERTEX
  8
LAYER_1
 10
51.4434
 20
-108.0077
  0
VERTEX
  8
LAYER_1
 10
51.7713
 20
-108.0077
  0
VERTEX
  8
LAYER_1
 10
52.1207
 20
-108.0077
  0
VERTEX
  8
LAYER_1
 10
52.4435
 20
-107.9812
  0
VERTEX
  8
LAYER_1
 10
52.7663
 20
-107.96
  0
VERTEX
  8
LAYER_1
 10
53.0943
 20
-107.9336
  0
VERTEX
  8
LAYER_1
 10
53.3907
 20
-107.8596
  0
VERTEX
  8
LAYER_1
 10
53.6923
 20
-107.8067
  0
VERTEX
  8
LAYER_1
 10
53.9939
 20
-107.7326
  0
VERTEX
  8
LAYER_1
 10
54.2427
 20
-107.632
  0
VERTEX
  8
LAYER_1
 10
54.4912
 20
-107.5314
  0
VERTEX
  8
LAYER_1
 10
54.7188
 20
-107.4308
  0
VERTEX
  8
LAYER_1
 10
54.9412
 20
-107.3357
  0
VERTEX
  8
LAYER_1
 10
55.1157
 20
-107.2086
  0
VERTEX
  8
LAYER_1
 10
55.2692
 20
-107.0817
  0
VERTEX
  8
LAYER_1
 10
55.3909
 20
-106.9599
  0
VERTEX
  8
LAYER_1
 10
55.5179
 20
-106.8066
  0
VERTEX
  8
LAYER_1
 10
55.592
 20
-106.6848
  0
VERTEX
  8
LAYER_1
 10
55.6185
 20
-106.5313
  0
VERTEX
  8
LAYER_1
 10
55.6397
 20
-106.3832
  0
VERTEX
  8
LAYER_1
 10
55.6185
 20
-106.235
  0
SEQEND
  0
POLYLINE
  8
LAYER_1
 40
0.4974
 41
0.4974
 66
1
 10
0
 20
0
 30
0
  0
VERTEX
  8
LAYER_1
 10
46.7708
 20
-106.3832
  0
VERTEX
  8
LAYER_1
 10
46.7708
 20
-106.4838
  0
VERTEX
  8
LAYER_1
 10
46.7973
 20
-106.5578
  0
VERTEX
  8
LAYER_1
 10
46.8449
 20
-106.7589
  0
VERTEX
  8
LAYER_1
 10
46.9455
 20
-106.9335
  0
VERTEX
  8
LAYER_1
 10
47.0989
 20
-107.108
  0
VERTEX
  8
LAYER_1
 10
47.2471
 20
-107.2827
  0
VERTEX
  8
LAYER_1
 10
47.4693
 20
-107.4574
  0
VERTEX
  8
LAYER_1
 10
47.6968
 20
-107.6055
  0
VERTEX
  8
LAYER_1
 10
47.9719
 20
-107.759
  0
VERTEX
  8
LAYER_1
 10
48.2472
 20
-107.8808
  0
VERTEX
  8
LAYER_1
 10
48.57
 20
-108.0077
  0
VERTEX
  8
LAYER_1
 10
48.9192
 20
-108.1081
  0
VERTEX
  8
LAYER_1
 10
49.2948
 20
-108.2087
  0
VERTEX
  8
LAYER_1
 10
49.6705
 20
-108.3093
  0
VERTEX
  8
LAYER_1
 10
50.0674
 20
-108.3569
  0
VERTEX
  8
LAYER_1
 10
50.4961
 20
-108.4309
  0
VERTEX
  8
LAYER_1
 10
50.9194
 20
-108.4575
  0
VERTEX
  8
LAYER_1
 10
51.3428
 20
-108.484
  0
VERTEX
  8
LAYER_1
 10
51.7713
 20
-108.484
  0
VERTEX
  8
LAYER_1
 10
52.2213
 20
-108.484
  0
VERTEX
  8
LAYER_1
 10
52.6445
 20
-108.4575
  0
VERTEX
  8
LAYER_1
 10
53.0679
 20
-108.4309
  0
VERTEX
  8
LAYER_1
 10
53.4699
 20
-108.3569
  0
VERTEX
  8
LAYER_1
 10
53.8668
 20
-108.3093
  0
VERTEX
  8
LAYER_1
 10
54.269
 20
-108.2087
  0
VERTEX
  8
LAYER_1
 10
54.6447
 20
-108.1081
  0
VERTEX
  8
LAYER_1
 10
54.9675
 20
-108.0077
  0
VERTEX
  8
LAYER_1
 10
55.2903
 20
-107.8808
  0
VERTEX
  8
LAYER_1
 10
55.592
 20
-107.759
  0
VERTEX
  8
LAYER_1
 10
55.8672
 20
-107.6055
  0
VERTEX
  8
LAYER_1
 10
56.0894
 20
-107.4574
  0
VERTEX
  8
LAYER_1
 10
56.2904
 20
-107.2827
  0
VERTEX
  8
LAYER_1
 10
56.4651
 20
-107.108
  0
VERTEX
  8
LAYER_1
 10
56.5921
 20
-106.9335
  0
VERTEX
  8
LAYER_1
 10
56.6927
 20
-106.7589
  0
VERTEX
  8
LAYER_1
 10
56.7402
 20
-106.5578
  0
VERTEX
  8
LAYER_1
 10
56.7667
 20
-106.4838
  0
VERTEX
  8
LAYER_1
 10
56.7667
 20
-106.3832
  0
SEQEND
  0
POLYLINE
  8
LAYER_1
 40
0.4974
 41
0.4974
 66
1
 10
0
 20
0
 30
0
  0
VERTEX
  8
LAYER_1
 10
56.7667
 20
-106.3832
  0
VERTEX
  8
LAYER_1
 10
56.7667
 20
-106.2826
  0
VERTEX
  8
LAYER_1
 10
56.7402
 20
-106.182
  0
SEQEND
  0
POLYLINE
  8
LAYER_1
 40
0.4974
 41
0.4974
 66
1
 10
0
 20
0
 30
0
  0
VERTEX
  8
LAYER_1
 10
56.7402
 20
-106.182
  0
VERTEX
  8
LAYER_1
 10
56.6927
 20
-106.0075
  0
VERTEX
  8
LAYER_1
 10
56.5921
 20
-105.8328
  0
VERTEX
  8
LAYER_1
 10
56.4651
 20
-105.6318
  0
VERTEX
  8
LAYER_1
 10
56.2904
 20
-105.4837
  0
VERTEX
  8
LAYER_1
 10
56.0894
 20
-105.309
  0
VERTEX
  8
LAYER_1
 10
55.8672
 20
-105.1609
  0
VERTEX
  8
LAYER_1
 10
55.592
 20
-105.0074
  0
VERTEX
  8
LAYER_1
 10
55.2903
 20
-104.8856
  0
VERTEX
  8
LAYER_1
 10
54.9675
 20
-104.7586
  0
VERTEX
  8
LAYER_1
 10
54.6447
 20
-104.658
  0
VERTEX
  8
LAYER_1
 10
54.269
 20
-104.5576
  0
VERTEX
  8
LAYER_1
 10
53.8668
 20
-104.457
  0
VERTEX
  8
LAYER_1
 10
53.4699
 20
-104.3829
  0
VERTEX
  8
LAYER_1
 10
53.0679
 20
-104.3352
  0
VERTEX
  8
LAYER_1
 10
52.6445
 20
-104.3089
  0
VERTEX
  8
LAYER_1
 10
52.2213
 20
-104.2824
  0
VERTEX
  8
LAYER_1
 10
51.7713
 20
-104.2612
  0
VERTEX
  8
LAYER_1
 10
51.3428
 20
-104.2824
  0
VERTEX
  8
LAYER_1
 10
50.9194
 20
-104.3089
  0
VERTEX
  8
LAYER_1
 10
50.4961
 20
-104.3352
  0
VERTEX
  8
LAYER_1
 10
50.0674
 20
-104.3829
  0
VERTEX
  8
LAYER_1
 10
49.6705
 20
-104.457
  0
VERTEX
  8
LAYER_1
 10
49.2948
 20
-104.5576
  0
VERTEX
  8
LAYER_1
 10
48.9192
 20
-104.658
  0
VERTEX
  8
LAYER_1
 10
48.57
 20
-104.7586
  0
VERTEX
  8
LAYER_1
 10
48.2472
 20
-104.8856
  0
VERTEX
  8
LAYER_1
 10
47.9719
 20
-105.0074
  0
VERTEX
  8
LAYER_1
 10
47.6968
 20
-105.1609
  0
VERTEX
  8
LAYER_1
 10
47.4693
 20
-105.309
  0
VERTEX
  8
LAYER_1
 10
47.2471
 20
-105.4837
  0
VERTEX
  8
LAYER_1
 10
47.0989
 20
-105.6318
  0
VERTEX
  8
LAYER_1
 10
46.9455
 20
-105.8328
  0
VERTEX
  8
LAYER_1
 10
46.8449
 20
-106.0075
  0
VERTEX
  8
LAYER_1
 10
46.7973
 20
-106.182
  0
VERTEX
  8
LAYER_1
 10
46.7708
 20
-106.2826
  0
VERTEX
  8
LAYER_1
 10
46.7708
 20
-106.3832
  0
SEQEND
  0
POLYLINE
  8
LAYER_1
 40
0.4974
 41
0.4974
 66
1
 10
0
 20
0
 30
0
  0
VERTEX
  8
LAYER_1
 10
45.5219
 20
-96.1385
  0
VERTEX
  8
LAYER_1
 10
45.5219
 20
-123.978
  0
SEQEND
  0
POLYLINE
  8
LAYER_1
 40
0.4974
 41
0.4974
 66
1
 10
0
 20
0
 30
0
  0
VERTEX
  8
LAYER_1
 10
58.0156
 20
-123.978
  0
VERTEX
  8
LAYER_1
 10
58.0156
 20
-96.1385
  0
SEQEND
  0
POLYLINE
  8
LAYER_1
 40
0.4974
 41
0.4974
 66
1
 10
0
 20
0
 30
0
  0
VERTEX
  8
LAYER_1
 10
59.0157
 20
-88.4868
  0
VERTEX
  8
LAYER_1
 10
44.5218
 20
-88.4868
  0
SEQEND
  0
POLYLINE
  8
LAYER_1
 40
0.4974
 41
0.4974
 66
1
 10
0
 20
0
 30
0
  0
VERTEX
  8
LAYER_1
 10
44.2731
 20
-88.7355
  0
VERTEX
  8
LAYER_1
 10
44.2731
 20
-153.7222
  0
SEQEND
  0
POLYLINE
  8
LAYER_1
 40
0.4974
 41
0.4974
 66
1
 10
0
 20
0
 30
0
  0
VERTEX
  8
LAYER_1
 10
59.2644
 20
-153.7222
  0
VERTEX
  8
LAYER_1
 10
59.2644
 20
-88.7355
  0
SEQEND
  0
POLYLINE
  8
LAYER_1
 40
0.4974
 41
0.4974
 66
1
 10
0
 20
0
 30
0
  0
VERTEX
  8
LAYER_1
 10
87.0774
 20
-17.5044
  0
VERTEX
  8
LAYER_1
 10
147.5665
 20
-17.5044
  0
SEQEND
  0
POLYLINE
  8
LAYER_1
 40
0.4974
 41
0.4974
 66
1
 10
0
 20
0
 30
0
  0
VERTEX
  8
LAYER_1
 10
147.5665
 20
-30.0032
  0
VERTEX
  8
LAYER_1
 10
87.0774
 20
-30.0032
  0
SEQEND
  0
POLYLINE
  8
LAYER_1
 40
0.4974
 41
0.4974
 66
1
 10
0
 20
0
 30
0
  0
VERTEX
  8
LAYER_1
 10
144.4708
 20
-88.4868
  0
VERTEX
  8
LAYER_1
 10
158.965
 20
-88.4868
  0
SEQEND
  0
POLYLINE
  8
LAYER_1
 40
0.4974
 41
0.4974
 66
1
 10
0
 20
0
 30
0
  0
VERTEX
  8
LAYER_1
 10
144.222
 20
-115.1832
  0
VERTEX
  8
LAYER_1
 10
144.222
 20
-115.8816
  0
SEQEND
  0
POLYLINE
  8
LAYER_1
 40
0.4974
 41
0.4974
 66
1
 10
0
 20
0
 30
0
  0
VERTEX
  8
LAYER_1
 10
144.222
 20
-129.677
  0
VERTEX
  8
LAYER_1
 10
97.2215
 20
-107.759
  0
SEQEND
  0
POLYLINE
  8
LAYER_1
 40
0.4974
 41
0.4974
 66
1
 10
0
 20
0
 30
0
  0
VERTEX
  8
LAYER_1
 10
84.5533
 20
-101.5571
  0
VERTEX
  8
LAYER_1
 10
89.6016
 20
-90.688
  0
SEQEND
  0
POLYLINE
  8
LAYER_1
 40
0.4974
 41
0.4974
 66
1
 10
0
 20
0
 30
0
  0
VERTEX
  8
LAYER_1
 10
84.6537
 20
-101.8853
  0
VERTEX
  8
LAYER_1
 10
87.9505
 20
-103.4357
  0
SEQEND
  0
POLYLINE
  8
LAYER_1
 40
0.4974
 41
0.4974
 66
1
 10
0
 20
0
 30
0
  0
VERTEX
  8
LAYER_1
 10
89.9508
 20
-90.5611
  0
VERTEX
  8
LAYER_1
 10
144.222
 20
-115.8816
  0
SEQEND
  0
POLYLINE
  8
LAYER_1
 40
0.4974
 41
0.4974
 66
1
 10
0
 20
0
 30
0
  0
VERTEX
  8
LAYER_1
 10
144.222
 20
-129.677
  0
VERTEX
  8
LAYER_1
 10
144.222
 20
-153.7222
  0
SEQEND
  0
POLYLINE
  8
LAYER_1
 40
0.4974
 41
0.4974
 66
1
 10
0
 20
0
 30
0
  0
VERTEX
  8
LAYER_1
 10
144.222
 20
-115.1832
  0
VERTEX
  8
LAYER_1
 10
144.222
 20
-88.7355
  0
SEQEND
  0
POLYLINE
  8
LAYER_1
 40
0.4974
 41
0.4974
 66
1
 10
0
 20
0
 30
0
  0
VERTEX
  8
LAYER_1
 10
159.2137
 20
-88.7355
  0
VERTEX
  8
LAYER_1
 10
159.2137
 20
-153.7222
  0
SEQEND
  0
POLYLINE
  8
LAYER_1
 40
0.4974
 41
0.4974
 66
1
 10
0
 20
0
 30
0
  0
VERTEX
  8
LAYER_1
 10
144.222
 20
-129.677
  0
VERTEX
  8
LAYER_1
 10
145.0213
 20
-128.6769
  0
VERTEX
  8
LAYER_1
 10
145.6455
 20
-127.6768
  0
VERTEX
  8
LAYER_1
 10
146.1168
 20
-126.6767
  0
VERTEX
  8
LAYER_1
 10
146.471
 20
-125.6766
  0
VERTEX
  8
LAYER_1
 10
146.7197
 20
-124.6765
  0
VERTEX
  8
LAYER_1
 10
146.8417
 20
-123.6817
  0
VERTEX
  8
LAYER_1
 10
146.8947
 20
-122.6814
  0
VERTEX
  8
LAYER_1
 10
146.8203
 20
-121.6813
  0
VERTEX
  8
LAYER_1
 10
146.6667
 20
-120.6812
  0
VERTEX
  8
LAYER_1
 10
146.4179
 20
-119.6811
  0
VERTEX
  8
LAYER_1
 10
146.0424
 20
-118.681
  0
VERTEX
  8
LAYER_1
 10
145.5188
 20
-117.6808
  0
VERTEX
  8
LAYER_1
 10
144.8676
 20
-116.6807
  0
VERTEX
  8
LAYER_1
 10
144.222
 20
-115.8816
  0
SEQEND
  0
POLYLINE
  8
LAYER_1
 40
0.4974
 41
0.4974
 66
1
 10
0
 20
0
 30
0
  0
VERTEX
  8
LAYER_1
 10
97.2215
 20
-107.759
  0
VERTEX
  8
LAYER_1
 10
97.0468
 20
-106.9811
  0
VERTEX
  8
LAYER_1
 10
96.7453
 20
-106.2085
  0
VERTEX
  8
LAYER_1
 10
96.3219
 20
-105.4359
  0
VERTEX
  8
LAYER_1
 10
95.7187
 20
-104.658
  0
VERTEX
  8
LAYER_1
 10
94.9725
 20
-103.9595
  0
VERTEX
  8
LAYER_1
 10
94.1946
 20
-103.4092
  0
VERTEX
  8
LAYER_1
 10
93.4222
 20
-103.0335
  0
VERTEX
  8
LAYER_1
 10
92.6495
 20
-102.7848
  0
VERTEX
  8
LAYER_1
 10
91.8716
 20
-102.6366
  0
VERTEX
  8
LAYER_1
 10
91.0992
 20
-102.5837
  0
VERTEX
  8
LAYER_1
 10
90.3213
 20
-102.6366
  0
VERTEX
  8
LAYER_1
 10
89.5485
 20
-102.7848
  0
VERTEX
  8
LAYER_1
 10
88.776
 20
-103.0335
  0
VERTEX
  8
LAYER_1
 10
87.9981
 20
-103.3828
  0
VERTEX
  8
LAYER_1
 10
87.924
 20
-103.4357
  0
SEQEND
  0
POLYLINE
  8
LAYER_1
 40
0.4974
 41
0.4974
 66
1
 10
0
 20
0
 30
0
  0
VERTEX
  8
LAYER_1
 10
44.2731
 20
-153.7222
  0
VERTEX
  8
LAYER_1
 10
44.3208
 20
-153.8707
  0
VERTEX
  8
LAYER_1
 10
44.4741
 20
-153.971
  0
VERTEX
  8
LAYER_1
 10
44.5218
 20
-153.971
  0
SEQEND
  0
POLYLINE
  8
LAYER_1
 40
0.4974
 41
0.4974
 66
1
 10
0
 20
0
 30
0
  0
VERTEX
  8
LAYER_1
 10
44.5218
 20
-88.4868
  0
VERTEX
  8
LAYER_1
 10
44.3737
 20
-88.5396
  0
VERTEX
  8
LAYER_1
 10
44.2731
 20
-88.6878
  0
VERTEX
  8
LAYER_1
 10
44.2731
 20
-88.7355
  0
SEQEND
  0
POLYLINE
  8
LAYER_1
 40
0.4974
 41
0.4974
 66
1
 10
0
 20
0
 30
0
  0
VERTEX
  8
LAYER_1
 10
59.2644
 20
-88.7355
  0
VERTEX
  8
LAYER_1
 10
59.2167
 20
-88.5872
  0
VERTEX
  8
LAYER_1
 10
59.0632
 20
-88.4868
  0
VERTEX
  8
LAYER_1
 10
59.0157
 20
-88.4868
  0
SEQEND
  0
POLYLINE
  8
LAYER_1
 40
0.4974
 41
0.4974
 66
1
 10
0
 20
0
 30
0
  0
VERTEX
  8
LAYER_1
 10
59.0157
 20
-153.971
  0
VERTEX
  8
LAYER_1
 10
59.1638
 20
-153.9234
  0
VERTEX
  8
LAYER_1
 10
59.2644
 20
-153.7701
  0
VERTEX
  8
LAYER_1
 10
59.2644
 20
-153.7222
  0
SEQEND
  0
POLYLINE
  8
LAYER_1
 40
0.4974
 41
0.4974
 66
1
 10
0
 20
0
 30
0
  0
VERTEX
  8
LAYER_1
 10
89.9244
 20
-90.5611
  0
VERTEX
  8
LAYER_1
 10
89.7761
 20
-90.5399
  0
VERTEX
  8
LAYER_1
 10
89.6226
 20
-90.6351
  0
VERTEX
  8
LAYER_1
 10
89.6016
 20
-90.688
  0
SEQEND
  0
POLYLINE
  8
LAYER_1
 40
0.4974
 41
0.4974
 66
1
 10
0
 20
0
 30
0
  0
VERTEX
  8
LAYER_1
 10
84.5533
 20
-101.5571
  0
VERTEX
  8
LAYER_1
 10
84.5268
 20
-101.7106
  0
VERTEX
  8
LAYER_1
 10
84.6274
 20
-101.8587
  0
VERTEX
  8
LAYER_1
 10
84.6749
 20
-101.8853
  0
SEQEND
  0
POLYLINE
  8
LAYER_1
 40
0.4974
 41
0.4974
 66
1
 10
0
 20
0
 30
0
  0
VERTEX
  8
LAYER_1
 10
158.965
 20
-153.971
  0
VERTEX
  8
LAYER_1
 10
159.1131
 20
-153.9234
  0
VERTEX
  8
LAYER_1
 10
159.2137
 20
-153.7701
  0
VERTEX
  8
LAYER_1
 10
159.2137
 20
-153.7222
  0
SEQEND
  0
POLYLINE
  8
LAYER_1
 40
0.4974
 41
0.4974
 66
1
 10
0
 20
0
 30
0
  0
VERTEX
  8
LAYER_1
 10
144.222
 20
-153.7222
  0
VERTEX
  8
LAYER_1
 10
144.2696
 20
-153.8707
  0
VERTEX
  8
LAYER_1
 10
144.4177
 20
-153.971
  0
VERTEX
  8
LAYER_1
 10
144.4708
 20
-153.971
  0
SEQEND
  0
POLYLINE
  8
LAYER_1
 40
0.4974
 41
0.4974
 66
1
 10
0
 20
0
 30
0
  0
VERTEX
  8
LAYER_1
 10
159.2137
 20
-88.7355
  0
VERTEX
  8
LAYER_1
 10
159.1607
 20
-88.5872
  0
VERTEX
  8
LAYER_1
 10
159.0125
 20
-88.4868
  0
VERTEX
  8
LAYER_1
 10
158.965
 20
-88.4868
  0
SEQEND
  0
POLYLINE
  8
LAYER_1
 40
0.4974
 41
0.4974
 66
1
 10
0
 20
0
 30
0
  0
VERTEX
  8
LAYER_1
 10
144.4708
 20
-88.4868
  0
VERTEX
  8
LAYER_1
 10
144.3171
 20
-88.5396
  0
VERTEX
  8
LAYER_1
 10
144.222
 20
-88.6878
  0
VERTEX
  8
LAYER_1
 10
144.222
 20
-88.7355
  0
SEQEND
  0
POLYLINE
  8
LAYER_1
 40
0.4974
 41
0.4974
 66
1
 10
0
 20
0
 30
0
  0
VERTEX
  8
LAYER_1
 10
56.7667
 20
-106.0604
  0
VERTEX
  8
LAYER_1
 10
56.8408
 20
-105.9334
  0
VERTEX
  8
LAYER_1
 10
56.8673
 20
-105.7851
  0
VERTEX
  8
LAYER_1
 10
56.8937
 20
-105.5841
  0
VERTEX
  8
LAYER_1
 10
56.8673
 20
-105.4094
  0
VERTEX
  8
LAYER_1
 10
56.8143
 20
-105.2084
  0
VERTEX
  8
LAYER_1
 10
56.7139
 20
-105.0337
  0
VERTEX
  8
LAYER_1
 10
56.5657
 20
-104.8327
  0
VERTEX
  8
LAYER_1
 10
56.4174
 20
-104.658
  0
VERTEX
  8
LAYER_1
 10
56.19
 20
-104.4834
  0
VERTEX
  8
LAYER_1
 10
55.9676
 20
-104.3352
  0
VERTEX
  8
LAYER_1
 10
55.666
 20
-104.1818
  0
VERTEX
  8
LAYER_1
 10
55.3909
 20
-104.0601
  0
VERTEX
  8
LAYER_1
 10
55.0416
 20
-103.933
  0
VERTEX
  8
LAYER_1
 10
54.6924
 20
-103.8114
  0
VERTEX
  8
LAYER_1
 10
54.3168
 20
-103.7108
  0
VERTEX
  8
LAYER_1
 10
53.9199
 20
-103.6316
  0
VERTEX
  8
LAYER_1
 10
53.5177
 20
-103.5573
  0
VERTEX
  8
LAYER_1
 10
53.0943
 20
-103.5098
  0
VERTEX
  8
LAYER_1
 10
52.671
 20
-103.4569
  0
VERTEX
  8
LAYER_1
 10
52.2213
 20
-103.4357
  0
VERTEX
  8
LAYER_1
 10
51.7713
 20
-103.4357
  0
VERTEX
  8
LAYER_1
 10
51.3216
 20
-103.4357
  0
VERTEX
  8
LAYER_1
 10
50.893
 20
-103.4569
  0
VERTEX
  8
LAYER_1
 10
50.4433
 20
-103.5098
  0
VERTEX
  8
LAYER_1
 10
50.0199
 20
-103.5573
  0
VERTEX
  8
LAYER_1
 10
49.6176
 20
-103.6316
  0
VERTEX
  8
LAYER_1
 10
49.2208
 20
-103.7108
  0
VERTEX
  8
LAYER_1
 10
48.8451
 20
-103.8114
  0
VERTEX
  8
LAYER_1
 10
48.4959
 20
-103.933
  0
VERTEX
  8
LAYER_1
 10
48.1731
 20
-104.0601
  0
VERTEX
  8
LAYER_1
 10
47.8715
 20
-104.1818
  0
VERTEX
  8
LAYER_1
 10
47.5962
 20
-104.3352
  0
VERTEX
  8
LAYER_1
 10
47.3475
 20
-104.4834
  0
VERTEX
  8
LAYER_1
 10
47.1465
 20
-104.658
  0
VERTEX
  8
LAYER_1
 10
46.9718
 20
-104.8327
  0
VERTEX
  8
LAYER_1
 10
46.8237
 20
-105.0337
  0
VERTEX
  8
LAYER_1
 10
46.7231
 20
-105.2084
  0
VERTEX
  8
LAYER_1
 10
46.6702
 20
-105.4094
  0
VERTEX
  8
LAYER_1
 10
46.649
 20
-105.5841
  0
VERTEX
  8
LAYER_1
 10
46.6702
 20
-105.7851
  0
SEQEND
  0
POLYLINE
  8
LAYER_1
 40
0.4974
 41
0.4974
 66
1
 10
0
 20
0
 30
0
  0
VERTEX
  8
LAYER_1
 10
46.6702
 20
-105.7851
  0
VERTEX
  8
LAYER_1
 10
46.7231
 20
-105.9334
  0
VERTEX
  8
LAYER_1
 10
46.7708
 20
-106.0604
  0
SEQEND
  0
POLYLINE
  8
LAYER_1
 40
0.4974
 41
0.4974
 66
1
 10
0
 20
0
 30
0
  0
VERTEX
  8
LAYER_1
 10
45.5219
 20
-123.978
  0
VERTEX
  8
LAYER_1
 10
45.5219
 20
-124.2267
  0
VERTEX
  8
LAYER_1
 10
45.5485
 20
-124.4806
  0
VERTEX
  8
LAYER_1
 10
45.6225
 20
-124.9781
  0
VERTEX
  8
LAYER_1
 10
45.7495
 20
-125.4544
  0
VERTEX
  8
LAYER_1
 10
45.8976
 20
-125.9306
  0
VERTEX
  8
LAYER_1
 10
46.1198
 20
-126.4016
  0
VERTEX
  8
LAYER_1
 10
46.3739
 20
-126.8302
  0
VERTEX
  8
LAYER_1
 10
46.649
 20
-127.2536
  0
VERTEX
  8
LAYER_1
 10
46.9983
 20
-127.6556
  0
VERTEX
  8
LAYER_1
 10
47.3475
 20
-128.0049
  0
VERTEX
  8
LAYER_1
 10
47.7709
 20
-128.3541
  0
VERTEX
  8
LAYER_1
 10
48.1943
 20
-128.6505
  0
VERTEX
  8
LAYER_1
 10
48.6441
 20
-128.9044
  0
VERTEX
  8
LAYER_1
 10
49.1467
 20
-129.1267
  0
VERTEX
  8
LAYER_1
 10
49.6442
 20
-129.3279
  0
VERTEX
  8
LAYER_1
 10
50.1468
 20
-129.476
  0
VERTEX
  8
LAYER_1
 10
50.6972
 20
-129.5766
  0
VERTEX
  8
LAYER_1
 10
51.221
 20
-129.6507
  0
VERTEX
  8
LAYER_1
 10
51.7713
 20
-129.677
  0
VERTEX
  8
LAYER_1
 10
52.3164
 20
-129.6507
  0
VERTEX
  8
LAYER_1
 10
52.8455
 20
-129.5766
  0
VERTEX
  8
LAYER_1
 10
53.3907
 20
-129.476
  0
VERTEX
  8
LAYER_1
 10
53.9199
 20
-129.3279
  0
VERTEX
  8
LAYER_1
 10
54.4172
 20
-129.1267
  0
VERTEX
  8
LAYER_1
 10
54.8935
 20
-128.9044
  0
VERTEX
  8
LAYER_1
 10
55.3432
 20
-128.6505
  0
VERTEX
  8
LAYER_1
 10
55.7931
 20
-128.3541
  0
VERTEX
  8
LAYER_1
 10
56.19
 20
-128.0049
  0
VERTEX
  8
LAYER_1
 10
56.5657
 20
-127.6556
  0
VERTEX
  8
LAYER_1
 10
56.8937
 20
-127.2536
  0
VERTEX
  8
LAYER_1
 10
57.1901
 20
-126.8302
  0
VERTEX
  8
LAYER_1
 10
57.4387
 20
-126.4016
  0
VERTEX
  8
LAYER_1
 10
57.6399
 20
-125.9306
  0
VERTEX
  8
LAYER_1
 10
57.8146
 20
-125.4544
  0
VERTEX
  8
LAYER_1
 10
57.915
 20
-124.9781
  0
VERTEX
  8
LAYER_1
 10
57.9891
 20
-124.4806
  0
VERTEX
  8
LAYER_1
 10
58.0156
 20
-124.2267
  0
VERTEX
  8
LAYER_1
 10
58.0156
 20
-123.978
  0
SEQEND
  0
POLYLINE
  8
LAYER_1
 40
0.4974
 41
0.4974
 66
1
 10
0
 20
0
 30
0
  0
VERTEX
  8
LAYER_1
 10
45.5219
 20
-96.1385
  0
VERTEX
  8
LAYER_1
 10
45.5219
 20
-96.3607
  0
VERTEX
  8
LAYER_1
 10
45.5485
 20
-96.6094
  0
VERTEX
  8
LAYER_1
 10
45.6225
 20
-97.1121
  0
VERTEX
  8
LAYER_1
 10
45.7495
 20
-97.583
  0
VERTEX
  8
LAYER_1
 10
45.8976
 20
-98.0593
  0
VERTEX
  8
LAYER_1
 10
46.1198
 20
-98.5091
  0
VERTEX
  8
LAYER_1
 10
46.3739
 20
-98.959
  0
VERTEX
  8
LAYER_1
 10
46.649
 20
-99.3876
  0
VERTEX
  8
LAYER_1
 10
46.9983
 20
-99.7579
  0
VERTEX
  8
LAYER_1
 10
47.3475
 20
-100.1338
  0
VERTEX
  8
LAYER_1
 10
47.7709
 20
-100.4617
  0
VERTEX
  8
LAYER_1
 10
48.1943
 20
-100.758
  0
VERTEX
  8
LAYER_1
 10
48.6441
 20
-101.0333
  0
VERTEX
  8
LAYER_1
 10
49.1467
 20
-101.2608
  0
VERTEX
  8
LAYER_1
 10
49.6442
 20
-101.4355
  0
VERTEX
  8
LAYER_1
 10
50.1468
 20
-101.5836
  0
VERTEX
  8
LAYER_1
 10
50.6972
 20
-101.7106
  0
VERTEX
  8
LAYER_1
 10
51.221
 20
-101.7581
  0
VERTEX
  8
LAYER_1
 10
51.7713
 20
-101.7847
  0
VERTEX
  8
LAYER_1
 10
52.3164
 20
-101.7581
  0
VERTEX
  8
LAYER_1
 10
52.8455
 20
-101.7106
  0
VERTEX
  8
LAYER_1
 10
53.3907
 20
-101.5836
  0
VERTEX
  8
LAYER_1
 10
53.9199
 20
-101.4355
  0
VERTEX
  8
LAYER_1
 10
54.4172
 20
-101.2608
  0
VERTEX
  8
LAYER_1
 10
54.8935
 20
-101.0333
  0
VERTEX
  8
LAYER_1
 10
55.3432
 20
-100.758
  0
VERTEX
  8
LAYER_1
 10
55.7931
 20
-100.4617
  0
VERTEX
  8
LAYER_1
 10
56.19
 20
-100.1338
  0
VERTEX
  8
LAYER_1
 10
56.5392
 20
-99.7579
  0
VERTEX
  8
LAYER_1
 10
56.8937
 20
-99.3876
  0
VERTEX
  8
LAYER_1
 10
57.1901
 20
-98.959
  0
VERTEX
  8
LAYER_1
 10
57.4387
 20
-98.5091
  0
VERTEX
  8
LAYER_1
 10
57.6399
 20
-98.0593
  0
VERTEX
  8
LAYER_1
 10
57.8146
 20
-97.583
  0
VERTEX
  8
LAYER_1
 10
57.915
 20
-97.1121
  0
VERTEX
  8
LAYER_1
 10
57.9891
 20
-96.6094
  0
VERTEX
  8
LAYER_1
 10
58.0156
 20
-96.3607
  0
VERTEX
  8
LAYER_1
 10
58.0156
 20
-96.1385
  0
SEQEND
  0
POLYLINE
  8
LAYER_1
 40
0.4974
 41
0.4974
 66
1
 10
0
 20
0
 30
0
  0
VERTEX
  8
LAYER_1
 10
58.0156
 20
-96.1385
  0
VERTEX
  8
LAYER_1
 10
58.0156
 20
-95.8844
  0
VERTEX
  8
LAYER_1
 10
57.9891
 20
-95.6359
  0
SEQEND
  0
POLYLINE
  8
LAYER_1
 40
0.4974
 41
0.4974
 66
1
 10
0
 20
0
 30
0
  0
VERTEX
  8
LAYER_1
 10
57.9891
 20
-95.6359
  0
VERTEX
  8
LAYER_1
 10
57.915
 20
-95.1384
  0
VERTEX
  8
LAYER_1
 10
57.8146
 20
-94.6621
  0
VERTEX
  8
LAYER_1
 10
57.6399
 20
-94.1858
  0
VERTEX
  8
LAYER_1
 10
57.4387
 20
-93.7361
  0
VERTEX
  8
LAYER_1
 10
57.1901
 20
-93.2863
  0
VERTEX
  8
LAYER_1
 10
56.8937
 20
-92.8841
  0
VERTEX
  8
LAYER_1
 10
56.5392
 20
-92.4872
  0
VERTEX
  8
LAYER_1
 10
56.19
 20
-92.1115
  0
VERTEX
  8
LAYER_1
 10
55.7931
 20
-91.7887
  0
VERTEX
  8
LAYER_1
 10
55.3432
 20
-91.4871
  0
VERTEX
  8
LAYER_1
 10
54.8935
 20
-91.212
  0
VERTEX
  8
LAYER_1
 10
54.4172
 20
-90.9896
  0
VERTEX
  8
LAYER_1
 10
53.9199
 20
-90.8098
  0
VERTEX
  8
LAYER_1
 10
53.3907
 20
-90.6616
  0
VERTEX
  8
LAYER_1
 10
52.8455
 20
-90.5399
  0
VERTEX
  8
LAYER_1
 10
52.3164
 20
-90.487
  0
VERTEX
  8
LAYER_1
 10
51.7713
 20
-90.4605
  0
VERTEX
  8
LAYER_1
 10
51.221
 20
-90.487
  0
VERTEX
  8
LAYER_1
 10
50.6972
 20
-90.5399
  0
VERTEX
  8
LAYER_1
 10
50.1468
 20
-90.6616
  0
VERTEX
  8
LAYER_1
 10
49.6442
 20
-90.8098
  0
VERTEX
  8
LAYER_1
 10
49.1467
 20
-90.9896
  0
VERTEX
  8
LAYER_1
 10
48.6441
 20
-91.212
  0
VERTEX
  8
LAYER_1
 10
48.1943
 20
-91.4871
  0
VERTEX
  8
LAYER_1
 10
47.7709
 20
-91.7887
  0
VERTEX
  8
LAYER_1
 10
47.3475
 20
-92.1115
  0
VERTEX
  8
LAYER_1
 10
46.9983
 20
-92.4872
  0
VERTEX
  8
LAYER_1
 10
46.649
 20
-92.8841
  0
VERTEX
  8
LAYER_1
 10
46.3739
 20
-93.2863
  0
VERTEX
  8
LAYER_1
 10
46.1198
 20
-93.7361
  0
VERTEX
  8
LAYER_1
 10
45.8976
 20
-94.1858
  0
VERTEX
  8
LAYER_1
 10
45.7495
 20
-94.6621
  0
VERTEX
  8
LAYER_1
 10
45.6225
 20
-95.1384
  0
VERTEX
  8
LAYER_1
 10
45.5485
 20
-95.6359
  0
VERTEX
  8
LAYER_1
 10
45.5219
 20
-95.8844
  0
VERTEX
  8
LAYER_1
 10
45.5219
 20
-96.1385
  0
SEQEND
  0
POLYLINE
  8
LAYER_1
 40
0.4974
 41
0.4974
 66
1
 10
0
 20
0
 30
0
  0
VERTEX
  8
LAYER_1
 10
87.0774
 20
-17.5044
  0
VERTEX
  8
LAYER_1
 10
86.9504
 20
-17.5044
  0
VERTEX
  8
LAYER_1
 10
86.8498
 20
-17.5307
  0
SEQEND
  0
POLYLINE
  8
LAYER_1
 40
0.4974
 41
0.4974
 66
1
 10
0
 20
0
 30
0
  0
VERTEX
  8
LAYER_1
 10
87.0774
 20
-30.0032
  0
VERTEX
  8
LAYER_1
 10
87.1992
 20
-30.0032
  0
VERTEX
  8
LAYER_1
 10
87.2996
 20
-29.9768
  0
VERTEX
  8
LAYER_1
 10
87.5483
 20
-29.9027
  0
VERTEX
  8
LAYER_1
 10
87.7759
 20
-29.7756
  0
VERTEX
  8
LAYER_1
 10
87.9981
 20
-29.6011
  0
VERTEX
  8
LAYER_1
 10
88.1993
 20
-29.3999
  0
VERTEX
  8
LAYER_1
 10
88.4003
 20
-29.1514
  0
VERTEX
  8
LAYER_1
 10
88.6015
 20
-28.8549
  0
VERTEX
  8
LAYER_1
 10
88.776
 20
-28.5268
  0
VERTEX
  8
LAYER_1
 10
88.9506
 20
-28.1511
  0
VERTEX
  8
LAYER_1
 10
89.0988
 20
-27.7542
  0
VERTEX
  8
LAYER_1
 10
89.2469
 20
-27.3256
  0
VERTEX
  8
LAYER_1
 10
89.374
 20
-26.8547
  0
VERTEX
  8
LAYER_1
 10
89.4745
 20
-26.3784
  0
VERTEX
  8
LAYER_1
 10
89.5485
 20
-25.8758
  0
VERTEX
  8
LAYER_1
 10
89.6226
 20
-25.3518
  0
VERTEX
  8
LAYER_1
 10
89.6757
 20
-24.8279
  0
VERTEX
  8
LAYER_1
 10
89.6969
 20
-24.3041
  0
VERTEX
  8
LAYER_1
 10
89.7232
 20
-23.7538
  0
VERTEX
  8
LAYER_1
 10
89.6969
 20
-23.2034
  0
VERTEX
  8
LAYER_1
 10
89.6757
 20
-22.6796
  0
VERTEX
  8
LAYER_1
 10
89.6226
 20
-22.1292
  0
VERTEX
  8
LAYER_1
 10
89.5485
 20
-21.6318
  0
VERTEX
  8
LAYER_1
 10
89.4745
 20
-21.1291
  0
VERTEX
  8
LAYER_1
 10
89.374
 20
-20.6528
  0
VERTEX
  8
LAYER_1
 10
89.2469
 20
-20.1819
  0
VERTEX
  8
LAYER_1
 10
89.0988
 20
-19.7533
  0
VERTEX
  8
LAYER_1
 10
88.9506
 20
-19.3564
  0
VERTEX
  8
LAYER_1
 10
88.776
 20
-18.9808
  0
VERTEX
  8
LAYER_1
 10
88.6015
 20
-18.6526
  0
VERTEX
  8
LAYER_1
 10
88.4003
 20
-18.3563
  0
VERTEX
  8
LAYER_1
 10
88.1993
 20
-18.1076
  0
VERTEX
  8
LAYER_1
 10
87.9981
 20
-17.9066
  0
VERTEX
  8
LAYER_1
 10
87.7759
 20
-17.7319
  0
VERTEX
  8
LAYER_1
 10
87.5483
 20
-17.6048
  0
VERTEX
  8
LAYER_1
 10
87.2996
 20
-17.5307
  0
VERTEX
  8
LAYER_1
 10
87.1992
 20
-17.5044
  0
VERTEX
  8
LAYER_1
 10
87.0774
 20
-17.5044
  0
SEQEND
  0
POLYLINE
  8
LAYER_1
 40
0.4974
 41
0.4974
 66
1
 10
0
 20
0
 30
0
  0
VERTEX
  8
LAYER_1
 10
86.8498
 20
-17.5307
  0
VERTEX
  8
LAYER_1
 10
86.6011
 20
-17.6048
  0
VERTEX
  8
LAYER_1
 10
86.3735
 20
-17.7319
  0
VERTEX
  8
LAYER_1
 10
86.1513
 20
-17.9066
  0
VERTEX
  8
LAYER_1
 10
85.9503
 20
-18.1076
  0
VERTEX
  8
LAYER_1
 10
85.7491
 20
-18.3563
  0
VERTEX
  8
LAYER_1
 10
85.5534
 20
-18.6526
  0
VERTEX
  8
LAYER_1
 10
85.3788
 20
-18.9808
  0
VERTEX
  8
LAYER_1
 10
85.1989
 20
-19.3564
  0
VERTEX
  8
LAYER_1
 10
85.0506
 20
-19.7533
  0
VERTEX
  8
LAYER_1
 10
84.9025
 20
-20.1819
  0
VERTEX
  8
LAYER_1
 10
84.7755
 20
-20.6528
  0
VERTEX
  8
LAYER_1
 10
84.6749
 20
-21.1291
  0
VERTEX
  8
LAYER_1
 10
84.6009
 20
-21.6318
  0
VERTEX
  8
LAYER_1
 10
84.5268
 20
-22.1292
  0
VERTEX
  8
LAYER_1
 10
84.4793
 20
-22.6796
  0
VERTEX
  8
LAYER_1
 10
84.4527
 20
-23.2034
  0
VERTEX
  8
LAYER_1
 10
84.4262
 20
-23.7538
  0
VERTEX
  8
LAYER_1
 10
84.4527
 20
-24.3041
  0
VERTEX
  8
LAYER_1
 10
84.4793
 20
-24.8279
  0
VERTEX
  8
LAYER_1
 10
84.5268
 20
-25.3518
  0
VERTEX
  8
LAYER_1
 10
84.6009
 20
-25.8758
  0
VERTEX
  8
LAYER_1
 10
84.6749
 20
-26.3784
  0
VERTEX
  8
LAYER_1
 10
84.7755
 20
-26.8547
  0
VERTEX
  8
LAYER_1
 10
84.9025
 20
-27.3256
  0
VERTEX
  8
LAYER_1
 10
85.0506
 20
-27.7542
  0
VERTEX
  8
LAYER_1
 10
85.1989
 20
-28.1511
  0
VERTEX
  8
LAYER_1
 10
85.3788
 20
-28.5268
  0
VERTEX
  8
LAYER_1
 10
85.5534
 20
-28.8549
  0
VERTEX
  8
LAYER_1
 10
85.7491
 20
-29.1514
  0
VERTEX
  8
LAYER_1
 10
85.9503
 20
-29.3999
  0
VERTEX
  8
LAYER_1
 10
86.1513
 20
-29.6011
  0
VERTEX
  8
LAYER_1
 10
86.3735
 20
-29.7756
  0
VERTEX
  8
LAYER_1
 10
86.6011
 20
-29.9027
  0
VERTEX
  8
LAYER_1
 10
86.8498
 20
-29.9768
  0
VERTEX
  8
LAYER_1
 10
86.9504
 20
-30.0032
  0
VERTEX
  8
LAYER_1
 10
87.0774
 20
-30.0032
  0
SEQEND
  0
POLYLINE
  8
LAYER_1
 40
0.1976
 41
0.1976
 66
1
 10
0
 20
0
 30
0
  0
VERTEX
  8
LAYER_1
 10
92.2209
 20
-106.3832
  0
VERTEX
  8
LAYER_1
 10
92.2209
 20
-107.1345
  0
SEQEND
  0
POLYLINE
  8
LAYER_1
 40
0.4974
 41
0.4974
 66
1
 10
0
 20
0
 30
0
  0
VERTEX
  8
LAYER_1
 10
46.7708
 20
-236.1771
  0
VERTEX
  8
LAYER_1
 10
46.0246
 20
-236.1771
  0
SEQEND
  0
POLYLINE
  8
LAYER_1
 40
0.4974
 41
0.4974
 66
1
 10
0
 20
0
 30
0
  0
VERTEX
  8
LAYER_1
 10
56.7667
 20
-236.1771
  0
VERTEX
  8
LAYER_1
 10
57.5181
 20
-236.1771
  0
SEQEND
  0
POLYLINE
  8
LAYER_1
 40
0.4974
 41
0.4974
 66
1
 10
0
 20
0
 30
0
  0
VERTEX
  8
LAYER_1
 10
56.7667
 20
-233.4255
  0
VERTEX
  8
LAYER_1
 10
52.5176
 20
-233.4255
  0
SEQEND
  0
POLYLINE
  8
LAYER_1
 40
0.4974
 41
0.4974
 66
1
 10
0
 20
0
 30
0
  0
VERTEX
  8
LAYER_1
 10
52.5176
 20
-233.4255
  0
VERTEX
  8
LAYER_1
 10
52.5176
 20
-236.1771
  0
SEQEND
  0
POLYLINE
  8
LAYER_1
 40
0.4974
 41
0.4974
 66
1
 10
0
 20
0
 30
0
  0
VERTEX
  8
LAYER_1
 10
51.7713
 20
-233.4255
  0
VERTEX
  8
LAYER_1
 10
51.02
 20
-233.4255
  0
SEQEND
  0
POLYLINE
  8
LAYER_1
 40
0.4974
 41
0.4974
 66
1
 10
0
 20
0
 30
0
  0
VERTEX
  8
LAYER_1
 10
51.02
 20
-233.4255
  0
VERTEX
  8
LAYER_1
 10
51.02
 20
-236.1771
  0
SEQEND
  0
POLYLINE
  8
LAYER_1
 40
0.4974
 41
0.4974
 66
1
 10
0
 20
0
 30
0
  0
VERTEX
  8
LAYER_1
 10
51.02
 20
-233.4255
  0
VERTEX
  8
LAYER_1
 10
46.7708
 20
-233.4255
  0
SEQEND
  0
POLYLINE
  8
LAYER_1
 40
0.4974
 41
0.4974
 66
1
 10
0
 20
0
 30
0
  0
VERTEX
  8
LAYER_1
 10
46.7708
 20
-233.4255
  0
VERTEX
  8
LAYER_1
 10
46.7708
 20
-236.1771
  0
SEQEND
  0
POLYLINE
  8
LAYER_1
 40
0.4974
 41
0.4974
 66
1
 10
0
 20
0
 30
0
  0
VERTEX
  8
LAYER_1
 10
56.7667
 20
-233.4255
  0
VERTEX
  8
LAYER_1
 10
57.5181
 20
-233.4255
  0
SEQEND
  0
POLYLINE
  8
LAYER_1
 40
0.4974
 41
0.4974
 66
1
 10
0
 20
0
 30
0
  0
VERTEX
  8
LAYER_1
 10
56.7667
 20
-233.4255
  0
VERTEX
  8
LAYER_1
 10
56.7667
 20
-236.1771
  0
SEQEND
  0
POLYLINE
  8
LAYER_1
 40
0.4974
 41
0.4974
 66
1
 10
0
 20
0
 30
0
  0
VERTEX
  8
LAYER_1
 10
52.5176
 20
-236.1771
  0
VERTEX
  8
LAYER_1
 10
51.02
 20
-236.1771
  0
SEQEND
  0
POLYLINE
  8
LAYER_1
 40
0.4974
 41
0.4974
 66
1
 10
0
 20
0
 30
0
  0
VERTEX
  8
LAYER_1
 10
57.5181
 20
-233.4255
  0
VERTEX
  8
LAYER_1
 10
61.2646
 20
-233.4255
  0
SEQEND
  0
POLYLINE
  8
LAYER_1
 40
0.4974
 41
0.4974
 66
1
 10
0
 20
0
 30
0
  0
VERTEX
  8
LAYER_1
 10
57.5181
 20
-233.4255
  0
VERTEX
  8
LAYER_1
 10
57.5181
 20
-236.6746
  0
SEQEND
  0
POLYLINE
  8
LAYER_1
 40
0.4974
 41
0.4974
 66
1
 10
0
 20
0
 30
0
  0
VERTEX
  8
LAYER_1
 10
46.7708
 20
-233.4255
  0
VERTEX
  8
LAYER_1
 10
46.0246
 20
-233.4255
  0
SEQEND
  0
POLYLINE
  8
LAYER_1
 40
0.4974
 41
0.4974
 66
1
 10
0
 20
0
 30
0
  0
VERTEX
  8
LAYER_1
 10
46.0246
 20
-233.4255
  0
VERTEX
  8
LAYER_1
 10
46.0246
 20
-236.6746
  0
SEQEND
  0
POLYLINE
  8
LAYER_1
 40
0.4974
 41
0.4974
 66
1
 10
0
 20
0
 30
0
  0
VERTEX
  8
LAYER_1
 10
161.2084
 20
-233.4255
  0
VERTEX
  8
LAYER_1
 10
161.2084
 20
-232.6793
  0
SEQEND
  0
POLYLINE
  8
LAYER_1
 40
0.4974
 41
0.4974
 66
1
 10
0
 20
0
 30
0
  0
VERTEX
  8
LAYER_1
 10
157.9645
 20
-233.4255
  0
VERTEX
  8
LAYER_1
 10
157.9645
 20
-236.1771
  0
SEQEND
  0
POLYLINE
  8
LAYER_1
 40
0.4974
 41
0.4974
 66
1
 10
0
 20
0
 30
0
  0
VERTEX
  8
LAYER_1
 10
157.9645
 20
-233.4255
  0
VERTEX
  8
LAYER_1
 10
161.2084
 20
-233.4255
  0
SEQEND
  0
POLYLINE
  8
LAYER_1
 40
0.4974
 41
0.4974
 66
1
 10
0
 20
0
 30
0
  0
VERTEX
  8
LAYER_1
 10
161.2084
 20
-232.6793
  0
VERTEX
  8
LAYER_1
 10
142.2218
 20
-232.6793
  0
SEQEND
  0
POLYLINE
  8
LAYER_1
 40
0.4974
 41
0.4974
 66
1
 10
0
 20
0
 30
0
  0
VERTEX
  8
LAYER_1
 10
151.7151
 20
-236.6746
  0
VERTEX
  8
LAYER_1
 10
157.4615
 20
-236.6746
  0
SEQEND
  0
POLYLINE
  8
LAYER_1
 40
0.4974
 41
0.4974
 66
1
 10
0
 20
0
 30
0
  0
VERTEX
  8
LAYER_1
 10
157.9645
 20
-233.4255
  0
VERTEX
  8
LAYER_1
 10
155.4613
 20
-233.4255
  0
SEQEND
  0
POLYLINE
  8
LAYER_1
 40
0.4974
 41
0.4974
 66
1
 10
0
 20
0
 30
0
  0
VERTEX
  8
LAYER_1
 10
157.9645
 20
-236.1771
  0
VERTEX
  8
LAYER_1
 10
157.4615
 20
-236.6746
  0
SEQEND
  0
POLYLINE
  8
LAYER_1
 40
0.4974
 41
0.4974
 66
1
 10
0
 20
0
 30
0
  0
VERTEX
  8
LAYER_1
 10
155.4613
 20
-236.1771
  0
VERTEX
  8
LAYER_1
 10
154.1653
 20
-236.1771
  0
SEQEND
  0
POLYLINE
  8
LAYER_1
 40
0.4974
 41
0.4974
 66
1
 10
0
 20
0
 30
0
  0
VERTEX
  8
LAYER_1
 10
154.1653
 20
-236.1771
  0
VERTEX
  8
LAYER_1
 10
154.1653
 20
-233.4255
  0
SEQEND
  0
POLYLINE
  8
LAYER_1
 40
0.4974
 41
0.4974
 66
1
 10
0
 20
0
 30
0
  0
VERTEX
  8
LAYER_1
 10
154.1653
 20
-233.4255
  0
VERTEX
  8
LAYER_1
 10
151.7151
 20
-233.4255
  0
SEQEND
  0
POLYLINE
  8
LAYER_1
 40
0.4974
 41
0.4974
 66
1
 10
0
 20
0
 30
0
  0
VERTEX
  8
LAYER_1
 10
155.4613
 20
-233.4255
  0
VERTEX
  8
LAYER_1
 10
155.4613
 20
-236.1771
  0
SEQEND
  0
POLYLINE
  8
LAYER_1
 40
0.4974
 41
0.4974
 66
1
 10
0
 20
0
 30
0
  0
VERTEX
  8
LAYER_1
 10
155.4613
 20
-233.4255
  0
VERTEX
  8
LAYER_1
 10
154.1653
 20
-233.4255
  0
SEQEND
  0
POLYLINE
  8
LAYER_1
 40
0.4974
 41
0.4974
 66
1
 10
0
 20
0
 30
0
  0
VERTEX
  8
LAYER_1
 10
149.265
 20
-233.4255
  0
VERTEX
  8
LAYER_1
 10
147.942
 20
-233.4255
  0
SEQEND
  0
POLYLINE
  8
LAYER_1
 40
0.4974
 41
0.4974
 66
1
 10
0
 20
0
 30
0
  0
VERTEX
  8
LAYER_1
 10
147.942
 20
-233.4255
  0
VERTEX
  8
LAYER_1
 10
147.942
 20
-236.1771
  0
SEQEND
  0
POLYLINE
  8
LAYER_1
 40
0.4974
 41
0.4974
 66
1
 10
0
 20
0
 30
0
  0
VERTEX
  8
LAYER_1
 10
149.265
 20
-233.4255
  0
VERTEX
  8
LAYER_1
 10
151.7151
 20
-233.4255
  0
SEQEND
  0
POLYLINE
  8
LAYER_1
 40
0.4974
 41
0.4974
 66
1
 10
0
 20
0
 30
0
  0
VERTEX
  8
LAYER_1
 10
149.265
 20
-233.4255
  0
VERTEX
  8
LAYER_1
 10
149.265
 20
-236.1771
  0
SEQEND
  0
POLYLINE
  8
LAYER_1
 40
0.4974
 41
0.4974
 66
1
 10
0
 20
0
 30
0
  0
VERTEX
  8
LAYER_1
 10
149.265
 20
-236.1771
  0
VERTEX
  8
LAYER_1
 10
147.942
 20
-236.1771
  0
SEQEND
  0
POLYLINE
  8
LAYER_1
 40
0.4974
 41
0.4974
 66
1
 10
0
 20
0
 30
0
  0
VERTEX
  8
LAYER_1
 10
145.9687
 20
-236.6746
  0
VERTEX
  8
LAYER_1
 10
145.4712
 20
-236.1771
  0
SEQEND
  0
POLYLINE
  8
LAYER_1
 40
0.4974
 41
0.4974
 66
1
 10
0
 20
0
 30
0
  0
VERTEX
  8
LAYER_1
 10
145.4712
 20
-233.4255
  0
VERTEX
  8
LAYER_1
 10
147.942
 20
-233.4255
  0
SEQEND
  0
POLYLINE
  8
LAYER_1
 40
0.4974
 41
0.4974
 66
1
 10
0
 20
0
 30
0
  0
VERTEX
  8
LAYER_1
 10
145.9687
 20
-236.6746
  0
VERTEX
  8
LAYER_1
 10
151.7151
 20
-236.6746
  0
SEQEND
  0
POLYLINE
  8
LAYER_1
 40
0.4974
 41
0.4974
 66
1
 10
0
 20
0
 30
0
  0
VERTEX
  8
LAYER_1
 10
145.4712
 20
-233.4255
  0
VERTEX
  8
LAYER_1
 10
142.2218
 20
-233.4255
  0
SEQEND
  0
POLYLINE
  8
LAYER_1
 40
0.4974
 41
0.4974
 66
1
 10
0
 20
0
 30
0
  0
VERTEX
  8
LAYER_1
 10
145.4712
 20
-233.4255
  0
VERTEX
  8
LAYER_1
 10
145.4712
 20
-236.1771
  0
SEQEND
  0
POLYLINE
  8
LAYER_1
 40
0.4974
 41
0.4974
 66
1
 10
0
 20
0
 30
0
  0
VERTEX
  8
LAYER_1
 10
142.2218
 20
-233.4255
  0
VERTEX
  8
LAYER_1
 10
142.2218
 20
-232.6793
  0
SEQEND
  0
POLYLINE
  8
LAYER_1
 40
0.4974
 41
0.4974
 66
1
 10
0
 20
0
 30
0
  0
VERTEX
  8
LAYER_1
 10
42.2729
 20
-232.6793
  0
VERTEX
  8
LAYER_1
 10
42.2729
 20
-233.4255
  0
SEQEND
  0
POLYLINE
  8
LAYER_1
 40
0.4974
 41
0.4974
 66
1
 10
0
 20
0
 30
0
  0
VERTEX
  8
LAYER_1
 10
42.2729
 20
-233.4255
  0
VERTEX
  8
LAYER_1
 10
46.0246
 20
-233.4255
  0
SEQEND
  0
POLYLINE
  8
LAYER_1
 40
0.4974
 41
0.4974
 66
1
 10
0
 20
0
 30
0
  0
VERTEX
  8
LAYER_1
 10
42.2729
 20
-232.6793
  0
VERTEX
  8
LAYER_1
 10
51.7713
 20
-232.6793
  0
SEQEND
  0
POLYLINE
  8
LAYER_1
 40
0.4974
 41
0.4974
 66
1
 10
0
 20
0
 30
0
  0
VERTEX
  8
LAYER_1
 10
57.5181
 20
-236.6746
  0
VERTEX
  8
LAYER_1
 10
46.0246
 20
-236.6746
  0
SEQEND
  0
POLYLINE
  8
LAYER_1
 40
0.4974
 41
0.4974
 66
1
 10
0
 20
0
 30
0
  0
VERTEX
  8
LAYER_1
 10
51.7713
 20
-233.4255
  0
VERTEX
  8
LAYER_1
 10
52.5176
 20
-233.4255
  0
SEQEND
  0
POLYLINE
  8
LAYER_1
 40
0.4974
 41
0.4974
 66
1
 10
0
 20
0
 30
0
  0
VERTEX
  8
LAYER_1
 10
51.7713
 20
-232.6793
  0
VERTEX
  8
LAYER_1
 10
61.2646
 20
-232.6793
  0
SEQEND
  0
POLYLINE
  8
LAYER_1
 40
0.4974
 41
0.4974
 66
1
 10
0
 20
0
 30
0
  0
VERTEX
  8
LAYER_1
 10
61.2646
 20
-232.6793
  0
VERTEX
  8
LAYER_1
 10
61.2646
 20
-233.4255
  0
SEQEND
  0
POLYLINE
  8
LAYER_1
 40
0.4974
 41
0.4974
 66
1
 10
0
 20
0
 30
0
  0
VERTEX
  8
LAYER_1
 10
52.5176
 20
-236.1982
  0
VERTEX
  8
LAYER_1
 10
53.1949
 20
-236.4734
  0
VERTEX
  8
LAYER_1
 10
53.8668
 20
-236.6271
  0
VERTEX
  8
LAYER_1
 10
54.5443
 20
-236.7011
  0
VERTEX
  8
LAYER_1
 10
55.2163
 20
-236.6746
  0
VERTEX
  8
LAYER_1
 10
55.8936
 20
-236.5265
  0
VERTEX
  8
LAYER_1
 10
56.5657
 20
-236.2988
  0
VERTEX
  8
LAYER_1
 10
56.7667
 20
-236.1982
  0
SEQEND
  0
POLYLINE
  8
LAYER_1
 40
0.4974
 41
0.4974
 66
1
 10
0
 20
0
 30
0
  0
VERTEX
  8
LAYER_1
 10
46.7708
 20
-236.1982
  0
VERTEX
  8
LAYER_1
 10
47.4481
 20
-236.4734
  0
VERTEX
  8
LAYER_1
 10
48.1202
 20
-236.6271
  0
VERTEX
  8
LAYER_1
 10
48.7975
 20
-236.7011
  0
VERTEX
  8
LAYER_1
 10
49.4695
 20
-236.6746
  0
VERTEX
  8
LAYER_1
 10
50.1468
 20
-236.5265
  0
VERTEX
  8
LAYER_1
 10
50.8189
 20
-236.2988
  0
VERTEX
  8
LAYER_1
 10
51.02
 20
-236.1982
  0
SEQEND
  0
POLYLINE
  8
LAYER_1
 40
0.4974
 41
0.4974
 66
1
 10
0
 20
0
 30
0
  0
VERTEX
  8
LAYER_1
 10
155.4613
 20
-236.1771
  0
VERTEX
  8
LAYER_1
 10
155.8637
 20
-236.4734
  0
VERTEX
  8
LAYER_1
 10
156.2661
 20
-236.6271
  0
VERTEX
  8
LAYER_1
 10
156.663
 20
-236.6746
  0
VERTEX
  8
LAYER_1
 10
157.0647
 20
-236.6533
  0
VERTEX
  8
LAYER_1
 10
157.4615
 20
-236.5265
  0
VERTEX
  8
LAYER_1
 10
157.8639
 20
-236.2777
  0
VERTEX
  8
LAYER_1
 10
157.9645
 20
-236.1771
  0
SEQEND
  0
POLYLINE
  8
LAYER_1
 40
0.4974
 41
0.4974
 66
1
 10
0
 20
0
 30
0
  0
VERTEX
  8
LAYER_1
 10
151.7151
 20
-236.7011
  0
VERTEX
  8
LAYER_1
 10
152.493
 20
-236.6533
  0
VERTEX
  8
LAYER_1
 10
153.2654
 20
-236.4999
  0
VERTEX
  8
LAYER_1
 10
154.0385
 20
-236.2512
  0
VERTEX
  8
LAYER_1
 10
154.1653
 20
-236.1982
  0
SEQEND
  0
POLYLINE
  8
LAYER_1
 40
0.4974
 41
0.4974
 66
1
 10
0
 20
0
 30
0
  0
VERTEX
  8
LAYER_1
 10
149.265
 20
-236.1982
  0
VERTEX
  8
LAYER_1
 10
150.0429
 20
-236.4734
  0
VERTEX
  8
LAYER_1
 10
150.8153
 20
-236.6271
  0
VERTEX
  8
LAYER_1
 10
151.5932
 20
-236.7011
  0
VERTEX
  8
LAYER_1
 10
151.7151
 20
-236.7011
  0
SEQEND
  0
POLYLINE
  8
LAYER_1
 40
0.4974
 41
0.4974
 66
1
 10
0
 20
0
 30
0
  0
VERTEX
  8
LAYER_1
 10
145.4712
 20
-236.1771
  0
VERTEX
  8
LAYER_1
 10
145.8681
 20
-236.4734
  0
VERTEX
  8
LAYER_1
 10
146.2698
 20
-236.6271
  0
VERTEX
  8
LAYER_1
 10
146.6667
 20
-236.6746
  0
VERTEX
  8
LAYER_1
 10
147.0691
 20
-236.6533
  0
VERTEX
  8
LAYER_1
 10
147.4659
 20
-236.5265
  0
VERTEX
  8
LAYER_1
 10
147.8683
 20
-236.2777
  0
VERTEX
  8
LAYER_1
 10
147.9689
 20
-236.1771
  0
SEQEND
  0
POLYLINE
  8
LAYER_1
 40
0.4974
 41
0.4974
 66
1
 10
0
 20
0
 30
0
  0
VERTEX
  8
LAYER_1
 10
42.6486
 20
-231.928
  0
VERTEX
  8
LAYER_1
 10
45.596
 20
-231.928
  0
SEQEND
  0
POLYLINE
  8
LAYER_1
 40
0.4974
 41
0.4974
 66
1
 10
0
 20
0
 30
0
  0
VERTEX
  8
LAYER_1
 10
45.9453
 20
-231.928
  0
VERTEX
  8
LAYER_1
 10
49.3479
 20
-231.928
  0
SEQEND
  0
POLYLINE
  8
LAYER_1
 40
0.4974
 41
0.4974
 66
1
 10
0
 20
0
 30
0
  0
VERTEX
  8
LAYER_1
 10
49.8188
 20
-231.928
  0
VERTEX
  8
LAYER_1
 10
53.7187
 20
-231.928
  0
SEQEND
  0
POLYLINE
  8
LAYER_1
 40
0.4974
 41
0.4974
 66
1
 10
0
 20
0
 30
0
  0
VERTEX
  8
LAYER_1
 10
54.2162
 20
-231.928
  0
VERTEX
  8
LAYER_1
 10
57.5922
 20
-231.928
  0
SEQEND
  0
POLYLINE
  8
LAYER_1
 40
0.4974
 41
0.4974
 66
1
 10
0
 20
0
 30
0
  0
VERTEX
  8
LAYER_1
 10
57.9415
 20
-231.928
  0
VERTEX
  8
LAYER_1
 10
60.889
 20
-231.928
  0
SEQEND
  0
POLYLINE
  8
LAYER_1
 40
0.4974
 41
0.4974
 66
1
 10
0
 20
0
 30
0
  0
VERTEX
  8
LAYER_1
 10
41.024
 20
-231.928
  0
VERTEX
  8
LAYER_1
 10
41.024
 20
-231.4253
  0
SEQEND
  0
POLYLINE
  8
LAYER_1
 40
0.4974
 41
0.4974
 66
1
 10
0
 20
0
 30
0
  0
VERTEX
  8
LAYER_1
 10
41.024
 20
-231.928
  0
VERTEX
  8
LAYER_1
 10
42.6486
 20
-231.928
  0
SEQEND
  0
POLYLINE
  8
LAYER_1
 40
0.4974
 41
0.4974
 66
1
 10
0
 20
0
 30
0
  0
VERTEX
  8
LAYER_1
 10
45.9242
 20
-232.6793
  0
VERTEX
  8
LAYER_1
 10
47.3211
 20
-232.6793
  0
SEQEND
  0
POLYLINE
  8
LAYER_1
 40
0.4974
 41
0.4974
 66
1
 10
0
 20
0
 30
0
  0
VERTEX
  8
LAYER_1
 10
47.7444
 20
-232.6793
  0
VERTEX
  8
LAYER_1
 10
51.5174
 20
-232.6793
  0
SEQEND
  0
POLYLINE
  8
LAYER_1
 40
0.4974
 41
0.4974
 66
1
 10
0
 20
0
 30
0
  0
VERTEX
  8
LAYER_1
 10
51.7713
 20
-231.4253
  0
VERTEX
  8
LAYER_1
 10
41.024
 20
-231.4253
  0
SEQEND
  0
POLYLINE
  8
LAYER_1
 40
0.4974
 41
0.4974
 66
1
 10
0
 20
0
 30
0
  0
VERTEX
  8
LAYER_1
 10
51.7713
 20
-231.4253
  0
VERTEX
  8
LAYER_1
 10
62.5135
 20
-231.4253
  0
SEQEND
  0
POLYLINE
  8
LAYER_1
 40
0.4974
 41
0.4974
 66
1
 10
0
 20
0
 30
0
  0
VERTEX
  8
LAYER_1
 10
55.7931
 20
-232.6793
  0
VERTEX
  8
LAYER_1
 10
52.0201
 20
-232.6793
  0
SEQEND
  0
POLYLINE
  8
LAYER_1
 40
0.4974
 41
0.4974
 66
1
 10
0
 20
0
 30
0
  0
VERTEX
  8
LAYER_1
 10
56.2429
 20
-232.6793
  0
VERTEX
  8
LAYER_1
 10
57.6399
 20
-232.6793
  0
SEQEND
  0
POLYLINE
  8
LAYER_1
 40
0.4974
 41
0.4974
 66
1
 10
0
 20
0
 30
0
  0
VERTEX
  8
LAYER_1
 10
60.889
 20
-231.928
  0
VERTEX
  8
LAYER_1
 10
62.5135
 20
-231.928
  0
SEQEND
  0
POLYLINE
  8
LAYER_1
 40
0.4974
 41
0.4974
 66
1
 10
0
 20
0
 30
0
  0
VERTEX
  8
LAYER_1
 10
62.5135
 20
-231.928
  0
VERTEX
  8
LAYER_1
 10
62.5135
 20
-231.4253
  0
SEQEND
  0
POLYLINE
  8
LAYER_1
 40
0.4974
 41
0.4974
 66
1
 10
0
 20
0
 30
0
  0
VERTEX
  8
LAYER_1
 10
162.4624
 20
-231.4253
  0
VERTEX
  8
LAYER_1
 10
162.4624
 20
-231.928
  0
SEQEND
  0
POLYLINE
  8
LAYER_1
 40
0.4974
 41
0.4974
 66
1
 10
0
 20
0
 30
0
  0
VERTEX
  8
LAYER_1
 10
162.4624
 20
-231.928
  0
VERTEX
  8
LAYER_1
 10
160.8377
 20
-231.928
  0
SEQEND
  0
POLYLINE
  8
LAYER_1
 40
0.4974
 41
0.4974
 66
1
 10
0
 20
0
 30
0
  0
VERTEX
  8
LAYER_1
 10
162.4624
 20
-231.4253
  0
VERTEX
  8
LAYER_1
 10
151.7151
 20
-231.4253
  0
SEQEND
  0
POLYLINE
  8
LAYER_1
 40
0.4974
 41
0.4974
 66
1
 10
0
 20
0
 30
0
  0
VERTEX
  8
LAYER_1
 10
151.7151
 20
-231.4253
  0
VERTEX
  8
LAYER_1
 10
140.9733
 20
-231.4253
  0
SEQEND
  0
POLYLINE
  8
LAYER_1
 40
0.4974
 41
0.4974
 66
1
 10
0
 20
0
 30
0
  0
VERTEX
  8
LAYER_1
 10
140.9733
 20
-231.928
  0
VERTEX
  8
LAYER_1
 10
142.5711
 20
-231.928
  0
SEQEND
  0
POLYLINE
  8
LAYER_1
 40
0.4974
 41
0.4974
 66
1
 10
0
 20
0
 30
0
  0
VERTEX
  8
LAYER_1
 10
140.9733
 20
-231.928
  0
VERTEX
  8
LAYER_1
 10
140.9733
 20
-231.4253
  0
SEQEND
  0
POLYLINE
  8
LAYER_1
 40
0.4974
 41
0.4974
 66
1
 10
0
 20
0
 30
0
  0
VERTEX
  8
LAYER_1
 10
157.8853
 20
-231.928
  0
VERTEX
  8
LAYER_1
 10
160.8377
 20
-231.928
  0
SEQEND
  0
POLYLINE
  8
LAYER_1
 40
0.4974
 41
0.4974
 66
1
 10
0
 20
0
 30
0
  0
VERTEX
  8
LAYER_1
 10
157.5359
 20
-231.928
  0
VERTEX
  8
LAYER_1
 10
154.1384
 20
-231.928
  0
SEQEND
  0
POLYLINE
  8
LAYER_1
 40
0.4974
 41
0.4974
 66
1
 10
0
 20
0
 30
0
  0
VERTEX
  8
LAYER_1
 10
153.6623
 20
-231.928
  0
VERTEX
  8
LAYER_1
 10
149.7411
 20
-231.928
  0
SEQEND
  0
POLYLINE
  8
LAYER_1
 40
0.4974
 41
0.4974
 66
1
 10
0
 20
0
 30
0
  0
VERTEX
  8
LAYER_1
 10
149.265
 20
-231.928
  0
VERTEX
  8
LAYER_1
 10
145.8681
 20
-231.928
  0
SEQEND
  0
POLYLINE
  8
LAYER_1
 40
0.4974
 41
0.4974
 66
1
 10
0
 20
0
 30
0
  0
VERTEX
  8
LAYER_1
 10
145.5188
 20
-231.928
  0
VERTEX
  8
LAYER_1
 10
142.5711
 20
-231.928
  0
SEQEND
  0
POLYLINE
  8
LAYER_1
 40
0.4974
 41
0.4974
 66
1
 10
0
 20
0
 30
0
  0
VERTEX
  8
LAYER_1
 10
43.7227
 20
-232.2032
  0
VERTEX
  8
LAYER_1
 10
44.4212
 20
-232.4781
  0
VERTEX
  8
LAYER_1
 10
45.1251
 20
-232.6528
  0
VERTEX
  8
LAYER_1
 10
45.8236
 20
-232.7004
  0
VERTEX
  8
LAYER_1
 10
45.8976
 20
-232.7004
  0
SEQEND
  0
POLYLINE
  8
LAYER_1
 40
0.4974
 41
0.4974
 66
1
 10
0
 20
0
 30
0
  0
VERTEX
  8
LAYER_1
 10
57.6134
 20
-232.7004
  0
VERTEX
  8
LAYER_1
 10
58.3172
 20
-232.6528
  0
VERTEX
  8
LAYER_1
 10
59.0157
 20
-232.4995
  0
VERTEX
  8
LAYER_1
 10
59.7142
 20
-232.2508
  0
VERTEX
  8
LAYER_1
 10
59.7883
 20
-232.2032
  0
SEQEND
  0
POLYLINE
  8
LAYER_1
 40
0.4974
 41
0.4974
 66
1
 10
0
 20
0
 30
0
  0
VERTEX
  8
LAYER_1
 10
157.5621
 20
-232.7004
  0
VERTEX
  8
LAYER_1
 10
158.2608
 20
-232.6528
  0
VERTEX
  8
LAYER_1
 10
158.965
 20
-232.4995
  0
VERTEX
  8
LAYER_1
 10
159.663
 20
-232.2508
  0
VERTEX
  8
LAYER_1
 10
159.7374
 20
-232.2032
  0
SEQEND
  0
POLYLINE
  8
LAYER_1
 40
0.4974
 41
0.4974
 66
1
 10
0
 20
0
 30
0
  0
VERTEX
  8
LAYER_1
 10
143.6715
 20
-232.2032
  0
VERTEX
  8
LAYER_1
 10
144.3702
 20
-232.4781
  0
VERTEX
  8
LAYER_1
 10
145.0688
 20
-232.6528
  0
VERTEX
  8
LAYER_1
 10
145.7675
 20
-232.7004
  0
VERTEX
  8
LAYER_1
 10
145.8467
 20
-232.7004
  0
SEQEND
  0
POLYLINE
  8
LAYER_1
 40
0.4974
 41
0.4974
 66
1
 10
0
 20
0
 30
0
  0
VERTEX
  8
LAYER_1
 10
43.7493
 20
-232.2032
  0
VERTEX
  8
LAYER_1
 10
43.273
 20
-232.0286
  0
VERTEX
  8
LAYER_1
 10
42.7967
 20
-231.9545
  0
VERTEX
  8
LAYER_1
 10
42.6486
 20
-231.9545
  0
SEQEND
  0
POLYLINE
  8
LAYER_1
 40
0.4974
 41
0.4974
 66
1
 10
0
 20
0
 30
0
  0
VERTEX
  8
LAYER_1
 10
60.889
 20
-231.9545
  0
VERTEX
  8
LAYER_1
 10
60.4127
 20
-232.002
  0
VERTEX
  8
LAYER_1
 10
59.9417
 20
-232.1502
  0
VERTEX
  8
LAYER_1
 10
59.7883
 20
-232.2032
  0
SEQEND
  0
POLYLINE
  8
LAYER_1
 40
0.4974
 41
0.4974
 66
1
 10
0
 20
0
 30
0
  0
VERTEX
  8
LAYER_1
 10
160.8377
 20
-231.9545
  0
VERTEX
  8
LAYER_1
 10
160.3616
 20
-232.002
  0
VERTEX
  8
LAYER_1
 10
159.8855
 20
-232.1502
  0
VERTEX
  8
LAYER_1
 10
159.7374
 20
-232.2032
  0
SEQEND
  0
POLYLINE
  8
LAYER_1
 40
0.4974
 41
0.4974
 66
1
 10
0
 20
0
 30
0
  0
VERTEX
  8
LAYER_1
 10
143.6929
 20
-232.2032
  0
VERTEX
  8
LAYER_1
 10
143.2223
 20
-232.0286
  0
VERTEX
  8
LAYER_1
 10
142.7455
 20
-231.9545
  0
VERTEX
  8
LAYER_1
 10
142.5973
 20
-231.9545
  0
SEQEND
  0
POLYLINE
  8
LAYER_1
 40
0.4974
 41
0.4974
 66
1
 10
0
 20
0
 30
0
  0
VERTEX
  8
LAYER_1
 10
44.2996
 20
-232.4254
  0
VERTEX
  8
LAYER_1
 10
44.3472
 20
-232.4254
  0
VERTEX
  8
LAYER_1
 10
44.3737
 20
-232.452
  0
VERTEX
  8
LAYER_1
 10
44.4212
 20
-232.4781
  0
VERTEX
  8
LAYER_1
 10
44.4741
 20
-232.4781
  0
VERTEX
  8
LAYER_1
 10
44.4953
 20
-232.4781
  0
VERTEX
  8
LAYER_1
 10
44.5484
 20
-232.4995
  0
VERTEX
  8
LAYER_1
 10
44.6488
 20
-232.4995
  0
VERTEX
  8
LAYER_1
 10
44.7494
 20
-232.4781
  0
VERTEX
  8
LAYER_1
 10
44.8234
 20
-232.4254
  0
VERTEX
  8
LAYER_1
 10
44.924
 20
-232.3779
  0
VERTEX
  8
LAYER_1
 10
45.0245
 20
-232.3035
  0
VERTEX
  8
LAYER_1
 10
45.0985
 20
-232.2294
  0
VERTEX
  8
LAYER_1
 10
45.1991
 20
-232.1502
  0
VERTEX
  8
LAYER_1
 10
45.2997
 20
-232.1026
  0
VERTEX
  8
LAYER_1
 10
45.395
 20
-232.0286
  0
VERTEX
  8
LAYER_1
 10
45.4954
 20
-231.9755
  0
VERTEX
  8
LAYER_1
 10
45.596
 20
-231.928
  0
VERTEX
  8
LAYER_1
 10
45.6489
 20
-231.928
  0
VERTEX
  8
LAYER_1
 10
45.6966
 20
-231.928
  0
VERTEX
  8
LAYER_1
 10
45.7707
 20
-231.928
  0
VERTEX
  8
LAYER_1
 10
45.8236
 20
-231.928
  0
VERTEX
  8
LAYER_1
 10
45.8976
 20
-231.928
  0
VERTEX
  8
LAYER_1
 10
45.9453
 20
-231.928
  0
VERTEX
  8
LAYER_1
 10
46.0723
 20
-231.9755
  0
VERTEX
  8
LAYER_1
 10
46.1992
 20
-232.0286
  0
VERTEX
  8
LAYER_1
 10
46.321
 20
-232.1026
  0
VERTEX
  8
LAYER_1
 10
46.448
 20
-232.1767
  0
VERTEX
  8
LAYER_1
 10
46.5698
 20
-232.2773
  0
VERTEX
  8
LAYER_1
 10
46.6967
 20
-232.3514
  0
VERTEX
  8
LAYER_1
 10
46.7973
 20
-232.452
  0
VERTEX
  8
LAYER_1
 10
46.9243
 20
-232.526
  0
VERTEX
  8
LAYER_1
 10
47.0459
 20
-232.6001
  0
VERTEX
  8
LAYER_1
 10
47.173
 20
-232.6528
  0
VERTEX
  8
LAYER_1
 10
47.3211
 20
-232.6793
  0
VERTEX
  8
LAYER_1
 10
47.3475
 20
-232.7004
  0
VERTEX
  8
LAYER_1
 10
47.3952
 20
-232.7004
  0
VERTEX
  8
LAYER_1
 10
47.4216
 20
-232.7004
  0
VERTEX
  8
LAYER_1
 10
47.4693
 20
-232.7004
  0
VERTEX
  8
LAYER_1
 10
47.4958
 20
-232.7004
  0
VERTEX
  8
LAYER_1
 10
47.5487
 20
-232.7004
  0
VERTEX
  8
LAYER_1
 10
47.5962
 20
-232.7004
  0
VERTEX
  8
LAYER_1
 10
47.6228
 20
-232.7004
  0
VERTEX
  8
LAYER_1
 10
47.6703
 20
-232.7004
  0
VERTEX
  8
LAYER_1
 10
47.6968
 20
-232.7004
  0
VERTEX
  8
LAYER_1
 10
47.7444
 20
-232.6793
  0
VERTEX
  8
LAYER_1
 10
47.8184
 20
-232.6793
  0
VERTEX
  8
LAYER_1
 10
47.919
 20
-232.6263
  0
VERTEX
  8
LAYER_1
 10
47.9984
 20
-232.6001
  0
VERTEX
  8
LAYER_1
 10
48.0937
 20
-232.5787
  0
VERTEX
  8
LAYER_1
 10
48.1731
 20
-232.526
  0
VERTEX
  8
LAYER_1
 10
48.2472
 20
-232.4781
  0
VERTEX
  8
LAYER_1
 10
48.3476
 20
-232.4254
  0
VERTEX
  8
LAYER_1
 10
48.4219
 20
-232.3779
  0
VERTEX
  8
LAYER_1
 10
48.4959
 20
-232.3248
  0
VERTEX
  8
LAYER_1
 10
48.57
 20
-232.2773
  0
VERTEX
  8
LAYER_1
 10
48.6704
 20
-232.2294
  0
VERTEX
  8
LAYER_1
 10
48.7445
 20
-232.1767
  0
VERTEX
  8
LAYER_1
 10
48.8187
 20
-232.1502
  0
VERTEX
  8
LAYER_1
 10
48.898
 20
-232.1026
  0
VERTEX
  8
LAYER_1
 10
48.9932
 20
-232.0496
  0
VERTEX
  8
LAYER_1
 10
49.0726
 20
-232.0286
  0
VERTEX
  8
LAYER_1
 10
49.1467
 20
-231.9755
  0
VERTEX
  8
LAYER_1
 10
49.2473
 20
-231.9545
  0
VERTEX
  8
LAYER_1
 10
49.3479
 20
-231.928
  0
VERTEX
  8
LAYER_1
 10
49.3689
 20
-231.928
  0
VERTEX
  8
LAYER_1
 10
49.422
 20
-231.928
  0
VERTEX
  8
LAYER_1
 10
49.4695
 20
-231.928
  0
VERTEX
  8
LAYER_1
 10
49.5224
 20
-231.928
  0
VERTEX
  8
LAYER_1
 10
49.5436
 20
-231.9014
  0
VERTEX
  8
LAYER_1
 10
49.5965
 20
-231.9014
  0
VERTEX
  8
LAYER_1
 10
49.6442
 20
-231.928
  0
VERTEX
  8
LAYER_1
 10
49.6971
 20
-231.928
  0
VERTEX
  8
LAYER_1
 10
49.7182
 20
-231.928
  0
VERTEX
  8
LAYER_1
 10
49.7711
 20
-231.928
  0
VERTEX
  8
LAYER_1
 10
49.8188
 20
-231.928
  0
VERTEX
  8
LAYER_1
 10
49.9193
 20
-231.9545
  0
VERTEX
  8
LAYER_1
 10
49.9933
 20
-231.9755
  0
VERTEX
  8
LAYER_1
 10
50.0939
 20
-232.0286
  0
VERTEX
  8
LAYER_1
 10
50.1945
 20
-232.0761
  0
VERTEX
  8
LAYER_1
 10
50.2686
 20
-232.1026
  0
VERTEX
  8
LAYER_1
 10
50.3692
 20
-232.1502
  0
VERTEX
  8
LAYER_1
 10
50.4433
 20
-232.2032
  0
VERTEX
  8
LAYER_1
 10
50.5437
 20
-232.2508
  0
VERTEX
  8
LAYER_1
 10
50.6178
 20
-232.3035
  0
VERTEX
  8
LAYER_1
 10
50.7184
 20
-232.3779
  0
VERTEX
  8
LAYER_1
 10
50.7924
 20
-232.4254
  0
VERTEX
  8
LAYER_1
 10
50.893
 20
-232.4781
  0
VERTEX
  8
LAYER_1
 10
50.9671
 20
-232.4995
  0
VERTEX
  8
LAYER_1
 10
51.0677
 20
-232.5522
  0
VERTEX
  8
LAYER_1
 10
51.1469
 20
-232.6001
  0
VERTEX
  8
LAYER_1
 10
51.2422
 20
-232.6263
  0
VERTEX
  8
LAYER_1
 10
51.3428
 20
-232.6528
  0
VERTEX
  8
LAYER_1
 10
51.4168
 20
-232.6793
  0
VERTEX
  8
LAYER_1
 10
51.5174
 20
-232.6793
  0
VERTEX
  8
LAYER_1
 10
51.5703
 20
-232.7004
  0
VERTEX
  8
LAYER_1
 10
51.5969
 20
-232.7004
  0
VERTEX
  8
LAYER_1
 10
51.6444
 20
-232.7004
  0
VERTEX
  8
LAYER_1
 10
51.6921
 20
-232.7004
  0
VERTEX
  8
LAYER_1
 10
51.7185
 20
-232.6793
  0
VERTEX
  8
LAYER_1
 10
51.7713
 20
-232.6793
  0
SEQEND
  0
POLYLINE
  8
LAYER_1
 40
0.4974
 41
0.4974
 66
1
 10
0
 20
0
 30
0
  0
VERTEX
  8
LAYER_1
 10
59.2379
 20
-232.4254
  0
VERTEX
  8
LAYER_1
 10
59.2167
 20
-232.4254
  0
VERTEX
  8
LAYER_1
 10
59.1638
 20
-232.452
  0
VERTEX
  8
LAYER_1
 10
59.1163
 20
-232.4781
  0
VERTEX
  8
LAYER_1
 10
59.0898
 20
-232.4781
  0
VERTEX
  8
LAYER_1
 10
59.0422
 20
-232.4781
  0
VERTEX
  8
LAYER_1
 10
58.9892
 20
-232.4995
  0
VERTEX
  8
LAYER_1
 10
58.8887
 20
-232.4995
  0
VERTEX
  8
LAYER_1
 10
58.8147
 20
-232.4781
  0
VERTEX
  8
LAYER_1
 10
58.7141
 20
-232.4254
  0
VERTEX
  8
LAYER_1
 10
58.6135
 20
-232.3779
  0
VERTEX
  8
LAYER_1
 10
58.5394
 20
-232.3035
  0
VERTEX
  8
LAYER_1
 10
58.439
 20
-232.2294
  0
VERTEX
  8
LAYER_1
 10
58.3384
 20
-232.1502
  0
VERTEX
  8
LAYER_1
 10
58.2431
 20
-232.1026
  0
VERTEX
  8
LAYER_1
 10
58.1637
 20
-232.0286
  0
VERTEX
  8
LAYER_1
 10
58.0631
 20
-231.9755
  0
VERTEX
  8
LAYER_1
 10
57.9415
 20
-231.928
  0
VERTEX
  8
LAYER_1
 10
57.8886
 20
-231.928
  0
VERTEX
  8
LAYER_1
 10
57.8409
 20
-231.928
  0
VERTEX
  8
LAYER_1
 10
57.7668
 20
-231.928
  0
VERTEX
  8
LAYER_1
 10
57.714
 20
-231.928
  0
VERTEX
  8
LAYER_1
 10
57.6662
 20
-231.928
  0
VERTEX
  8
LAYER_1
 10
57.5922
 20
-231.928
  0
VERTEX
  8
LAYER_1
 10
57.4652
 20
-231.9755
  0
VERTEX
  8
LAYER_1
 10
57.3434
 20
-232.0286
  0
VERTEX
  8
LAYER_1
 10
57.2165
 20
-232.1026
  0
VERTEX
  8
LAYER_1
 10
57.0895
 20
-232.1767
  0
VERTEX
  8
LAYER_1
 10
56.9678
 20
-232.2773
  0
VERTEX
  8
LAYER_1
 10
56.8673
 20
-232.3514
  0
VERTEX
  8
LAYER_1
 10
56.7402
 20
-232.452
  0
VERTEX
  8
LAYER_1
 10
56.6186
 20
-232.526
  0
VERTEX
  8
LAYER_1
 10
56.4916
 20
-232.6001
  0
VERTEX
  8
LAYER_1
 10
56.3645
 20
-232.6528
  0
VERTEX
  8
LAYER_1
 10
56.2429
 20
-232.6793
  0
VERTEX
  8
LAYER_1
 10
56.19
 20
-232.7004
  0
VERTEX
  8
LAYER_1
 10
56.1688
 20
-232.7004
  0
VERTEX
  8
LAYER_1
 10
56.1158
 20
-232.7004
  0
VERTEX
  8
LAYER_1
 10
56.0682
 20
-232.7004
  0
VERTEX
  8
LAYER_1
 10
56.0417
 20
-232.7004
  0
VERTEX
  8
LAYER_1
 10
55.9942
 20
-232.7004
  0
VERTEX
  8
LAYER_1
 10
55.9676
 20
-232.7004
  0
VERTEX
  8
LAYER_1
 10
55.9148
 20
-232.7004
  0
VERTEX
  8
LAYER_1
 10
55.8936
 20
-232.7004
  0
VERTEX
  8
LAYER_1
 10
55.8407
 20
-232.7004
  0
VERTEX
  8
LAYER_1
 10
55.7931
 20
-232.6793
  0
VERTEX
  8
LAYER_1
 10
55.7189
 20
-232.6793
  0
VERTEX
  8
LAYER_1
 10
55.6185
 20
-232.6263
  0
VERTEX
  8
LAYER_1
 10
55.5444
 20
-232.6001
  0
VERTEX
  8
LAYER_1
 10
55.4438
 20
-232.5787
  0
VERTEX
  8
LAYER_1
 10
55.3697
 20
-232.526
  0
VERTEX
  8
LAYER_1
 10
55.2903
 20
-232.4781
  0
VERTEX
  8
LAYER_1
 10
55.2163
 20
-232.4254
  0
VERTEX
  8
LAYER_1
 10
55.1157
 20
-232.3779
  0
VERTEX
  8
LAYER_1
 10
55.0416
 20
-232.3248
  0
VERTEX
  8
LAYER_1
 10
54.9675
 20
-232.2773
  0
VERTEX
  8
LAYER_1
 10
54.8935
 20
-232.2294
  0
VERTEX
  8
LAYER_1
 10
54.7929
 20
-232.1767
  0
VERTEX
  8
LAYER_1
 10
54.7188
 20
-232.1502
  0
VERTEX
  8
LAYER_1
 10
54.6447
 20
-232.1026
  0
VERTEX
  8
LAYER_1
 10
54.5653
 20
-232.0496
  0
VERTEX
  8
LAYER_1
 10
54.4702
 20
-232.0286
  0
VERTEX
  8
LAYER_1
 10
54.3908
 20
-231.9755
  0
VERTEX
  8
LAYER_1
 10
54.2902
 20
-231.9545
  0
VERTEX
  8
LAYER_1
 10
54.2162
 20
-231.928
  0
VERTEX
  8
LAYER_1
 10
54.1684
 20
-231.928
  0
VERTEX
  8
LAYER_1
 10
54.1156
 20
-231.928
  0
VERTEX
  8
LAYER_1
 10
54.0944
 20
-231.928
  0
VERTEX
  8
LAYER_1
 10
54.0415
 20
-231.928
  0
VERTEX
  8
LAYER_1
 10
53.9939
 20
-231.9014
  0
VERTEX
  8
LAYER_1
 10
53.9411
 20
-231.9014
  0
VERTEX
  8
LAYER_1
 10
53.8934
 20
-231.928
  0
VERTEX
  8
LAYER_1
 10
53.8668
 20
-231.928
  0
VERTEX
  8
LAYER_1
 10
53.8193
 20
-231.928
  0
VERTEX
  8
LAYER_1
 10
53.7664
 20
-231.928
  0
VERTEX
  8
LAYER_1
 10
53.7187
 20
-231.928
  0
VERTEX
  8
LAYER_1
 10
53.6446
 20
-231.9545
  0
VERTEX
  8
LAYER_1
 10
53.5442
 20
-231.9755
  0
VERTEX
  8
LAYER_1
 10
53.4436
 20
-232.0286
  0
VERTEX
  8
LAYER_1
 10
53.3695
 20
-232.0761
  0
VERTEX
  8
LAYER_1
 10
53.2689
 20
-232.1026
  0
VERTEX
  8
LAYER_1
 10
53.1683
 20
-232.1502
  0
VERTEX
  8
LAYER_1
 10
53.0943
 20
-232.2032
  0
VERTEX
  8
LAYER_1
 10
52.9938
 20
-232.2508
  0
VERTEX
  8
LAYER_1
 10
52.9198
 20
-232.3035
  0
VERTEX
  8
LAYER_1
 10
52.8455
 20
-232.3779
  0
VERTEX
  8
LAYER_1
 10
52.7451
 20
-232.4254
  0
VERTEX
  8
LAYER_1
 10
52.671
 20
-232.4781
  0
VERTEX
  8
LAYER_1
 10
52.5704
 20
-232.4995
  0
VERTEX
  8
LAYER_1
 10
52.491
 20
-232.5522
  0
VERTEX
  8
LAYER_1
 10
52.3958
 20
-232.6001
  0
VERTEX
  8
LAYER_1
 10
52.2953
 20
-232.6263
  0
VERTEX
  8
LAYER_1
 10
52.2213
 20
-232.6528
  0
VERTEX
  8
LAYER_1
 10
52.1207
 20
-232.6793
  0
VERTEX
  8
LAYER_1
 10
52.0201
 20
-232.6793
  0
VERTEX
  8
LAYER_1
 10
51.9672
 20
-232.7004
  0
VERTEX
  8
LAYER_1
 10
51.946
 20
-232.7004
  0
VERTEX
  8
LAYER_1
 10
51.8931
 20
-232.7004
  0
VERTEX
  8
LAYER_1
 10
51.8454
 20
-232.7004
  0
VERTEX
  8
LAYER_1
 10
51.8191
 20
-232.6793
  0
VERTEX
  8
LAYER_1
 10
51.7713
 20
-232.6793
  0
SEQEND
  0
POLYLINE
  8
LAYER_1
 40
0.4974
 41
0.4974
 66
1
 10
0
 20
0
 30
0
  0
VERTEX
  8
LAYER_1
 10
159.1868
 20
-232.4254
  0
VERTEX
  8
LAYER_1
 10
159.1393
 20
-232.4254
  0
VERTEX
  8
LAYER_1
 10
159.1131
 20
-232.452
  0
VERTEX
  8
LAYER_1
 10
159.0601
 20
-232.4781
  0
VERTEX
  8
LAYER_1
 10
159.0125
 20
-232.4781
  0
VERTEX
  8
LAYER_1
 10
158.9856
 20
-232.4781
  0
VERTEX
  8
LAYER_1
 10
158.9381
 20
-232.4995
  0
VERTEX
  8
LAYER_1
 10
158.8375
 20
-232.4995
  0
VERTEX
  8
LAYER_1
 10
158.7369
 20
-232.4781
  0
VERTEX
  8
LAYER_1
 10
158.6363
 20
-232.4254
  0
VERTEX
  8
LAYER_1
 10
158.5626
 20
-232.3779
  0
VERTEX
  8
LAYER_1
 10
158.462
 20
-232.3035
  0
VERTEX
  8
LAYER_1
 10
158.3614
 20
-232.2294
  0
VERTEX
  8
LAYER_1
 10
158.2877
 20
-232.1502
  0
VERTEX
  8
LAYER_1
 10
158.1871
 20
-232.1026
  0
VERTEX
  8
LAYER_1
 10
158.0865
 20
-232.0286
  0
VERTEX
  8
LAYER_1
 10
157.9859
 20
-231.9755
  0
VERTEX
  8
LAYER_1
 10
157.8853
 20
-231.928
  0
VERTEX
  8
LAYER_1
 10
157.8377
 20
-231.928
  0
VERTEX
  8
LAYER_1
 10
157.7633
 20
-231.928
  0
VERTEX
  8
LAYER_1
 10
157.7103
 20
-231.928
  0
VERTEX
  8
LAYER_1
 10
157.6627
 20
-231.928
  0
VERTEX
  8
LAYER_1
 10
157.589
 20
-231.928
  0
VERTEX
  8
LAYER_1
 10
157.5359
 20
-231.928
  0
VERTEX
  8
LAYER_1
 10
157.3878
 20
-231.9755
  0
VERTEX
  8
LAYER_1
 10
157.261
 20
-232.0286
  0
VERTEX
  8
LAYER_1
 10
157.1391
 20
-232.1026
  0
VERTEX
  8
LAYER_1
 10
157.0385
 20
-232.1767
  0
VERTEX
  8
LAYER_1
 10
156.9117
 20
-232.2773
  0
VERTEX
  8
LAYER_1
 10
156.7897
 20
-232.3514
  0
VERTEX
  8
LAYER_1
 10
156.663
 20
-232.452
  0
VERTEX
  8
LAYER_1
 10
156.5624
 20
-232.526
  0
VERTEX
  8
LAYER_1
 10
156.4404
 20
-232.6001
  0
VERTEX
  8
LAYER_1
 10
156.3136
 20
-232.6528
  0
VERTEX
  8
LAYER_1
 10
156.1655
 20
-232.6793
  0
VERTEX
  8
LAYER_1
 10
156.1386
 20
-232.7004
  0
VERTEX
  8
LAYER_1
 10
156.0911
 20
-232.7004
  0
VERTEX
  8
LAYER_1
 10
156.0649
 20
-232.7004
  0
VERTEX
  8
LAYER_1
 10
156.0118
 20
-232.7004
  0
VERTEX
  8
LAYER_1
 10
155.9643
 20
-232.7004
  0
VERTEX
  8
LAYER_1
 10
155.9381
 20
-232.7004
  0
VERTEX
  8
LAYER_1
 10
155.8906
 20
-232.7004
  0
VERTEX
  8
LAYER_1
 10
155.8637
 20
-232.7004
  0
VERTEX
  8
LAYER_1
 10
155.8162
 20
-232.7004
  0
VERTEX
  8
LAYER_1
 10
155.7631
 20
-232.7004
  0
VERTEX
  8
LAYER_1
 10
155.7369
 20
-232.6793
  0
VERTEX
  8
LAYER_1
 10
155.6418
 20
-232.6793
  0
VERTEX
  8
LAYER_1
 10
155.5619
 20
-232.6263
  0
VERTEX
  8
LAYER_1
 10
155.4613
 20
-232.6001
  0
VERTEX
  8
LAYER_1
 10
155.3876
 20
-232.5787
  0
VERTEX
  8
LAYER_1
 10
155.3132
 20
-232.526
  0
VERTEX
  8
LAYER_1
 10
155.2126
 20
-232.4781
  0
VERTEX
  8
LAYER_1
 10
155.1389
 20
-232.4254
  0
VERTEX
  8
LAYER_1
 10
155.0644
 20
-232.3779
  0
VERTEX
  8
LAYER_1
 10
154.9907
 20
-232.3248
  0
VERTEX
  8
LAYER_1
 10
154.8901
 20
-232.2773
  0
VERTEX
  8
LAYER_1
 10
154.8157
 20
-232.2294
  0
VERTEX
  8
LAYER_1
 10
154.742
 20
-232.1767
  0
VERTEX
  8
LAYER_1
 10
154.6627
 20
-232.1502
  0
VERTEX
  8
LAYER_1
 10
154.5621
 20
-232.1026
  0
VERTEX
  8
LAYER_1
 10
154.4877
 20
-232.0496
  0
VERTEX
  8
LAYER_1
 10
154.414
 20
-232.0286
  0
VERTEX
  8
LAYER_1
 10
154.3134
 20
-231.9755
  0
VERTEX
  8
LAYER_1
 10
154.239
 20
-231.9545
  0
VERTEX
  8
LAYER_1
 10
154.1384
 20
-231.928
  0
VERTEX
  8
LAYER_1
 10
154.1122
 20
-231.928
  0
VERTEX
  8
LAYER_1
 10
154.0647
 20
-231.928
  0
VERTEX
  8
LAYER_1
 10
154.0171
 20
-231.928
  0
VERTEX
  8
LAYER_1
 10
153.9641
 20
-231.928
  0
VERTEX
  8
LAYER_1
 10
153.9379
 20
-231.9014
  0
VERTEX
  8
LAYER_1
 10
153.8897
 20
-231.9014
  0
VERTEX
  8
LAYER_1
 10
153.8421
 20
-231.928
  0
VERTEX
  8
LAYER_1
 10
153.7898
 20
-231.928
  0
VERTEX
  8
LAYER_1
 10
153.7415
 20
-231.928
  0
VERTEX
  8
LAYER_1
 10
153.7153
 20
-231.928
  0
VERTEX
  8
LAYER_1
 10
153.6623
 20
-231.928
  0
VERTEX
  8
LAYER_1
 10
153.5672
 20
-231.9545
  0
VERTEX
  8
LAYER_1
 10
153.4666
 20
-231.9755
  0
VERTEX
  8
LAYER_1
 10
153.3929
 20
-232.0286
  0
VERTEX
  8
LAYER_1
 10
153.2923
 20
-232.0761
  0
VERTEX
  8
LAYER_1
 10
153.1917
 20
-232.1026
  0
VERTEX
  8
LAYER_1
 10
153.1173
 20
-232.1502
  0
VERTEX
  8
LAYER_1
 10
153.0167
 20
-232.2032
  0
VERTEX
  8
LAYER_1
 10
152.9429
 20
-232.2508
  0
VERTEX
  8
LAYER_1
 10
152.8637
 20
-232.3035
  0
VERTEX
  8
LAYER_1
 10
152.7631
 20
-232.3779
  0
VERTEX
  8
LAYER_1
 10
152.6887
 20
-232.4254
  0
VERTEX
  8
LAYER_1
 10
152.5881
 20
-232.4781
  0
VERTEX
  8
LAYER_1
 10
152.5144
 20
-232.4995
  0
VERTEX
  8
LAYER_1
 10
152.4138
 20
-232.5522
  0
VERTEX
  8
LAYER_1
 10
152.3187
 20
-232.6001
  0
VERTEX
  8
LAYER_1
 10
152.2388
 20
-232.6263
  0
VERTEX
  8
LAYER_1
 10
152.1382
 20
-232.6528
  0
VERTEX
  8
LAYER_1
 10
152.0431
 20
-232.6793
  0
VERTEX
  8
LAYER_1
 10
151.9639
 20
-232.6793
  0
VERTEX
  8
LAYER_1
 10
151.9163
 20
-232.7004
  0
VERTEX
  8
LAYER_1
 10
151.8688
 20
-232.7004
  0
VERTEX
  8
LAYER_1
 10
151.8419
 20
-232.7004
  0
VERTEX
  8
LAYER_1
 10
151.7895
 20
-232.7004
  0
VERTEX
  8
LAYER_1
 10
151.7413
 20
-232.6793
  0
VERTEX
  8
LAYER_1
 10
151.7151
 20
-232.6793
  0
SEQEND
  0
POLYLINE
  8
LAYER_1
 40
0.4974
 41
0.4974
 66
1
 10
0
 20
0
 30
0
  0
VERTEX
  8
LAYER_1
 10
144.222
 20
-232.4254
  0
VERTEX
  8
LAYER_1
 10
144.2696
 20
-232.4254
  0
VERTEX
  8
LAYER_1
 10
144.3171
 20
-232.452
  0
VERTEX
  8
LAYER_1
 10
144.344
 20
-232.4781
  0
VERTEX
  8
LAYER_1
 10
144.397
 20
-232.4781
  0
VERTEX
  8
LAYER_1
 10
144.4446
 20
-232.4781
  0
VERTEX
  8
LAYER_1
 10
144.4708
 20
-232.4995
  0
VERTEX
  8
LAYER_1
 10
144.5714
 20
-232.4995
  0
VERTEX
  8
LAYER_1
 10
144.672
 20
-232.4781
  0
VERTEX
  8
LAYER_1
 10
144.767
 20
-232.4254
  0
VERTEX
  8
LAYER_1
 10
144.8676
 20
-232.3779
  0
VERTEX
  8
LAYER_1
 10
144.9469
 20
-232.3035
  0
VERTEX
  8
LAYER_1
 10
145.0427
 20
-232.2294
  0
VERTEX
  8
LAYER_1
 10
145.1426
 20
-232.1502
  0
VERTEX
  8
LAYER_1
 10
145.217
 20
-232.1026
  0
VERTEX
  8
LAYER_1
 10
145.3176
 20
-232.0286
  0
VERTEX
  8
LAYER_1
 10
145.4182
 20
-231.9755
  0
VERTEX
  8
LAYER_1
 10
145.5188
 20
-231.928
  0
VERTEX
  8
LAYER_1
 10
145.5925
 20
-231.928
  0
VERTEX
  8
LAYER_1
 10
145.6455
 20
-231.928
  0
VERTEX
  8
LAYER_1
 10
145.6931
 20
-231.928
  0
VERTEX
  8
LAYER_1
 10
145.7675
 20
-231.928
  0
VERTEX
  8
LAYER_1
 10
145.8199
 20
-231.928
  0
VERTEX
  8
LAYER_1
 10
145.8681
 20
-231.928
  0
VERTEX
  8
LAYER_1
 10
146.0211
 20
-231.9755
  0
VERTEX
  8
LAYER_1
 10
146.143
 20
-232.0286
  0
VERTEX
  8
LAYER_1
 10
146.2698
 20
-232.1026
  0
VERTEX
  8
LAYER_1
 10
146.3918
 20
-232.1767
  0
VERTEX
  8
LAYER_1
 10
146.5185
 20
-232.2773
  0
VERTEX
  8
LAYER_1
 10
146.6191
 20
-232.3514
  0
VERTEX
  8
LAYER_1
 10
146.7459
 20
-232.452
  0
VERTEX
  8
LAYER_1
 10
146.8679
 20
-232.526
  0
VERTEX
  8
LAYER_1
 10
146.9946
 20
-232.6001
  0
VERTEX
  8
LAYER_1
 10
147.1166
 20
-232.6528
  0
VERTEX
  8
LAYER_1
 10
147.2434
 20
-232.6793
  0
VERTEX
  8
LAYER_1
 10
147.2916
 20
-232.7004
  0
VERTEX
  8
LAYER_1
 10
147.3178
 20
-232.7004
  0
VERTEX
  8
LAYER_1
 10
147.3708
 20
-232.7004
  0
VERTEX
  8
LAYER_1
 10
147.3915
 20
-232.7004
  0
VERTEX
  8
LAYER_1
 10
147.4446
 20
-232.7004
  0
VERTEX
  8
LAYER_1
 10
147.4921
 20
-232.7004
  0
VERTEX
  8
LAYER_1
 10
147.519
 20
-232.7004
  0
VERTEX
  8
LAYER_1
 10
147.5665
 20
-232.7004
  0
VERTEX
  8
LAYER_1
 10
147.5927
 20
-232.7004
  0
VERTEX
  8
LAYER_1
 10
147.6458
 20
-232.7004
  0
VERTEX
  8
LAYER_1
 10
147.6671
 20
-232.6793
  0
VERTEX
  8
LAYER_1
 10
147.7677
 20
-232.6793
  0
VERTEX
  8
LAYER_1
 10
147.8683
 20
-232.6263
  0
VERTEX
  8
LAYER_1
 10
147.942
 20
-232.6001
  0
VERTEX
  8
LAYER_1
 10
148.0165
 20
-232.5787
  0
VERTEX
  8
LAYER_1
 10
148.1171
 20
-232.526
  0
VERTEX
  8
LAYER_1
 10
148.1908
 20
-232.4781
  0
VERTEX
  8
LAYER_1
 10
148.27
 20
-232.4254
  0
VERTEX
  8
LAYER_1
 10
148.3658
 20
-232.3779
  0
VERTEX
  8
LAYER_1
 10
148.445
 20
-232.3248
  0
VERTEX
  8
LAYER_1
 10
148.5188
 20
-232.2773
  0
VERTEX
  8
LAYER_1
 10
148.5932
 20
-232.2294
  0
VERTEX
  8
LAYER_1
 10
148.6669
 20
-232.1767
  0
VERTEX
  8
LAYER_1
 10
148.7675
 20
-232.1502
  0
VERTEX
  8
LAYER_1
 10
148.8419
 20
-232.1026
  0
VERTEX
  8
LAYER_1
 10
148.9156
 20
-232.0496
  0
VERTEX
  8
LAYER_1
 10
149.0162
 20
-232.0286
  0
VERTEX
  8
LAYER_1
 10
149.0906
 20
-231.9755
  0
VERTEX
  8
LAYER_1
 10
149.1699
 20
-231.9545
  0
VERTEX
  8
LAYER_1
 10
149.265
 20
-231.928
  0
VERTEX
  8
LAYER_1
 10
149.318
 20
-231.928
  0
VERTEX
  8
LAYER_1
 10
149.3656
 20
-231.928
  0
VERTEX
  8
LAYER_1
 10
149.3917
 20
-231.928
  0
VERTEX
  8
LAYER_1
 10
149.44
 20
-231.928
  0
VERTEX
  8
LAYER_1
 10
149.4923
 20
-231.9014
  0
VERTEX
  8
LAYER_1
 10
149.5406
 20
-231.9014
  0
VERTEX
  8
LAYER_1
 10
149.5668
 20
-231.928
  0
VERTEX
  8
LAYER_1
 10
149.6198
 20
-231.928
  0
VERTEX
  8
LAYER_1
 10
149.6674
 20
-231.928
  0
VERTEX
  8
LAYER_1
 10
149.7149
 20
-231.928
  0
VERTEX
  8
LAYER_1
 10
149.7411
 20
-231.928
  0
VERTEX
  8
LAYER_1
 10
149.8417
 20
-231.9545
  0
VERTEX
  8
LAYER_1
 10
149.9423
 20
-231.9755
  0
VERTEX
  8
LAYER_1
 10
150.0429
 20
-232.0286
  0
VERTEX
  8
LAYER_1
 10
150.1173
 20
-232.0761
  0
VERTEX
  8
LAYER_1
 10
150.2179
 20
-232.1026
  0
VERTEX
  8
LAYER_1
 10
150.2916
 20
-232.1502
  0
VERTEX
  8
LAYER_1
 10
150.3922
 20
-232.2032
  0
VERTEX
  8
LAYER_1
 10
150.4666
 20
-232.2508
  0
VERTEX
  8
LAYER_1
 10
150.5665
 20
-232.3035
  0
VERTEX
  8
LAYER_1
 10
150.6409
 20
-232.3779
  0
VERTEX
  8
LAYER_1
 10
150.7415
 20
-232.4254
  0
VERTEX
  8
LAYER_1
 10
150.8153
 20
-232.4781
  0
VERTEX
  8
LAYER_1
 10
150.9159
 20
-232.4995
  0
VERTEX
  8
LAYER_1
 10
150.9903
 20
-232.5522
  0
VERTEX
  8
LAYER_1
 10
151.0909
 20
-232.6001
  0
VERTEX
  8
LAYER_1
 10
151.1646
 20
-232.6263
  0
VERTEX
  8
LAYER_1
 10
151.2652
 20
-232.6528
  0
VERTEX
  8
LAYER_1
 10
151.3658
 20
-232.6793
  0
VERTEX
  8
LAYER_1
 10
151.4664
 20
-232.6793
  0
VERTEX
  8
LAYER_1
 10
151.4926
 20
-232.7004
  0
VERTEX
  8
LAYER_1
 10
151.5408
 20
-232.7004
  0
VERTEX
  8
LAYER_1
 10
151.5932
 20
-232.7004
  0
VERTEX
  8
LAYER_1
 10
151.6145
 20
-232.7004
  0
VERTEX
  8
LAYER_1
 10
151.6676
 20
-232.6793
  0
VERTEX
  8
LAYER_1
 10
151.7151
 20
-232.6793
  0
SEQEND
  0
POLYLINE
  8
LAYER_1
 40
0.4974
 41
0.4974
 66
1
 10
0
 20
0
 30
0
  0
VERTEX
  8
LAYER_1
 10
61.0159
 20
-230.6791
  0
VERTEX
  8
LAYER_1
 10
42.5216
 20
-230.6791
  0
SEQEND
  0
POLYLINE
  8
LAYER_1
 40
0.4974
 41
0.4974
 66
1
 10
0
 20
0
 30
0
  0
VERTEX
  8
LAYER_1
 10
61.0159
 20
-230.6791
  0
VERTEX
  8
LAYER_1
 10
61.0159
 20
-231.4253
  0
SEQEND
  0
POLYLINE
  8
LAYER_1
 40
0.4974
 41
0.4974
 66
1
 10
0
 20
0
 30
0
  0
VERTEX
  8
LAYER_1
 10
42.5216
 20
-231.4253
  0
VERTEX
  8
LAYER_1
 10
42.5216
 20
-230.6791
  0
SEQEND
  0
POLYLINE
  8
LAYER_1
 40
0.4974
 41
0.4974
 66
1
 10
0
 20
0
 30
0
  0
VERTEX
  8
LAYER_1
 10
142.4705
 20
-230.6791
  0
VERTEX
  8
LAYER_1
 10
142.4705
 20
-231.4253
  0
SEQEND
  0
POLYLINE
  8
LAYER_1
 40
0.4974
 41
0.4974
 66
1
 10
0
 20
0
 30
0
  0
VERTEX
  8
LAYER_1
 10
160.9597
 20
-231.4253
  0
VERTEX
  8
LAYER_1
 10
160.9597
 20
-230.6791
  0
SEQEND
  0
POLYLINE
  8
LAYER_1
 40
0.4974
 41
0.4974
 66
1
 10
0
 20
0
 30
0
  0
VERTEX
  8
LAYER_1
 10
160.9597
 20
-230.6791
  0
VERTEX
  8
LAYER_1
 10
142.4705
 20
-230.6791
  0
SEQEND
  0
POLYLINE
  8
LAYER_1
 40
0.4974
 41
0.4974
 66
1
 10
0
 20
0
 30
0
  0
VERTEX
  8
LAYER_1
 10
147.2172
 20
-251.9199
  0
VERTEX
  8
LAYER_1
 10
156.1868
 20
-251.9199
  0
SEQEND
  0
POLYLINE
  8
LAYER_1
 40
0.4974
 41
0.4974
 66
1
 10
0
 20
0
 30
0
  0
VERTEX
  8
LAYER_1
 10
147.2172
 20
-251.9199
  0
VERTEX
  8
LAYER_1
 10
146.471
 20
-251.1736
  0
SEQEND
  0
POLYLINE
  8
LAYER_1
 40
0.1976
 41
0.1976
 66
1
 10
0
 20
0
 30
0
  0
VERTEX
  8
LAYER_1
 10
147.0429
 20
-251.7717
  0
VERTEX
  8
LAYER_1
 10
147.0429
 20
-236.6746
  0
SEQEND
  0
POLYLINE
  8
LAYER_1
 40
0.4974
 41
0.4974
 66
1
 10
0
 20
0
 30
0
  0
VERTEX
  8
LAYER_1
 10
146.471
 20
-236.8014
  0
VERTEX
  8
LAYER_1
 10
146.471
 20
-251.1736
  0
SEQEND
  0
POLYLINE
  8
LAYER_1
 40
0.4974
 41
0.4974
 66
1
 10
0
 20
0
 30
0
  0
VERTEX
  8
LAYER_1
 10
156.1868
 20
-251.9199
  0
VERTEX
  8
LAYER_1
 10
156.9379
 20
-251.1736
  0
SEQEND
  0
POLYLINE
  8
LAYER_1
 40
0.4974
 41
0.4974
 66
1
 10
0
 20
0
 30
0
  0
VERTEX
  8
LAYER_1
 10
156.9379
 20
-230.6791
  0
VERTEX
  8
LAYER_1
 10
156.9379
 20
-225.6786
  0
SEQEND
  0
POLYLINE
  8
LAYER_1
 40
0.1976
 41
0.1976
 66
1
 10
0
 20
0
 30
0
  0
VERTEX
  8
LAYER_1
 10
156.3612
 20
-225.6786
  0
VERTEX
  8
LAYER_1
 10
156.3612
 20
-230.6791
  0
SEQEND
  0
POLYLINE
  8
LAYER_1
 40
0.4974
 41
0.4974
 66
1
 10
0
 20
0
 30
0
  0
VERTEX
  8
LAYER_1
 10
156.9379
 20
-251.1736
  0
VERTEX
  8
LAYER_1
 10
146.471
 20
-251.1736
  0
SEQEND
  0
POLYLINE
  8
LAYER_1
 40
0.1976
 41
0.1976
 66
1
 10
0
 20
0
 30
0
  0
VERTEX
  8
LAYER_1
 10
156.3612
 20
-251.7717
  0
VERTEX
  8
LAYER_1
 10
156.3612
 20
-236.6746
  0
SEQEND
  0
POLYLINE
  8
LAYER_1
 40
0.4974
 41
0.4974
 66
1
 10
0
 20
0
 30
0
  0
VERTEX
  8
LAYER_1
 10
156.9379
 20
-236.6746
  0
VERTEX
  8
LAYER_1
 10
156.9379
 20
-251.1736
  0
SEQEND
  0
POLYLINE
  8
LAYER_1
 40
0.4974
 41
0.4974
 66
1
 10
0
 20
0
 30
0
  0
VERTEX
  8
LAYER_1
 10
146.471
 20
-230.6791
  0
VERTEX
  8
LAYER_1
 10
146.471
 20
-225.6786
  0
SEQEND
  0
POLYLINE
  8
LAYER_1
 40
0.1976
 41
0.1976
 66
1
 10
0
 20
0
 30
0
  0
VERTEX
  8
LAYER_1
 10
147.0429
 20
-225.6786
  0
VERTEX
  8
LAYER_1
 10
147.0429
 20
-230.6791
  0
SEQEND
  0
POLYLINE
  8
LAYER_1
 40
0.1976
 41
0.1976
 66
1
 10
0
 20
0
 30
0
  0
VERTEX
  8
LAYER_1
 10
47.1199
 20
-230.6791
  0
VERTEX
  8
LAYER_1
 10
47.1199
 20
-225.6786
  0
SEQEND
  0
POLYLINE
  8
LAYER_1
 40
0.4974
 41
0.4974
 66
1
 10
0
 20
0
 30
0
  0
VERTEX
  8
LAYER_1
 10
46.5486
 20
-225.6786
  0
VERTEX
  8
LAYER_1
 10
46.5486
 20
-230.6791
  0
SEQEND
  0
POLYLINE
  8
LAYER_1
 40
0.4974
 41
0.4974
 66
1
 10
0
 20
0
 30
0
  0
VERTEX
  8
LAYER_1
 10
57.0155
 20
-236.6746
  0
VERTEX
  8
LAYER_1
 10
57.0155
 20
-251.1736
  0
SEQEND
  0
POLYLINE
  8
LAYER_1
 40
0.1976
 41
0.1976
 66
1
 10
0
 20
0
 30
0
  0
VERTEX
  8
LAYER_1
 10
56.4174
 20
-251.7717
  0
VERTEX
  8
LAYER_1
 10
56.4174
 20
-236.6746
  0
SEQEND
  0
POLYLINE
  8
LAYER_1
 40
0.4974
 41
0.4974
 66
1
 10
0
 20
0
 30
0
  0
VERTEX
  8
LAYER_1
 10
57.0155
 20
-251.1736
  0
VERTEX
  8
LAYER_1
 10
46.5486
 20
-251.1736
  0
SEQEND
  0
POLYLINE
  8
LAYER_1
 40
0.1976
 41
0.1976
 66
1
 10
0
 20
0
 30
0
  0
VERTEX
  8
LAYER_1
 10
56.4174
 20
-230.6791
  0
VERTEX
  8
LAYER_1
 10
56.4174
 20
-225.6786
  0
SEQEND
  0
POLYLINE
  8
LAYER_1
 40
0.4974
 41
0.4974
 66
1
 10
0
 20
0
 30
0
  0
VERTEX
  8
LAYER_1
 10
57.0155
 20
-225.6786
  0
VERTEX
  8
LAYER_1
 10
57.0155
 20
-230.6791
  0
SEQEND
  0
POLYLINE
  8
LAYER_1
 40
0.4974
 41
0.4974
 66
1
 10
0
 20
0
 30
0
  0
VERTEX
  8
LAYER_1
 10
57.0155
 20
-251.1736
  0
VERTEX
  8
LAYER_1
 10
56.2641
 20
-251.9199
  0
SEQEND
  0
POLYLINE
  8
LAYER_1
 40
0.4974
 41
0.4974
 66
1
 10
0
 20
0
 30
0
  0
VERTEX
  8
LAYER_1
 10
46.5486
 20
-251.1736
  0
VERTEX
  8
LAYER_1
 10
46.5486
 20
-236.8014
  0
SEQEND
  0
POLYLINE
  8
LAYER_1
 40
0.1976
 41
0.1976
 66
1
 10
0
 20
0
 30
0
  0
VERTEX
  8
LAYER_1
 10
47.1199
 20
-236.6746
  0
VERTEX
  8
LAYER_1
 10
47.1199
 20
-251.7717
  0
SEQEND
  0
POLYLINE
  8
LAYER_1
 40
0.4974
 41
0.4974
 66
1
 10
0
 20
0
 30
0
  0
VERTEX
  8
LAYER_1
 10
47.2946
 20
-251.9199
  0
VERTEX
  8
LAYER_1
 10
46.5486
 20
-251.1736
  0
SEQEND
  0
POLYLINE
  8
LAYER_1
 40
0.4974
 41
0.4974
 66
1
 10
0
 20
0
 30
0
  0
VERTEX
  8
LAYER_1
 10
47.2946
 20
-251.9199
  0
VERTEX
  8
LAYER_1
 10
56.2641
 20
-251.9199
  0
SEQEND
  0
POLYLINE
  8
LAYER_1
 40
0.4974
 41
0.4974
 66
1
 10
0
 20
0
 30
0
  0
VERTEX
  8
LAYER_1
 10
147.4659
 20
-251.9199
  0
VERTEX
  8
LAYER_1
 10
147.4659
 20
-252.4225
  0
SEQEND
  0
POLYLINE
  8
LAYER_1
 40
0.4974
 41
0.4974
 66
1
 10
0
 20
0
 30
0
  0
VERTEX
  8
LAYER_1
 10
155.9643
 20
-252.4225
  0
VERTEX
  8
LAYER_1
 10
155.9643
 20
-251.9199
  0
SEQEND
  0
POLYLINE
  8
LAYER_1
 40
0.4974
 41
0.4974
 66
1
 10
0
 20
0
 30
0
  0
VERTEX
  8
LAYER_1
 10
147.0952
 20
-252.4225
  0
VERTEX
  8
LAYER_1
 10
147.0952
 20
-253.4226
  0
SEQEND
  0
POLYLINE
  8
LAYER_1
 40
0.4974
 41
0.4974
 66
1
 10
0
 20
0
 30
0
  0
VERTEX
  8
LAYER_1
 10
147.0952
 20
-252.4225
  0
VERTEX
  8
LAYER_1
 10
156.3398
 20
-252.4225
  0
SEQEND
  0
POLYLINE
  8
LAYER_1
 40
0.4974
 41
0.4974
 66
1
 10
0
 20
0
 30
0
  0
VERTEX
  8
LAYER_1
 10
156.3398
 20
-253.4226
  0
VERTEX
  8
LAYER_1
 10
147.0952
 20
-253.4226
  0
SEQEND
  0
POLYLINE
  8
LAYER_1
 40
0.4974
 41
0.4974
 66
1
 10
0
 20
0
 30
0
  0
VERTEX
  8
LAYER_1
 10
156.3398
 20
-253.4226
  0
VERTEX
  8
LAYER_1
 10
156.3398
 20
-252.4225
  0
SEQEND
  0
POLYLINE
  8
LAYER_1
 40
0.4974
 41
0.4974
 66
1
 10
0
 20
0
 30
0
  0
VERTEX
  8
LAYER_1
 10
56.391
 20
-252.4225
  0
VERTEX
  8
LAYER_1
 10
56.391
 20
-253.4226
  0
SEQEND
  0
POLYLINE
  8
LAYER_1
 40
0.4974
 41
0.4974
 66
1
 10
0
 20
0
 30
0
  0
VERTEX
  8
LAYER_1
 10
56.391
 20
-253.4226
  0
VERTEX
  8
LAYER_1
 10
47.1465
 20
-253.4226
  0
SEQEND
  0
POLYLINE
  8
LAYER_1
 40
0.4974
 41
0.4974
 66
1
 10
0
 20
0
 30
0
  0
VERTEX
  8
LAYER_1
 10
47.1465
 20
-252.4225
  0
VERTEX
  8
LAYER_1
 10
56.391
 20
-252.4225
  0
SEQEND
  0
POLYLINE
  8
LAYER_1
 40
0.4974
 41
0.4974
 66
1
 10
0
 20
0
 30
0
  0
VERTEX
  8
LAYER_1
 10
47.1465
 20
-252.4225
  0
VERTEX
  8
LAYER_1
 10
47.1465
 20
-253.4226
  0
SEQEND
  0
POLYLINE
  8
LAYER_1
 40
0.4974
 41
0.4974
 66
1
 10
0
 20
0
 30
0
  0
VERTEX
  8
LAYER_1
 10
144.222
 20
-223.7789
  0
VERTEX
  8
LAYER_1
 10
144.222
 20
-154.1191
  0
SEQEND
  0
POLYLINE
  8
LAYER_1
 40
0.4974
 41
0.4974
 66
1
 10
0
 20
0
 30
0
  0
VERTEX
  8
LAYER_1
 10
144.3702
 20
-223.9271
  0
VERTEX
  8
LAYER_1
 10
159.0601
 20
-223.9271
  0
SEQEND
  0
POLYLINE
  8
LAYER_1
 40
0.4974
 41
0.4974
 66
1
 10
0
 20
0
 30
0
  0
VERTEX
  8
LAYER_1
 10
159.0601
 20
-153.971
  0
VERTEX
  8
LAYER_1
 10
144.3702
 20
-153.971
  0
SEQEND
  0
POLYLINE
  8
LAYER_1
 40
0.4974
 41
0.4974
 66
1
 10
0
 20
0
 30
0
  0
VERTEX
  8
LAYER_1
 10
144.8463
 20
-153.971
  0
SEQEND
  0
POLYLINE
  8
LAYER_1
 40
0.4974
 41
0.4974
 66
1
 10
0
 20
0
 30
0
  0
VERTEX
  8
LAYER_1
 10
159.2137
 20
-154.1191
  0
VERTEX
  8
LAYER_1
 10
159.2137
 20
-223.7789
  0
SEQEND
  0
POLYLINE
  8
LAYER_1
 40
0.4974
 41
0.4974
 66
1
 10
0
 20
0
 30
0
  0
VERTEX
  8
LAYER_1
 10
59.2644
 20
-223.7789
  0
VERTEX
  8
LAYER_1
 10
59.2644
 20
-154.1191
  0
SEQEND
  0
POLYLINE
  8
LAYER_1
 40
0.4974
 41
0.4974
 66
1
 10
0
 20
0
 30
0
  0
VERTEX
  8
LAYER_1
 10
44.8975
 20
-153.971
  0
SEQEND
  0
POLYLINE
  8
LAYER_1
 40
0.4974
 41
0.4974
 66
1
 10
0
 20
0
 30
0
  0
VERTEX
  8
LAYER_1
 10
44.4212
 20
-153.971
  0
VERTEX
  8
LAYER_1
 10
59.1163
 20
-153.971
  0
SEQEND
  0
POLYLINE
  8
LAYER_1
 40
0.4974
 41
0.4974
 66
1
 10
0
 20
0
 30
0
  0
VERTEX
  8
LAYER_1
 10
59.1163
 20
-223.9271
  0
VERTEX
  8
LAYER_1
 10
44.4212
 20
-223.9271
  0
SEQEND
  0
POLYLINE
  8
LAYER_1
 40
0.4974
 41
0.4974
 66
1
 10
0
 20
0
 30
0
  0
VERTEX
  8
LAYER_1
 10
44.2731
 20
-223.7789
  0
VERTEX
  8
LAYER_1
 10
44.2731
 20
-154.1191
  0
SEQEND
  0
POLYLINE
  8
LAYER_1
 40
0.4974
 41
0.4974
 66
1
 10
0
 20
0
 30
0
  0
VERTEX
  8
LAYER_1
 10
144.222
 20
-223.8051
  0
VERTEX
  8
LAYER_1
 10
144.2696
 20
-223.9057
  0
VERTEX
  8
LAYER_1
 10
144.3702
 20
-223.9533
  0
SEQEND
  0
POLYLINE
  8
LAYER_1
 40
0.4974
 41
0.4974
 66
1
 10
0
 20
0
 30
0
  0
VERTEX
  8
LAYER_1
 10
144.3702
 20
-153.971
  0
VERTEX
  8
LAYER_1
 10
144.2696
 20
-154.024
  0
VERTEX
  8
LAYER_1
 10
144.222
 20
-154.1191
  0
SEQEND
  0
POLYLINE
  8
LAYER_1
 40
0.4974
 41
0.4974
 66
1
 10
0
 20
0
 30
0
  0
VERTEX
  8
LAYER_1
 10
159.2137
 20
-154.1191
  0
VERTEX
  8
LAYER_1
 10
159.1607
 20
-154.024
  0
VERTEX
  8
LAYER_1
 10
159.0601
 20
-153.971
  0
SEQEND
  0
POLYLINE
  8
LAYER_1
 40
0.4974
 41
0.4974
 66
1
 10
0
 20
0
 30
0
  0
VERTEX
  8
LAYER_1
 10
159.0601
 20
-223.9533
  0
VERTEX
  8
LAYER_1
 10
159.1607
 20
-223.9057
  0
VERTEX
  8
LAYER_1
 10
159.2137
 20
-223.8051
  0
SEQEND
  0
POLYLINE
  8
LAYER_1
 40
0.4974
 41
0.4974
 66
1
 10
0
 20
0
 30
0
  0
VERTEX
  8
LAYER_1
 10
59.1163
 20
-223.9533
  0
VERTEX
  8
LAYER_1
 10
59.2167
 20
-223.9057
  0
VERTEX
  8
LAYER_1
 10
59.2644
 20
-223.8051
  0
SEQEND
  0
POLYLINE
  8
LAYER_1
 40
0.4974
 41
0.4974
 66
1
 10
0
 20
0
 30
0
  0
VERTEX
  8
LAYER_1
 10
59.2644
 20
-154.1191
  0
VERTEX
  8
LAYER_1
 10
59.2167
 20
-154.024
  0
VERTEX
  8
LAYER_1
 10
59.1163
 20
-153.971
  0
SEQEND
  0
POLYLINE
  8
LAYER_1
 40
0.4974
 41
0.4974
 66
1
 10
0
 20
0
 30
0
  0
VERTEX
  8
LAYER_1
 10
44.4212
 20
-153.971
  0
VERTEX
  8
LAYER_1
 10
44.3208
 20
-154.024
  0
VERTEX
  8
LAYER_1
 10
44.2731
 20
-154.1191
  0
SEQEND
  0
POLYLINE
  8
LAYER_1
 40
0.4974
 41
0.4974
 66
1
 10
0
 20
0
 30
0
  0
VERTEX
  8
LAYER_1
 10
44.2731
 20
-223.8051
  0
VERTEX
  8
LAYER_1
 10
44.3208
 20
-223.9057
  0
VERTEX
  8
LAYER_1
 10
44.4212
 20
-223.9533
  0
SEQEND
  0
ENDSEC
  0
EOF
