  0
SECTION
  2
HEADER
  9
$ACADVER
  1
AC1015
  9
$ACADMAINTVER
 70
     6
  9
$DWGCODEPAGE
  3
ANSI_932
  9
$INSBASE
 10
0.0
 20
0.0
 30
0.0
  9
$EXTMIN
 10
-4.700859999999999
 20
-21.0714
 30
0.0
  9
$EXTMAX
 10
205.301
 20
275.9309999999999
 30
0.0
  9
$LIMMIN
 10
0.0
 20
0.0
  9
$LIMMAX
 10
12.0
 20
9.0
  9
$ORTHOMODE
 70
     0
  9
$REGENMODE
 70
     1
  9
$FILLMODE
 70
     1
  9
$QTEXTMODE
 70
     0
  9
$MIRRTEXT
 70
     1
  9
$LTSCALE
 40
1.0
  9
$ATTMODE
 70
     1
  9
$TEXTSIZE
 40
0.0
  9
$TRACEWID
 40
0.05
  9
$TEXTSTYLE
  7
STANDARD
  9
$CLAYER
  8
0
  9
$CELTYPE
  6
CONTINUOUS
  9
$CECOLOR
 62
   256
  9
$CELTSCALE
 40
1.0
  9
$DISPSILH
 70
     0
  9
$DIMSCALE
 40
1.0
  9
$DIMASZ
 40
0.18
  9
$DIMEXO
 40
0.0625
  9
$DIMDLI
 40
0.38
  9
$DIMRND
 40
0.0
  9
$DIMDLE
 40
0.0
  9
$DIMEXE
 40
0.18
  9
$DIMTP
 40
0.0
  9
$DIMTM
 40
0.0
  9
$DIMTXT
 40
0.18
  9
$DIMCEN
 40
0.09
  9
$DIMTSZ
 40
0.0
  9
$DIMTOL
 70
     0
  9
$DIMLIM
 70
     0
  9
$DIMTIH
 70
     1
  9
$DIMTOH
 70
     1
  9
$DIMSE1
 70
     0
  9
$DIMSE2
 70
     0
  9
$DIMTAD
 70
     0
  9
$DIMZIN
 70
     0
  9
$DIMBLK
  1

  9
$DIMASO
 70
     1
  9
$DIMSHO
 70
     1
  9
$DIMPOST
  1

  9
$DIMAPOST
  1

  9
$DIMALT
 70
     0
  9
$DIMALTD
 70
     2
  9
$DIMALTF
 40
25.4
  9
$DIMLFAC
 40
1.0
  9
$DIMTOFL
 70
     0
  9
$DIMTVP
 40
0.0
  9
$DIMTIX
 70
     0
  9
$DIMSOXD
 70
     0
  9
$DIMSAH
 70
     0
  9
$DIMBLK1
  1

  9
$DIMBLK2
  1

  9
$DIMSTYLE
  2
STANDARD
  9
$DIMCLRD
 70
     0
  9
$DIMCLRE
 70
     0
  9
$DIMCLRT
 70
     0
  9
$DIMTFAC
 40
1.0
  9
$DIMGAP
 40
0.09
  9
$DIMJUST
 70
     0
  9
$DIMSD1
 70
     0
  9
$DIMSD2
 70
     0
  9
$DIMTOLJ
 70
     1
  9
$DIMTZIN
 70
     0
  9
$DIMALTZ
 70
     0
  9
$DIMALTTZ
 70
     0
  9
$DIMUPT
 70
     0
  9
$DIMDEC
 70
     4
  9
$DIMTDEC
 70
     4
  9
$DIMALTU
 70
     2
  9
$DIMALTTD
 70
     2
  9
$DIMTXSTY
  7
STANDARD
  9
$DIMAUNIT
 70
     0
  9
$DIMADEC
 70
     0
  9
$DIMALTRND
 40
0.0
  9
$DIMAZIN
 70
     0
  9
$DIMDSEP
 70
    46
  9
$DIMATFIT
 70
     3
  9
$DIMFRAC
 70
     0
  9
$DIMLDRBLK
  1

  9
$DIMLUNIT
 70
     2
  9
$DIMLWD
 70
    -2
  9
$DIMLWE
 70
    -2
  9
$DIMTMOVE
 70
     0
  9
$LUNITS
 70
     2
  9
$LUPREC
 70
     4
  9
$SKETCHINC
 40
0.1
  9
$FILLETRAD
 40
0.0
  9
$AUNITS
 70
     0
  9
$AUPREC
 70
     0
  9
$MENU
  1
.
  9
$ELEVATION
 40
0.0
  9
$PELEVATION
 40
0.0
  9
$THICKNESS
 40
0.0
  9
$LIMCHECK
 70
     0
  9
$CHAMFERA
 40
0.0
  9
$CHAMFERB
 40
0.0
  9
$CHAMFERC
 40
0.0
  9
$CHAMFERD
 40
0.0
  9
$SKPOLY
 70
     0
  9
$TDCREATE
 40
2444972.375000000
  9
$TDUCREATE
 40
2444972.000000000
  9
$TDUPDATE
 40
2454847.591820763
  9
$TDUUPDATE
 40
2454847.216820764
  9
$TDINDWG
 40
0.0033835764
  9
$TDUSRTIMER
 40
0.0033835764
  9
$USRTIMER
 70
     1
  9
$ANGBASE
 50
0.0
  9
$ANGDIR
 70
     0
  9
$PDMODE
 70
     0
  9
$PDSIZE
 40
0.0
  9
$PLINEWID
 40
0.0
  9
$SPLFRAME
 70
     0
  9
$SPLINETYPE
 70
     6
  9
$SPLINESEGS
 70
     8
  9
$HANDSEED
  5
1CD
  9
$SURFTAB1
 70
     6
  9
$SURFTAB2
 70
     6
  9
$SURFTYPE
 70
     6
  9
$SURFU
 70
     6
  9
$SURFV
 70
     6
  9
$UCSBASE
  2

  9
$UCSNAME
  2

  9
$UCSORG
 10
0.0
 20
0.0
 30
0.0
  9
$UCSXDIR
 10
1.0
 20
0.0
 30
0.0
  9
$UCSYDIR
 10
0.0
 20
1.0
 30
0.0
  9
$UCSORTHOREF
  2

  9
$UCSORTHOVIEW
 70
     0
  9
$UCSORGTOP
 10
0.0
 20
0.0
 30
0.0
  9
$UCSORGBOTTOM
 10
0.0
 20
0.0
 30
0.0
  9
$UCSORGLEFT
 10
0.0
 20
0.0
 30
0.0
  9
$UCSORGRIGHT
 10
0.0
 20
0.0
 30
0.0
  9
$UCSORGFRONT
 10
0.0
 20
0.0
 30
0.0
  9
$UCSORGBACK
 10
0.0
 20
0.0
 30
0.0
  9
$PUCSBASE
  2

  9
$PUCSNAME
  2

  9
$PUCSORG
 10
0.0
 20
0.0
 30
0.0
  9
$PUCSXDIR
 10
1.0
 20
0.0
 30
0.0
  9
$PUCSYDIR
 10
0.0
 20
1.0
 30
0.0
  9
$PUCSORTHOREF
  2

  9
$PUCSORTHOVIEW
 70
     0
  9
$PUCSORGTOP
 10
0.0
 20
0.0
 30
0.0
  9
$PUCSORGBOTTOM
 10
0.0
 20
0.0
 30
0.0
  9
$PUCSORGLEFT
 10
0.0
 20
0.0
 30
0.0
  9
$PUCSORGRIGHT
 10
0.0
 20
0.0
 30
0.0
  9
$PUCSORGFRONT
 10
0.0
 20
0.0
 30
0.0
  9
$PUCSORGBACK
 10
0.0
 20
0.0
 30
0.0
  9
$USERI1
 70
     0
  9
$USERI2
 70
     0
  9
$USERI3
 70
     0
  9
$USERI4
 70
     0
  9
$USERI5
 70
     0
  9
$USERR1
 40
0.0
  9
$USERR2
 40
0.0
  9
$USERR3
 40
0.0
  9
$USERR4
 40
0.0
  9
$USERR5
 40
0.0
  9
$WORLDVIEW
 70
     1
  9
$SHADEDGE
 70
     3
  9
$SHADEDIF
 70
    70
  9
$TILEMODE
 70
     1
  9
$MAXACTVP
 70
    48
  9
$PINSBASE
 10
0.0
 20
0.0
 30
0.0
  9
$PLIMCHECK
 70
     0
  9
$PEXTMIN
 10
1.000000000000000E+20
 20
1.000000000000000E+20
 30
1.000000000000000E+20
  9
$PEXTMAX
 10
-1.000000000000000E+20
 20
-1.000000000000000E+20
 30
-1.000000000000000E+20
  9
$PLIMMIN
 10
0.0
 20
0.0
  9
$PLIMMAX
 10
12.0
 20
9.0
  9
$UNITMODE
 70
     0
  9
$VISRETAIN
 70
     1
  9
$PLINEGEN
 70
     0
  9
$PSLTSCALE
 70
     1
  9
$TREEDEPTH
 70
  3020
  9
$CMLSTYLE
  2
STANDARD
  9
$CMLJUST
 70
     0
  9
$CMLSCALE
 40
1.0
  9
$PROXYGRAPHICS
 70
     1
  9
$MEASUREMENT
 70
     0
  9
$CELWEIGHT
370
    -1
  9
$ENDCAPS
280
     0
  9
$JOINSTYLE
280
     0
  9
$LWDISPLAY
290
     0
  9
$INSUNITS
 70
     0
  9
$HYPERLINKBASE
  1

  9
$STYLESHEET
  1

  9
$XEDIT
290
     1
  9
$CEPSNTYPE
380
     0
  9
$PSTYLEMODE
290
     1
  9
$FINGERPRINTGUID
  2
{0481ECF2-62F9-49B4-A985-1D0AD68879A7}
  9
$VERSIONGUID
  2
{BFD22AD4-C574-49DA-9B28-6CC98E89418D}
  9
$EXTNAMES
290
     1
  9
$PSVPSCALE
 40
0.0
  9
$OLESTARTUP
290
     0
  0
ENDSEC
  0
SECTION
  2
CLASSES
  0
CLASS
  1
ACDBDICTIONARYWDFLT
  2
AcDbDictionaryWithDefault
  3
AutoCAD 2000
 90
        0
280
     0
281
     0
  0
CLASS
  1
ACDBPLACEHOLDER
  2
AcDbPlaceHolder
  3
AutoCAD 2000
 90
        0
280
     0
281
     0
  0
CLASS
  1
LAYOUT
  2
AcDbLayout
  3
AutoCAD 2000
 90
        0
280
     0
281
     0
  0
ENDSEC
  0
SECTION
  2
TABLES
  0
TABLE
  2
VPORT
  5
8
330
0
100
AcDbSymbolTable
 70
     2
  0
VPORT
  5
1CC
330
8
100
AcDbSymbolTableRecord
100
AcDbViewportTableRecord
  2
*Active
 70
     0
 10
0.0
 20
0.0
 11
1.0
 21
1.0
 12
139.9935460133633
 22
127.4297999999999
 13
0.0
 23
0.0
 14
1.0
 24
1.0
 15
0.0
 25
0.0
 16
0.0
 26
0.0
 36
1.0
 17
0.0
 27
0.0
 37
0.0
 40
299.4609429579201
 41
1.919607843137254
 42
50.0
 43
0.0
 44
0.0
 50
0.0
 51
0.0
 71
     0
 72
   100
 73
     1
 74
     1
 75
     0
 76
     0
 77
     0
 78
     0
281
     0
 65
     1
110
0.0
120
0.0
130
0.0
111
1.0
121
0.0
131
0.0
112
0.0
122
1.0
132
0.0
 79
     0
146
0.0
  0
ENDTAB
  0
TABLE
  2
LTYPE
  5
5
330
0
100
AcDbSymbolTable
 70
     2
  0
LTYPE
  5
12
330
5
100
AcDbSymbolTableRecord
100
AcDbLinetypeTableRecord
  2
BYBLOCK
 70
     0
  3

 72
    65
 73
     0
 40
0.0
  0
LTYPE
  5
13
330
5
100
AcDbSymbolTableRecord
100
AcDbLinetypeTableRecord
  2
BYLAYER
 70
     0
  3

 72
    65
 73
     0
 40
0.0
  0
LTYPE
  5
14
330
5
100
AcDbSymbolTableRecord
100
AcDbLinetypeTableRecord
  2
CONTINUOUS
 70
     0
  3
Solid line
 72
    65
 73
     0
 40
0.0
  0
LTYPE
  5
1F
330
5
100
AcDbSymbolTableRecord
100
AcDbLinetypeTableRecord
  2
AIGENLINE001
 70
     0
  3
generate AI->DXF Converter
 72
    65
 73
     4
 40
5.856144999999999
 49
3.5278
 74
     0
 49
-0.776115
 74
     0
 49
0.776115
 74
     0
 49
-0.776115
 74
     0
  0
ENDTAB
  0
TABLE
  2
LAYER
  5
2
330
0
100
AcDbSymbolTable
 70
     2
  0
LAYER
  5
E
330
2
100
AcDbSymbolTableRecord
100
AcDbLayerTableRecord
  2
0
 70
     0
 62
     7
  6
CONTINUOUS
370
    -3
390
1C4
  0
LAYER
  5
20
330
2
100
AcDbSymbolTableRecord
100
AcDbLayerTableRecord
  2
_________2
 70
     0
 62
     7
  6
CONTINUOUS
370
    -3
390
1C4
  0
ENDTAB
  0
TABLE
  2
STYLE
  5
3
330
0
100
AcDbSymbolTable
 70
     1
  0
STYLE
  5
F
330
3
100
AcDbSymbolTableRecord
100
AcDbTextStyleTableRecord
  2
STANDARD
 70
     0
 40
0.0
 41
0.0
 50
0.0
 71
     0
 42
0.0
  3
TXT
  4
BIGFONT
  0
ENDTAB
  0
TABLE
  2
VIEW
  5
6
330
0
100
AcDbSymbolTable
 70
     0
  0
ENDTAB
  0
TABLE
  2
UCS
  5
7
330
0
100
AcDbSymbolTable
 70
     0
  0
ENDTAB
  0
TABLE
  2
APPID
  5
9
330
0
100
AcDbSymbolTable
 70
     1
  0
APPID
  5
10
330
9
100
AcDbSymbolTableRecord
100
AcDbRegAppTableRecord
  2
ACAD
 70
     0
  0
ENDTAB
  0
TABLE
  2
DIMSTYLE
  5
A
330
0
100
AcDbSymbolTable
 70
     1
100
AcDbDimStyleTable
 71
     0
  0
DIMSTYLE
105
1C0
330
A
100
AcDbSymbolTableRecord
100
AcDbDimStyleTableRecord
  2
STANDARD
 70
     0
340
F
  0
ENDTAB
  0
TABLE
  2
BLOCK_RECORD
  5
1
330
0
100
AcDbSymbolTable
 70
     0
  0
BLOCK_RECORD
  5
18
330
1
100
AcDbSymbolTableRecord
100
AcDbBlockTableRecord
  2
*MODEL_SPACE
340
1C7
  0
BLOCK_RECORD
  5
15
330
1
100
AcDbSymbolTableRecord
100
AcDbBlockTableRecord
  2
*PAPER_SPACE
340
1C8
  0
ENDTAB
  0
ENDSEC
  0
SECTION
  2
BLOCKS
  0
BLOCK
  5
19
330
18
100
AcDbEntity
  8
0
100
AcDbBlockBegin
  2
*MODEL_SPACE
 70
     0
 10
0.0
 20
0.0
 30
0.0
  3
*MODEL_SPACE
  1

  0
ENDBLK
  5
1A
330
18
100
AcDbEntity
  8
0
100
AcDbBlockEnd
  0
BLOCK
  5
16
330
15
100
AcDbEntity
 67
     1
  8
0
100
AcDbBlockBegin
  2
*PAPER_SPACE
 70
     0
 10
0.0
 20
0.0
 30
0.0
  3
*PAPER_SPACE
  1

  0
ENDBLK
  5
17
330
15
100
AcDbEntity
 67
     1
  8
0
100
AcDbBlockEnd
  0
ENDSEC
  0
SECTION
  2
ENTITIES
  0
TEXT
  5
22
330
18
100
AcDbEntity
  8
0
100
AcDbText
 10
73.113366
 20
195.373
 30
0.0
 40
3.09234
  1
%%c4.8×50（樹脂プラグ%%c8×40付）
 41
0.5
 72
     2
 11
104.346
 21
195.373
 31
0.0
100
AcDbText
  0
TEXT
  5
23
330
18
100
AcDbEntity
  8
0
100
AcDbText
 10
80.83172599999999
 20
200.822
 30
0.0
 40
3.09234
  1
SUSすり割り付木ねじ
 41
0.5
 72
     2
 11
99.695
 21
200.822
 31
0.0
100
AcDbText
  0
TEXT
  5
24
330
18
100
AcDbEntity
  8
0
100
AcDbText
 10
122.4505249999999
 20
126.1029999999999
 30
0.0
 40
3.09234
  1
64
 41
0.5
 72
     1
 11
123.7389999999999
 21
126.1029999999999
 31
0.0
100
AcDbText
  0
TEXT
  5
25
330
18
100
AcDbEntity
  8
0
100
AcDbText
 10
163.1629999999999
 20
103.40144
 30
0.0
 40
3.09234
  1
%%c58
 50
90.0
 41
0.5
 72
     1
 11
163.1629999999999
 21
105.4629999999999
 31
0.0
100
AcDbText
  0
LINE
  5
26
330
18
100
AcDbEntity
  8
0
100
AcDbLine
 10
104.286
 20
199.547
 30
0.0
 11
69.41880000000001
 21
199.547
 31
0.0
  0
LINE
  5
27
330
18
100
AcDbEntity
  8
0
100
AcDbLine
 10
62.8536
 20
192.222
 30
0.0
 11
61.9436
 21
190.1209999999999
 31
0.0
  0
LINE
  5
28
330
18
100
AcDbEntity
  8
0
100
AcDbLine
 10
61.9436
 20
190.1209999999999
 30
0.0
 11
63.7822
 21
191.486
 31
0.0
  0
LINE
  5
29
330
18
100
AcDbEntity
  8
0
100
AcDbLine
 10
63.7822
 20
191.486
 30
0.0
 11
62.8536
 21
192.222
 31
0.0
  0
LINE
  5
2A
330
18
100
AcDbEntity
  8
0
100
AcDbLine
 10
61.9436
 20
190.1209999999999
 30
0.0
 11
69.41880000000001
 21
199.547
 31
0.0
  0
LINE
  5
2B
330
18
100
AcDbEntity
  8
0
100
AcDbLine
 10
65.0448
 20
98.23680000000001
 30
0.0
 11
67.0244
 21
101.665
 31
0.0
  0
LINE
  5
2C
330
18
100
AcDbEntity
  8
0
100
AcDbLine
 10
67.54940000000001
 20
102.5749999999999
 30
0.0
 11
68.9385
 21
104.98
 31
0.0
  0
ARC
  5
2D
330
18
100
AcDbEntity
  8
0
100
AcDbCircle
 10
65.677648
 20
102.8572639999999
 30
0.0
 40
1.801250999999999
100
AcDbArc
 50
309.23795
 51
329.2929189999999
  0
ARC
  5
2E
330
18
100
AcDbEntity
  8
0
100
AcDbCircle
 10
63.834385
 20
104.0796869999999
 30
0.0
 40
4.0118
100
AcDbArc
 50
327.725068
 51
342.726795
  0
ARC
  5
2F
330
18
100
AcDbEntity
  8
0
100
AcDbCircle
 10
60.098086
 20
105.387608
 30
0.0
 40
7.969172
100
AcDbArc
 50
341.723642
 51
0.5393110000000001
  0
LINE
  5
30
330
18
100
AcDbEntity
  8
0
100
AcDbLine
 10
55.58939999999999
 20
98.23680000000001
 30
0.0
 11
53.6098
 21
101.665
 31
0.0
  0
LINE
  5
31
330
18
100
AcDbEntity
  8
0
100
AcDbLine
 10
53.0848
 20
102.5749999999999
 30
0.0
 11
51.6957
 21
104.98
 31
0.0
  0
ARC
  5
32
330
18
100
AcDbEntity
  8
0
100
AcDbCircle
 10
54.956617
 20
102.8577189999999
 30
0.0
 40
1.801627999999999
100
AcDbArc
 50
210.716802
 51
230.7702499999999
  0
ARC
  5
33
330
18
100
AcDbEntity
  8
0
100
AcDbCircle
 10
56.79861899999999
 20
104.0792479999999
 30
0.0
 40
4.010641
100
AcDbArc
 50
197.2717979999999
 51
212.2779819999999
  0
ARC
  5
34
330
18
100
AcDbEntity
  8
0
100
AcDbCircle
 10
60.536603
 20
105.387253
 30
0.0
 40
7.969636999999999
100
AcDbArc
 50
179.4581469999999
 51
198.2725829999999
  0
LINE
  5
35
330
18
100
AcDbEntity
  8
0
100
AcDbLine
 10
65.0448
 20
112.6879999999999
 30
0.0
 11
67.0244
 21
109.2589999999999
 31
0.0
  0
LINE
  5
36
330
18
100
AcDbEntity
  8
0
100
AcDbLine
 10
67.54940000000001
 20
108.3499999999999
 30
0.0
 11
68.9385
 21
105.9439999999999
 31
0.0
  0
ARC
  5
37
330
18
100
AcDbEntity
  8
0
100
AcDbCircle
 10
65.681772
 20
108.0703379999999
 30
0.0
 40
1.796277999999999
100
AcDbArc
 50
30.697612
 51
50.802331
  0
ARC
  5
38
330
18
100
AcDbEntity
  8
0
100
AcDbCircle
 10
63.837128
 20
106.846277
 30
0.0
 40
4.008862999999999
100
AcDbArc
 50
17.270216
 51
32.281869
  0
ARC
  5
39
330
18
100
AcDbEntity
  8
0
100
AcDbCircle
 10
60.098158
 20
105.5373059999999
 30
0.0
 40
7.969096
100
AcDbArc
 50
359.463007
 51
18.276376
  0
LINE
  5
3A
330
18
100
AcDbEntity
  8
0
100
AcDbLine
 10
55.58939999999999
 20
112.6879999999999
 30
0.0
 11
53.6098
 21
109.2589999999999
 31
0.0
  0
LINE
  5
3B
330
18
100
AcDbEntity
  8
0
100
AcDbLine
 10
53.0848
 20
108.3499999999999
 30
0.0
 11
51.6957
 21
105.9439999999999
 31
0.0
  0
ARC
  5
3C
330
18
100
AcDbEntity
  8
0
100
AcDbCircle
 10
60.31728499999999
 20
105.54907
 30
0.0
 40
4.577056999999999
100
AcDbArc
 50
243.2226899999999
 51
296.777329
  0
ARC
  5
3D
330
18
100
AcDbEntity
  8
0
100
AcDbCircle
 10
60.31728499999999
 20
105.376858
 30
0.0
 40
4.576439999999999
100
AcDbArc
 50
63.21877700000001
 51
116.781203
  0
ARC
  5
3E
330
18
100
AcDbEntity
  8
0
100
AcDbCircle
 10
60.31745799999999
 20
105.4626199999999
 30
0.0
 40
7.000299
100
AcDbArc
 50
214.8460519999999
 51
304.8460229999999
  0
ARC
  5
3F
330
18
100
AcDbEntity
  8
0
100
AcDbCircle
 10
60.293577
 20
105.484222
 30
0.0
 40
7.031675999999999
100
AcDbArc
 50
304.905149
 51
325.1174849999999
  0
ARC
  5
40
330
18
100
AcDbEntity
  8
0
100
AcDbCircle
 10
54.95249300000001
 20
108.0698839999999
 30
0.0
 40
1.796654999999999
100
AcDbArc
 50
129.1894719999999
 51
149.2926629999999
  0
ARC
  5
41
330
18
100
AcDbEntity
  8
0
100
AcDbCircle
 10
56.795878
 20
106.8467159999999
 30
0.0
 40
4.007705999999999
100
AcDbArc
 50
147.7150799999999
 51
162.73119
  0
ARC
  5
42
330
18
100
AcDbEntity
  8
0
100
AcDbCircle
 10
60.53653
 20
105.537662
 30
0.0
 40
7.969560999999999
100
AcDbArc
 50
161.7273989999999
 51
180.5395349999999
  0
ARC
  5
43
330
18
100
AcDbEntity
  8
0
100
AcDbCircle
 10
60.25072900000001
 20
105.089918
 30
0.0
 40
7.272391
100
AcDbArc
 50
36.95903799999999
 51
122.7394429999999
  0
ARC
  5
44
330
18
100
AcDbEntity
  8
0
100
AcDbCircle
 10
60.32393
 20
105.453875
 30
0.0
 40
7.010606
100
AcDbArc
 50
124.851812
 51
145.125534
  0
ARC
  5
45
330
18
100
AcDbEntity
  8
0
100
AcDbCircle
 10
60.317455
 20
105.4626169999999
 30
0.0
 40
12.749692
100
AcDbArc
 50
0.00001
 51
89.99998000000001
  0
ARC
  5
46
330
18
100
AcDbEntity
  8
0
100
AcDbCircle
 10
60.317115
 20
105.462272
 30
0.0
 40
12.750037
100
AcDbArc
 50
89.99845200000001
 51
179.9984219999999
  0
ARC
  5
47
330
18
100
AcDbEntity
  8
0
100
AcDbCircle
 10
60.317455
 20
105.4626169999999
 30
0.0
 40
12.750377
100
AcDbArc
 50
179.9999699999999
 51
270.00002
  0
ARC
  5
48
330
18
100
AcDbEntity
  8
0
100
AcDbCircle
 10
60.31711099999999
 20
105.4622759999999
 30
0.0
 40
12.750037
100
AcDbArc
 50
270.001568
 51
0.001538
  0
ARC
  5
49
330
18
100
AcDbEntity
  8
0
100
AcDbCircle
 10
52.554033
 20
105.462619
 30
0.0
 40
0.984219
100
AcDbArc
 50
150.702134
 51
209.2978659999999
  0
LINE
  5
4A
330
18
100
AcDbEntity
  8
0
100
AcDbLine
 10
64.21040000000001
 20
113.169
 30
0.0
 11
56.4238
 21
113.169
 31
0.0
  0
ARC
  5
4B
330
18
100
AcDbEntity
  8
0
100
AcDbCircle
 10
56.434739
 20
112.186762
 30
0.0
 40
0.9826450000000001
100
AcDbArc
 50
90.63864
 51
149.349185
  0
ARC
  5
4C
330
18
100
AcDbEntity
  8
0
100
AcDbCircle
 10
64.199258
 20
112.1863639999999
 30
0.0
 40
0.983045
100
AcDbArc
 50
30.66390399999999
 51
89.348232
  0
ARC
  5
4D
330
18
100
AcDbEntity
  8
0
100
AcDbCircle
 10
68.09905500000001
 20
105.4642179999999
 30
0.0
 40
0.9683129999999998
100
AcDbArc
 50
330.063508
 51
359.905369
  0
ARC
  5
4E
330
18
100
AcDbEntity
  8
0
100
AcDbCircle
 10
68.099839
 20
105.46123
 30
0.0
 40
0.967528
100
AcDbArc
 50
0.082245
 51
29.948878
  0
LINE
  5
4F
330
18
100
AcDbEntity
  8
0
100
AcDbLine
 10
56.4238
 20
97.7552
 30
0.0
 11
64.21040000000001
 21
97.7552
 31
0.0
  0
ARC
  5
50
330
18
100
AcDbEntity
  8
0
100
AcDbCircle
 10
56.435132
 20
98.73846800000002
 30
0.0
 40
0.9833309999999999
100
AcDbArc
 50
210.673288
 51
269.338888
  0
ARC
  5
51
330
18
100
AcDbEntity
  8
0
100
AcDbCircle
 10
64.19910300000001
 20
98.73845300000001
 30
0.0
 40
0.9833159999999999
100
AcDbArc
 50
270.660636
 51
329.327228
  0
LINE
  5
52
330
18
100
AcDbEntity
  8
0
100
AcDbLine
 10
66.81740000000001
 20
101.462
 30
0.0
 11
53.8172
 21
101.462
 31
0.0
  0
LINE
  5
53
330
18
100
AcDbEntity
  8
0
100
AcDbLine
 10
64.5674
 20
109.462
 30
0.0
 11
64.5674
 21
101.462
 31
0.0
  0
LINE
  5
54
330
18
100
AcDbEntity
  8
0
100
AcDbLine
 10
56.0672
 20
109.462
 30
0.0
 11
56.0672
 21
101.462
 31
0.0
  0
LINE
  5
55
330
18
100
AcDbEntity
  8
0
  6
AIGENLINE001
100
AcDbLine
 10
60.3175
 20
122.53
 30
0.0
 11
60.3175
 21
88.21429999999999
 31
0.0
  0
LINE
  5
56
330
18
100
AcDbEntity
  8
0
  6
AIGENLINE001
100
AcDbLine
 10
43.3265
 20
105.4629999999999
 30
0.0
 11
77.48789999999999
 21
105.4629999999999
 31
0.0
  0
LINE
  5
57
330
18
100
AcDbEntity
  8
0
100
AcDbLine
 10
66.81740000000001
 20
109.462
 30
0.0
 11
53.8172
 21
109.462
 31
0.0
  0
ARC
  5
58
330
18
100
AcDbEntity
  8
0
100
AcDbCircle
 10
60.317455
 20
105.4626159999999
 30
0.0
 40
14.499812
100
AcDbArc
 50
0.00001
 51
89.99998000000001
  0
ARC
  5
59
330
18
100
AcDbEntity
  8
0
100
AcDbCircle
 10
60.31711600000001
 20
105.462272
 30
0.0
 40
14.500157
100
AcDbArc
 50
89.99863899999999
 51
179.998609
  0
ARC
  5
5A
330
18
100
AcDbEntity
  8
0
100
AcDbCircle
 10
60.317455
 20
105.4626159999999
 30
0.0
 40
14.500496
100
AcDbArc
 50
179.9999699999999
 51
270.00002
  0
ARC
  5
5B
330
18
100
AcDbEntity
  8
0
100
AcDbCircle
 10
60.31711099999999
 20
105.4622769999999
 30
0.0
 40
14.500157
100
AcDbArc
 50
270.0013809999999
 51
0.001351
  0
LINE
  5
5C
330
18
100
AcDbEntity
  8
0
100
AcDbLine
 10
110.107
 20
124.6879999999999
 30
0.0
 11
107.896
 21
125.2809999999999
 31
0.0
  0
LINE
  5
5D
330
18
100
AcDbEntity
  8
0
100
AcDbLine
 10
107.896
 20
125.2809999999999
 30
0.0
 11
110.107
 21
125.8739999999999
 31
0.0
  0
LINE
  5
5E
330
18
100
AcDbEntity
  8
0
100
AcDbLine
 10
110.107
 20
125.8739999999999
 30
0.0
 11
110.107
 21
124.6879999999999
 31
0.0
  0
LINE
  5
5F
330
18
100
AcDbEntity
  8
0
100
AcDbLine
 10
137.685
 20
125.8589999999999
 30
0.0
 11
139.897
 21
125.267
 31
0.0
  0
LINE
  5
60
330
18
100
AcDbEntity
  8
0
100
AcDbLine
 10
139.897
 20
125.267
 30
0.0
 11
137.685
 21
124.6739999999999
 31
0.0
  0
LINE
  5
61
330
18
100
AcDbEntity
  8
0
100
AcDbLine
 10
137.685
 20
124.6739999999999
 30
0.0
 11
137.685
 21
125.8589999999999
 31
0.0
  0
LINE
  5
62
330
18
100
AcDbEntity
  8
0
100
AcDbLine
 10
107.896
 20
125.267
 30
0.0
 11
139.896
 21
125.267
 31
0.0
  0
ARC
  5
63
330
18
100
AcDbEntity
  8
0
100
AcDbCircle
 10
60.31541800000001
 20
176.489454
 30
0.0
 40
9.930953
100
AcDbArc
 50
257.4743329999999
 51
270.0117749999999
  0
ARC
  5
64
330
18
100
AcDbEntity
  8
0
100
AcDbCircle
 10
59.33409499999999
 20
171.8190129999999
 30
0.0
 40
5.159139999999999
100
AcDbArc
 50
243.791481
 51
256.864119
  0
ARC
  5
65
330
18
100
AcDbEntity
  8
0
100
AcDbCircle
 10
57.95536999999999
 20
168.959462
 30
0.0
 40
1.984841999999999
100
AcDbArc
 50
222.7349069999999
 51
243.0435569999999
  0
ARC
  5
66
330
18
100
AcDbEntity
  8
0
100
AcDbCircle
 10
57.062123
 20
168.0994409999999
 30
0.0
 40
0.745571
100
AcDbArc
 50
183.1474879999999
 51
220.773137
  0
ARC
  5
67
330
18
100
AcDbEntity
  8
0
100
AcDbCircle
 10
56.93609699999999
 20
168.056535
 30
0.0
 40
0.618424
100
AcDbArc
 50
146.550971
 51
179.817537
  0
ARC
  5
68
330
18
100
AcDbEntity
  8
0
100
AcDbCircle
 10
57.322935
 20
167.8277459999999
 30
0.0
 40
1.067533
100
AcDbArc
 50
132.9825959999999
 51
147.749352
  0
ARC
  5
69
330
18
100
AcDbEntity
  8
0
100
AcDbCircle
 10
57.81777099999999
 20
167.301034
 30
0.0
 40
1.790224999999999
100
AcDbArc
 50
121.89326
 51
133.07549
  0
ARC
  5
6A
330
18
100
AcDbEntity
  8
0
100
AcDbCircle
 10
58.463449
 20
166.276196
 30
0.0
 40
3.001491
100
AcDbArc
 50
113.5996459999999
 51
122.021947
  0
ARC
  5
6B
330
18
100
AcDbEntity
  8
0
100
AcDbCircle
 10
59.398452
 20
164.0982179999999
 30
0.0
 40
5.371658
100
AcDbArc
 50
100.130892
 51
113.438206
  0
ARC
  5
6C
330
18
100
AcDbEntity
  8
0
100
AcDbCircle
 10
60.244882
 20
160.180731
 30
0.0
 40
9.378057999999999
100
AcDbArc
 50
89.556582
 51
101.011655
  0
ARC
  5
6D
330
18
100
AcDbEntity
  8
0
100
AcDbCircle
 10
60.31947800000001
 20
159.618445
 30
0.0
 40
9.940063999999999
100
AcDbArc
 50
77.48465899999999
 51
90.01163400000001
  0
ARC
  5
6E
330
18
100
AcDbEntity
  8
0
100
AcDbCircle
 10
61.301714
 20
164.297157
 30
0.0
 40
5.159968
100
AcDbArc
 50
63.80145400000001
 51
76.874105
  0
ARC
  5
6F
330
18
100
AcDbEntity
  8
0
100
AcDbCircle
 10
62.680629
 20
167.158226
 30
0.0
 40
1.984218999999999
100
AcDbArc
 50
42.73496399999999
 51
63.05485200000001
  0
ARC
  5
70
330
18
100
AcDbEntity
  8
0
100
AcDbCircle
 10
63.57317099999999
 20
168.0176439999999
 30
0.0
 40
0.745876
100
AcDbArc
 50
3.140379999999999
 51
40.77146099999999
  0
ARC
  5
71
330
18
100
AcDbEntity
  8
0
100
AcDbCircle
 10
63.700383
 20
168.060483
 30
0.0
 40
0.6175480000000001
100
AcDbArc
 50
326.5202429999999
 51
359.8164509999999
  0
ARC
  5
72
330
18
100
AcDbEntity
  8
0
100
AcDbCircle
 10
63.31229699999999
 20
168.2901989999999
 30
0.0
 40
1.0682
100
AcDbArc
 50
312.9694489999999
 51
327.7262819999999
  0
ARC
  5
73
330
18
100
AcDbEntity
  8
0
100
AcDbCircle
 10
62.81699200000001
 20
168.8178419999999
 30
0.0
 40
1.791891999999999
100
AcDbArc
 50
301.8849
 51
313.0582569999999
  0
ARC
  5
74
330
18
100
AcDbEntity
  8
0
100
AcDbCircle
 10
62.17026099999999
 20
169.844535
 30
0.0
 40
3.005288999999999
100
AcDbArc
 50
293.6015009999999
 51
302.0151559999999
  0
ARC
  5
75
330
18
100
AcDbEntity
  8
0
100
AcDbCircle
 10
61.234917
 20
172.0241279999999
 30
0.0
 40
5.377073
100
AcDbArc
 50
280.139029
 51
293.435859
  0
ARC
  5
76
330
18
100
AcDbEntity
  8
0
100
AcDbCircle
 10
60.390024
 20
175.930533
 30
0.0
 40
9.372313
100
AcDbArc
 50
269.5563879999999
 51
281.0195399999999
  0
ARC
  5
77
330
18
100
AcDbEntity
  8
0
100
AcDbCircle
 10
53.57193299999999
 20
169.0675709999999
 30
0.0
 40
2.509072999999999
100
AcDbArc
 50
235.5747569999999
 51
269.905257
  0
ARC
  5
78
330
18
100
AcDbEntity
  8
0
100
AcDbCircle
 10
53.059484
 20
168.2246
 30
0.0
 40
1.524985
100
AcDbArc
 50
197.8852419999999
 51
233.550897
  0
ARC
  5
79
330
18
100
AcDbEntity
  8
0
100
AcDbCircle
 10
52.71422199999999
 20
168.058858
 30
0.0
 40
1.146673
100
AcDbArc
 50
180.0176899999999
 51
195.301154
  0
ARC
  5
7A
330
18
100
AcDbEntity
  8
0
100
AcDbCircle
 10
52.763706
 20
168.054457
 30
0.0
 40
1.196164
100
AcDbArc
 50
141.115451
 51
179.806092
  0
ARC
  5
7B
330
18
100
AcDbEntity
  8
0
100
AcDbCircle
 10
53.255847
 20
167.689387
 30
0.0
 40
1.808595999999999
100
AcDbArc
 50
107.8759399999999
 51
141.9001199999999
  0
ARC
  5
7C
330
18
100
AcDbEntity
  8
0
100
AcDbCircle
 10
53.552448
 20
167.031698
 30
0.0
 40
2.526857
100
AcDbArc
 50
89.65225
 51
109.699286
  0
ARC
  5
7D
330
18
100
AcDbEntity
  8
0
100
AcDbCircle
 10
53.563639
 20
167.049349
 30
0.0
 40
2.509163
100
AcDbArc
 50
55.58581
 51
89.90534999999999
  0
ARC
  5
7E
330
18
100
AcDbEntity
  8
0
100
AcDbCircle
 10
54.076405
 20
167.893783
 30
0.0
 40
1.523692
100
AcDbArc
 50
17.854278
 51
53.54609
  0
ARC
  5
7F
330
18
100
AcDbEntity
  8
0
100
AcDbCircle
 10
54.418962
 20
168.0582349999999
 30
0.0
 40
1.148368
100
AcDbArc
 50
0.01343
 51
15.283654
  0
ARC
  5
80
330
18
100
AcDbEntity
  8
0
100
AcDbCircle
 10
54.37140600000001
 20
168.062569
 30
0.0
 40
1.195929999999999
100
AcDbArc
 50
321.124665
 51
359.8052959999999
  0
ARC
  5
81
330
18
100
AcDbEntity
  8
0
100
AcDbCircle
 10
53.878941
 20
168.4274049999999
 30
0.0
 40
1.808475999999999
100
AcDbArc
 50
287.898838
 51
321.918485
  0
ARC
  5
82
330
18
100
AcDbEntity
  8
0
100
AcDbCircle
 10
53.583115
 20
169.0826889999999
 30
0.0
 40
2.524235
100
AcDbArc
 50
269.6520069999999
 51
289.7176079999999
  0
ARC
  5
83
330
18
100
AcDbEntity
  8
0
100
AcDbCircle
 10
53.208035
 20
167.9162049999999
 30
0.0
 40
1.608066999999999
100
AcDbArc
 50
202.2348819999999
 51
268.996219
  0
ARC
  5
84
330
18
100
AcDbEntity
  8
0
100
AcDbCircle
 10
53.425885
 20
168.0439279999999
 30
0.0
 40
1.858392999999999
100
AcDbArc
 50
179.5505679999999
 51
203.338395
  0
ARC
  5
85
330
18
100
AcDbEntity
  8
0
100
AcDbCircle
 10
53.208035
 20
168.200804
 30
0.0
 40
1.608066999999999
100
AcDbArc
 50
91.003781
 51
157.765118
  0
ARC
  5
86
330
18
100
AcDbEntity
  8
0
100
AcDbCircle
 10
53.425885
 20
168.073081
 30
0.0
 40
1.858392999999999
100
AcDbArc
 50
156.661605
 51
180.449432
  0
LINE
  5
87
330
18
100
AcDbEntity
  8
0
100
AcDbLine
 10
60.3175
 20
166.3079999999999
 30
0.0
 11
53.1799
 21
166.3079999999999
 31
0.0
  0
LINE
  5
88
330
18
100
AcDbEntity
  8
0
100
AcDbLine
 10
60.3175
 20
169.809
 30
0.0
 11
53.1799
 21
169.809
 31
0.0
  0
ARC
  5
89
330
18
100
AcDbEntity
  8
0
100
AcDbCircle
 10
67.063675
 20
169.066447
 30
0.0
 40
2.507948999999999
100
AcDbArc
 50
270.0947199999999
 51
304.433217
  0
ARC
  5
8A
330
18
100
AcDbEntity
  8
0
100
AcDbCircle
 10
67.57575200000001
 20
168.22402
 30
0.0
 40
1.524532999999999
100
AcDbArc
 50
306.462799
 51
342.1322069999999
  0
ARC
  5
8B
330
18
100
AcDbEntity
  8
0
100
AcDbCircle
 10
67.920123
 20
168.058817
 30
0.0
 40
1.147244
100
AcDbArc
 50
344.7088129999999
 51
359.984412
  0
ARC
  5
8C
330
18
100
AcDbEntity
  8
0
100
AcDbCircle
 10
67.870604
 20
168.054457
 30
0.0
 40
1.19677
100
AcDbArc
 50
0.193792
 51
38.86114899999999
  0
ARC
  5
8D
330
18
100
AcDbEntity
  8
0
100
AcDbCircle
 10
67.37973499999999
 20
167.6904509999999
 30
0.0
 40
1.807550999999999
100
AcDbArc
 50
38.082984
 51
72.116905
  0
ARC
  5
8E
330
18
100
AcDbEntity
  8
0
100
AcDbCircle
 10
67.08321999999999
 20
167.032814
 30
0.0
 40
2.525741999999999
100
AcDbArc
 50
70.296275
 51
90.349321
  0
ARC
  5
8F
330
18
100
AcDbEntity
  8
0
100
AcDbCircle
 10
67.07196899999999
 20
167.048224
 30
0.0
 40
2.510288
100
AcDbArc
 50
90.094673
 51
124.406219
  0
ARC
  5
90
330
18
100
AcDbEntity
  8
0
100
AcDbCircle
 10
66.55883100000001
 20
167.893203
 30
0.0
 40
1.524145
100
AcDbArc
 50
126.4402139999999
 51
162.128274
  0
ARC
  5
91
330
18
100
AcDbEntity
  8
0
100
AcDbCircle
 10
66.21538199999999
 20
168.0581939999999
 30
0.0
 40
1.147796999999999
100
AcDbArc
 50
164.706384
 51
179.984472
  0
ARC
  5
92
330
18
100
AcDbEntity
  8
0
100
AcDbCircle
 10
66.26290400000001
 20
168.062569
 30
0.0
 40
1.195324999999999
100
AcDbArc
 50
180.1948199999999
 51
218.8987409999999
  0
ARC
  5
93
330
18
100
AcDbEntity
  8
0
100
AcDbCircle
 10
66.756641
 20
168.428469
 30
0.0
 40
1.809522
100
AcDbArc
 50
218.0984099999999
 51
252.10832
  0
ARC
  5
94
330
18
100
AcDbEntity
  8
0
100
AcDbCircle
 10
67.052552
 20
169.083804
 30
0.0
 40
2.525349
100
AcDbArc
 50
250.286834
 51
270.346422
  0
ARC
  5
95
330
18
100
AcDbEntity
  8
0
100
AcDbCircle
 10
67.42688100000001
 20
167.9162049999999
 30
0.0
 40
1.608066999999999
100
AcDbArc
 50
271.0038009999999
 51
337.7651379999999
  0
ARC
  5
96
330
18
100
AcDbEntity
  8
0
100
AcDbCircle
 10
67.209027
 20
168.0439289999999
 30
0.0
 40
1.858395999999999
100
AcDbArc
 50
336.6616439999999
 51
0.4493930000000001
  0
ARC
  5
97
330
18
100
AcDbEntity
  8
0
100
AcDbCircle
 10
67.42688100000001
 20
168.200804
 30
0.0
 40
1.608066999999999
100
AcDbArc
 50
22.23486199999999
 51
88.99619900000001
  0
ARC
  5
98
330
18
100
AcDbEntity
  8
0
100
AcDbCircle
 10
67.209027
 20
168.073081
 30
0.0
 40
1.858395999999999
100
AcDbArc
 50
359.5506069999999
 51
23.338356
  0
ARC
  5
99
330
18
100
AcDbEntity
  8
0
100
AcDbCircle
 10
63.264077
 20
166.3109629999999
 30
0.0
 40
4.053170999999999
100
AcDbArc
 50
333.484979
 51
359.963552
  0
ARC
  5
9A
330
18
100
AcDbEntity
  8
0
100
AcDbCircle
 10
64.397348
 20
165.8728919999999
 30
0.0
 40
2.845812
100
AcDbArc
 50
278.489495
 51
331.190468
  0
ARC
  5
9B
330
18
100
AcDbEntity
  8
0
100
AcDbCircle
 10
57.37083199999999
 20
166.310962
 30
0.0
 40
4.053164999999999
100
AcDbArc
 50
180.036448
 51
206.5150599999999
  0
ARC
  5
9C
330
18
100
AcDbEntity
  8
0
100
AcDbCircle
 10
56.23756700000001
 20
165.8728919999999
 30
0.0
 40
2.845812
100
AcDbArc
 50
208.8095519999999
 51
261.5105249999999
  0
LINE
  5
9D
330
18
100
AcDbEntity
  8
0
100
AcDbLine
 10
67.3179
 20
169.809
 30
0.0
 11
67.3179
 21
171.059
 31
0.0
  0
LINE
  5
9E
330
18
100
AcDbEntity
  8
0
100
AcDbLine
 10
53.3177
 20
169.809
 30
0.0
 11
53.3177
 21
171.059
 31
0.0
  0
LINE
  5
9F
330
18
100
AcDbEntity
  8
0
100
AcDbLine
 10
60.3175
 20
166.3079999999999
 30
0.0
 11
67.4551
 21
166.3079999999999
 31
0.0
  0
LINE
  5
A0
330
18
100
AcDbEntity
  8
0
100
AcDbLine
 10
60.3175
 20
169.809
 30
0.0
 11
67.4551
 21
169.809
 31
0.0
  0
ARC
  5
A1
330
18
100
AcDbEntity
  8
0
100
AcDbCircle
 10
134.711343
 20
100.1096329999999
 30
0.0
 40
3.500713999999999
100
AcDbArc
 50
242.125097
 51
255.285222
  0
ARC
  5
A2
330
18
100
AcDbEntity
  8
0
100
AcDbCircle
 10
133.8189689999999
 20
98.34017500000001
 30
0.0
 40
1.519829999999999
100
AcDbArc
 50
216.244155
 51
240.6748549999999
  0
ARC
  5
A3
330
18
100
AcDbEntity
  8
0
100
AcDbCircle
 10
133.537498
 20
98.08372
 30
0.0
 40
1.141913999999999
100
AcDbArc
 50
178.7479379999999
 51
214.2156899999999
  0
ARC
  5
A4
330
18
100
AcDbEntity
  8
0
100
AcDbCircle
 10
137.898962
 20
94.290123
 30
0.0
 40
1.577886
100
AcDbArc
 50
249.2726569999999
 51
269.9044489999999
  0
ARC
  5
A5
330
18
100
AcDbEntity
  8
0
100
AcDbCircle
 10
138.139552
 20
95.012603
 30
0.0
 40
2.338954
100
AcDbArc
 50
194.9301179999999
 51
250.0243189999999
  0
ARC
  5
A6
330
18
100
AcDbEntity
  8
0
100
AcDbCircle
 10
131.7668969999999
 20
93.30450500000001
 30
0.0
 40
4.258649
100
AcDbArc
 50
15.045532
 51
33.723215
  0
ARC
  5
A7
330
18
100
AcDbEntity
  8
0
100
AcDbCircle
 10
132.9980879999999
 20
93.98708799999999
 30
0.0
 40
2.858022
100
AcDbArc
 50
36.045554
 51
73.24213199999999
  0
ARC
  5
A8
330
18
100
AcDbEntity
  8
0
100
AcDbCircle
 10
116.525126
 20
102.218231
 30
0.0
 40
1.267724999999999
100
AcDbArc
 50
105.3368899999999
 51
115.0609199999999
  0
ARC
  5
A9
330
18
100
AcDbEntity
  8
0
100
AcDbCircle
 10
116.885725
 20
100.955265
 30
0.0
 40
2.581125999999999
100
AcDbArc
 50
97.037361
 51
105.6412139999999
  0
ARC
  5
AA
330
18
100
AcDbEntity
  8
0
100
AcDbCircle
 10
117.1545979999999
 20
98.831675
 30
0.0
 40
4.721663999999999
100
AcDbArc
 50
73.832667
 51
97.11832999999998
  0
ARC
  5
AB
330
18
100
AcDbEntity
  8
0
100
AcDbCircle
 10
115.361809
 20
104.5523289999999
 30
0.0
 40
1.340978
100
AcDbArc
 50
267.880289
 51
297.844355
  0
ARC
  5
AC
330
18
100
AcDbEntity
  8
0
100
AcDbCircle
 10
119.143451
 20
105.2984139999999
 30
0.0
 40
2.086146999999999
100
AcDbArc
 50
262.4045839999999
 51
270.068239
  0
ARC
  5
AD
330
18
100
AcDbEntity
  8
0
100
AcDbCircle
 10
119.060354
 20
104.4461129999999
 30
0.0
 40
1.230712999999999
100
AcDbArc
 50
241.298849
 51
260.994452
  0
ARC
  5
AE
330
18
100
AcDbEntity
  8
0
100
AcDbCircle
 10
122.239743
 20
104.239783
 30
0.0
 40
3.384149999999999
100
AcDbArc
 50
218.086488
 51
255.555566
  0
ARC
  5
AF
330
18
100
AcDbEntity
  8
0
100
AcDbCircle
 10
121.3862909999999
 20
103.5042339999999
 30
0.0
 40
2.2593
100
AcDbArc
 50
187.42503
 51
216.7553729999999
  0
ARC
  5
B0
330
18
100
AcDbEntity
  8
0
100
AcDbCircle
 10
139.922012
 20
93.11682199999999
 30
0.0
 40
2.154860999999999
100
AcDbArc
 50
211.8017569999999
 51
269.3050799999999
  0
ARC
  5
B1
330
18
100
AcDbEntity
  8
0
100
AcDbCircle
 10
139.382985
 20
92.71610799999999
 30
0.0
 40
1.486658999999999
100
AcDbArc
 50
180.149115
 51
209.6237149999999
  0
LINE
  5
B2
330
18
100
AcDbEntity
  8
0
100
AcDbLine
 10
119.1459999999999
 20
103.212
 30
0.0
 11
119.1459999999999
 21
105.4629999999999
 31
0.0
  0
LINE
  5
B3
330
18
100
AcDbEntity
  8
0
100
AcDbLine
 10
121.3959999999999
 20
100.963
 30
0.0
 11
121.3959999999999
 21
105.4629999999999
 31
0.0
  0
LINE
  5
B4
330
18
100
AcDbEntity
  8
0
100
AcDbLine
 10
129.396
 20
98.9624
 30
0.0
 11
132.396
 21
98.9624
 31
0.0
  0
LINE
  5
B5
330
18
100
AcDbEntity
  8
0
100
AcDbLine
 10
132.396
 20
98.10870000000001
 30
0.0
 11
132.396
 21
105.4629999999999
 31
0.0
  0
LINE
  5
B6
330
18
100
AcDbEntity
  8
0
100
AcDbLine
 10
137.896
 20
92.71219999999999
 30
0.0
 11
137.896
 21
105.4629999999999
 31
0.0
  0
ARC
  5
B7
330
18
100
AcDbEntity
  8
0
100
AcDbCircle
 10
134.7221999999999
 20
110.7913229999999
 30
0.0
 40
3.526959999999999
100
AcDbArc
 50
104.785169
 51
117.848919
  0
ARC
  5
B8
330
18
100
AcDbEntity
  8
0
100
AcDbCircle
 10
133.819124
 20
112.5846219999999
 30
0.0
 40
1.519998
100
AcDbArc
 50
119.328261
 51
143.757037
  0
ARC
  5
B9
330
18
100
AcDbEntity
  8
0
100
AcDbCircle
 10
133.5378479999999
 20
112.841036
 30
0.0
 40
1.142268
100
AcDbArc
 50
145.7893799999999
 51
181.262081
  0
ARC
  5
BA
330
18
100
AcDbEntity
  8
0
100
AcDbCircle
 10
137.8989709999999
 20
116.6328199999999
 30
0.0
 40
1.579490999999999
100
AcDbArc
 50
90.09577099999999
 51
110.70565
  0
ARC
  5
BB
330
18
100
AcDbEntity
  8
0
100
AcDbCircle
 10
138.138629
 20
115.9126789999999
 30
0.0
 40
2.338050999999999
100
AcDbArc
 50
109.9596709999999
 51
165.0650929999999
  0
ARC
  5
BC
330
18
100
AcDbEntity
  8
0
100
AcDbCircle
 10
131.7668969999999
 20
117.620732
 30
0.0
 40
4.258649
100
AcDbArc
 50
326.276785
 51
344.954468
  0
ARC
  5
BD
330
18
100
AcDbEntity
  8
0
100
AcDbCircle
 10
132.9980879999999
 20
116.9381499999999
 30
0.0
 40
2.858022
100
AcDbArc
 50
286.757868
 51
323.954446
  0
ARC
  5
BE
330
18
100
AcDbEntity
  8
0
100
AcDbCircle
 10
116.5234719999999
 20
108.704656
 30
0.0
 40
1.265519
100
AcDbArc
 50
244.9750509999999
 51
254.713368
  0
ARC
  5
BF
330
18
100
AcDbEntity
  8
0
100
AcDbCircle
 10
116.886204
 20
109.9762059999999
 30
0.0
 40
2.587756
100
AcDbArc
 50
254.3888529999999
 51
262.970059
  0
ARC
  5
C0
330
18
100
AcDbEntity
  8
0
100
AcDbCircle
 10
117.154999
 20
112.097212
 30
0.0
 40
4.725719
100
AcDbArc
 50
262.8829129999999
 51
286.1480209999999
  0
ARC
  5
C1
330
18
100
AcDbEntity
  8
0
100
AcDbCircle
 10
113.857933
 20
102.165687
 30
0.0
 40
0.994743
100
AcDbArc
 50
315.0440209999999
 51
326.234877
  0
ARC
  5
C2
330
18
100
AcDbEntity
  8
0
100
AcDbCircle
 10
112.6281439999999
 20
103.0157449999999
 30
0.0
 40
2.489656
100
AcDbArc
 50
325.7016629999999
 51
334.422998
  0
ARC
  5
C3
330
18
100
AcDbEntity
  8
0
100
AcDbCircle
 10
109.61908
 20
104.4640559999999
 30
0.0
 40
5.829124
100
AcDbArc
 50
334.3512449999999
 51
347.599312
  0
ARC
  5
C4
330
18
100
AcDbEntity
  8
0
100
AcDbCircle
 10
113.856359
 20
108.7590139999999
 30
0.0
 40
0.996236
100
AcDbArc
 50
33.73067899999999
 51
44.91385199999999
  0
ARC
  5
C5
330
18
100
AcDbEntity
  8
0
100
AcDbCircle
 10
112.621661
 20
107.905979
 30
0.0
 40
2.496875999999999
100
AcDbArc
 50
25.578593
 51
34.27723799999999
  0
ARC
  5
C6
330
18
100
AcDbEntity
  8
0
100
AcDbCircle
 10
109.6213959999999
 20
106.4619959999999
 30
0.0
 40
5.826539
100
AcDbArc
 50
12.391141
 51
25.648437
  0
ARC
  5
C7
330
18
100
AcDbEntity
  8
0
100
AcDbCircle
 10
115.362882
 20
106.376921
 30
0.0
 40
1.336320999999999
100
AcDbArc
 50
62.102196
 51
92.17316
  0
ARC
  5
C8
330
18
100
AcDbEntity
  8
0
100
AcDbCircle
 10
119.1434929999999
 20
105.607085
 30
0.0
 40
2.105196999999999
100
AcDbArc
 50
89.933516
 51
97.52743399999999
  0
ARC
  5
C9
330
18
100
AcDbEntity
  8
0
100
AcDbCircle
 10
119.057355
 20
106.4886489999999
 30
0.0
 40
1.220317
100
AcDbArc
 50
98.94035399999999
 51
118.8079399999999
  0
ARC
  5
CA
330
18
100
AcDbEntity
  8
0
100
AcDbCircle
 10
103.906529
 20
103.154451
 30
0.0
 40
1.8913
100
AcDbArc
 50
224.143734
 51
243.4805819999999
  0
ARC
  5
CB
330
18
100
AcDbEntity
  8
0
100
AcDbCircle
 10
104.601283
 20
103.874828
 30
0.0
 40
2.891754999999999
100
AcDbArc
 50
207.0372899999999
 51
224.798975
  0
ARC
  5
CC
330
18
100
AcDbEntity
  8
0
100
AcDbCircle
 10
106.0909219999999
 20
104.6971609999999
 30
0.0
 40
4.592734
100
AcDbArc
 50
193.2858059999999
 51
207.7273939999999
  0
ARC
  5
CD
330
18
100
AcDbEntity
  8
0
100
AcDbCircle
 10
108.609282
 20
105.356379
 30
0.0
 40
7.195460999999999
100
AcDbArc
 50
179.153988
 51
193.7861469999999
  0
ARC
  5
CE
330
18
100
AcDbEntity
  8
0
100
AcDbCircle
 10
103.906529
 20
107.7700969999999
 30
0.0
 40
1.8913
100
AcDbArc
 50
116.5194179999999
 51
135.856266
  0
ARC
  5
CF
330
18
100
AcDbEntity
  8
0
100
AcDbCircle
 10
104.601062
 20
107.049783
 30
0.0
 40
2.891554
100
AcDbArc
 50
135.198813
 51
152.960869
  0
ARC
  5
D0
330
18
100
AcDbEntity
  8
0
100
AcDbCircle
 10
106.0908179999999
 20
106.227322
 30
0.0
 40
4.592697
100
AcDbArc
 50
152.270691
 51
166.7104929999999
  0
ARC
  5
D1
330
18
100
AcDbEntity
  8
0
100
AcDbCircle
 10
108.6064039999999
 20
105.5687389999999
 30
0.0
 40
7.192580999999999
100
AcDbArc
 50
166.211129
 51
180.8453969999999
  0
ARC
  5
D2
330
18
100
AcDbEntity
  8
0
100
AcDbCircle
 10
122.2418739999999
 20
106.684982
 30
0.0
 40
3.385139
100
AcDbArc
 50
104.477366
 51
142.391844
  0
ARC
  5
D3
330
18
100
AcDbEntity
  8
0
100
AcDbCircle
 10
121.375683
 20
107.424782
 30
0.0
 40
2.248206
100
AcDbArc
 50
143.8566879999999
 51
172.652948
  0
ARC
  5
D4
330
18
100
AcDbEntity
  8
0
100
AcDbCircle
 10
139.922001
 20
117.807422
 30
0.0
 40
2.155165
100
AcDbArc
 50
90.69452599999999
 51
148.1846439999999
  0
ARC
  5
D5
330
18
100
AcDbEntity
  8
0
100
AcDbCircle
 10
139.3835429999999
 20
118.208584
 30
0.0
 40
1.487217
100
AcDbArc
 50
150.381999
 51
179.856481
  0
LINE
  5
D6
330
18
100
AcDbEntity
  8
0
100
AcDbLine
 10
155.706
 20
107.089
 30
0.0
 11
156.725
 21
104.2399999999999
 31
0.0
  0
LINE
  5
D7
330
18
100
AcDbEntity
  8
0
100
AcDbLine
 10
154.305
 20
107.089
 30
0.0
 11
155.467
 21
103.8359999999999
 31
0.0
  0
LINE
  5
D8
330
18
100
AcDbEntity
  8
0
100
AcDbLine
 10
152.9029999999999
 20
107.089
 30
0.0
 11
154.066
 21
103.8359999999999
 31
0.0
  0
LINE
  5
D9
330
18
100
AcDbEntity
  8
0
100
AcDbLine
 10
151.5019999999999
 20
107.089
 30
0.0
 11
152.6639999999999
 21
103.8359999999999
 31
0.0
  0
LINE
  5
DA
330
18
100
AcDbEntity
  8
0
100
AcDbLine
 10
150.0999999999999
 20
107.089
 30
0.0
 11
151.263
 21
103.8359999999999
 31
0.0
  0
LINE
  5
DB
330
18
100
AcDbEntity
  8
0
100
AcDbLine
 10
148.6979999999999
 20
107.089
 30
0.0
 11
149.861
 21
103.8359999999999
 31
0.0
  0
LINE
  5
DC
330
18
100
AcDbEntity
  8
0
100
AcDbLine
 10
147.2969999999999
 20
107.089
 30
0.0
 11
148.459
 21
103.8359999999999
 31
0.0
  0
LINE
  5
DD
330
18
100
AcDbEntity
  8
0
100
AcDbLine
 10
145.895
 20
107.089
 30
0.0
 11
147.0579999999999
 21
103.8359999999999
 31
0.0
  0
LINE
  5
DE
330
18
100
AcDbEntity
  8
0
100
AcDbLine
 10
144.494
 20
107.089
 30
0.0
 11
145.656
 21
103.8359999999999
 31
0.0
  0
LINE
  5
DF
330
18
100
AcDbEntity
  8
0
100
AcDbLine
 10
143.092
 20
107.089
 30
0.0
 11
144.2549999999999
 21
103.8359999999999
 31
0.0
  0
LINE
  5
E0
330
18
100
AcDbEntity
  8
0
100
AcDbLine
 10
141.69
 20
107.089
 30
0.0
 11
142.8529999999999
 21
103.8359999999999
 31
0.0
  0
LINE
  5
E1
330
18
100
AcDbEntity
  8
0
100
AcDbLine
 10
140.289
 20
107.089
 30
0.0
 11
141.4509999999999
 21
103.8359999999999
 31
0.0
  0
LINE
  5
E2
330
18
100
AcDbEntity
  8
0
100
AcDbLine
 10
157.897
 20
105.4629999999999
 30
0.0
 11
155.309
 21
106.7129999999999
 31
0.0
  0
LINE
  5
E3
330
18
100
AcDbEntity
  8
0
100
AcDbLine
 10
157.897
 20
105.4629999999999
 30
0.0
 11
155.309
 21
104.213
 31
0.0
  0
LINE
  5
E4
330
18
100
AcDbEntity
  8
0
100
AcDbLine
 10
139.896
 20
104.213
 30
0.0
 11
155.309
 21
104.213
 31
0.0
  0
LINE
  5
E5
330
18
100
AcDbEntity
  8
0
100
AcDbLine
 10
139.896
 20
106.7129999999999
 30
0.0
 11
155.309
 21
106.7129999999999
 31
0.0
  0
LINE
  5
E6
330
18
100
AcDbEntity
  8
0
100
AcDbLine
 10
119.1459999999999
 20
107.712
 30
0.0
 11
119.1459999999999
 21
105.4629999999999
 31
0.0
  0
LINE
  5
E7
330
18
100
AcDbEntity
  8
0
100
AcDbLine
 10
121.3959999999999
 20
109.9629999999999
 30
0.0
 11
121.3959999999999
 21
105.4629999999999
 31
0.0
  0
LINE
  5
E8
330
18
100
AcDbEntity
  8
0
100
AcDbLine
 10
129.396
 20
111.9629999999999
 30
0.0
 11
132.396
 21
111.9629999999999
 31
0.0
  0
LINE
  5
E9
330
18
100
AcDbEntity
  8
0
100
AcDbLine
 10
129.396
 20
112.4619999999999
 30
0.0
 11
129.396
 21
98.46210000000001
 31
0.0
  0
LINE
  5
EA
330
18
100
AcDbEntity
  8
0
100
AcDbLine
 10
132.396
 20
112.816
 30
0.0
 11
132.396
 21
105.4629999999999
 31
0.0
  0
LINE
  5
EB
330
18
100
AcDbEntity
  8
0
100
AcDbLine
 10
137.896
 20
118.212
 30
0.0
 11
137.896
 21
105.4629999999999
 31
0.0
  0
LINE
  5
EC
330
18
100
AcDbEntity
  8
0
100
AcDbLine
 10
107.896
 20
126.142
 30
0.0
 11
107.896
 21
111.928
 31
0.0
  0
LINE
  5
ED
330
18
100
AcDbEntity
  8
0
100
AcDbLine
 10
139.896
 20
126.142
 30
0.0
 11
139.896
 21
121.0129999999999
 31
0.0
  0
LINE
  5
EE
330
18
100
AcDbEntity
  8
0
100
AcDbLine
 10
139.896
 20
119.962
 30
0.0
 11
139.896
 21
90.96210000000001
 31
0.0
  0
ARC
  5
EF
330
18
100
AcDbEntity
  8
0
100
AcDbCircle
 10
131.49711
 20
101.15444
 30
0.0
 40
6.601274
100
AcDbArc
 50
179.9904919999999
 51
195.378804
  0
ARC
  5
F0
330
18
100
AcDbEntity
  8
0
100
AcDbCircle
 10
128.674204
 20
100.425785
 30
0.0
 40
3.686494999999999
100
AcDbArc
 50
196.094807
 51
211.4003979999999
  0
ARC
  5
F1
330
18
100
AcDbEntity
  8
0
100
AcDbCircle
 10
126.9270459999999
 20
99.387947
 30
0.0
 40
1.654665
100
AcDbArc
 50
212.2471319999999
 51
234.5573379999999
  0
ARC
  5
F2
330
18
100
AcDbEntity
  8
0
100
AcDbCircle
 10
126.416744
 20
98.721265
 30
0.0
 40
0.8161239999999999
100
AcDbArc
 50
236.603591
 51
268.532316
  0
ARC
  5
F3
330
18
100
AcDbEntity
  8
0
100
AcDbCircle
 10
126.3941149999999
 20
98.65013000000001
 30
0.0
 40
0.744722
100
AcDbArc
 50
270.13274
 51
300.391431
  0
ARC
  5
F4
330
18
100
AcDbEntity
  8
0
100
AcDbCircle
 10
126.123224
 20
99.12760200000001
 30
0.0
 40
1.293654
100
AcDbArc
 50
300.042081
 51
326.705572
  0
ARC
  5
F5
330
18
100
AcDbEntity
  8
0
100
AcDbCircle
 10
124.815007
 20
100.0996219999999
 30
0.0
 40
2.922245999999999
100
AcDbArc
 50
324.8555779999999
 51
342.941666
  0
ARC
  5
F6
330
18
100
AcDbEntity
  8
0
100
AcDbCircle
 10
122.1543119999999
 20
101.039184
 30
0.0
 40
5.742710999999999
100
AcDbArc
 50
341.7670259999999
 51
1.160912999999999
  0
ARC
  5
F7
330
18
100
AcDbEntity
  8
0
100
AcDbCircle
 10
121.2898269999999
 20
101.156613
 30
0.0
 40
6.606016999999999
100
AcDbArc
 50
359.9906369999999
 51
15.367592
  0
ARC
  5
F8
330
18
100
AcDbEntity
  8
0
100
AcDbCircle
 10
124.1188289999999
 20
101.886253
 30
0.0
 40
3.685092
100
AcDbArc
 50
16.085363
 51
31.396
  0
ARC
  5
F9
330
18
100
AcDbEntity
  8
0
100
AcDbCircle
 10
125.865797
 20
102.923823
 30
0.0
 40
1.653559999999999
100
AcDbArc
 50
32.24241
 51
54.569019
  0
ARC
  5
FA
330
18
100
AcDbEntity
  8
0
100
AcDbCircle
 10
126.375035
 20
103.589287
 30
0.0
 40
0.8166349999999999
100
AcDbArc
 50
56.61468299999999
 51
88.54010999999999
  0
ARC
  5
FB
330
18
100
AcDbEntity
  8
0
100
AcDbCircle
 10
126.397577
 20
103.661767
 30
0.0
 40
0.743892
100
AcDbArc
 50
90.13373900000001
 51
120.408782
  0
ARC
  5
FC
330
18
100
AcDbEntity
  8
0
100
AcDbCircle
 10
126.6687689999999
 20
103.1835829999999
 30
0.0
 40
1.29359
100
AcDbArc
 50
120.047606
 51
146.709949
  0
ARC
  5
FD
330
18
100
AcDbEntity
  8
0
100
AcDbCircle
 10
127.977341
 20
102.2108689999999
 30
0.0
 40
2.922869
100
AcDbArc
 50
144.850349
 51
162.9335899999999
  0
ARC
  5
FE
330
18
100
AcDbEntity
  8
0
100
AcDbCircle
 10
130.6354149999999
 20
101.271624
 30
0.0
 40
5.740752999999999
100
AcDbArc
 50
161.757844
 51
181.1587429999999
  0
ARC
  5
FF
330
18
100
AcDbEntity
  8
0
100
AcDbCircle
 10
131.4955639999999
 20
109.771491
 30
0.0
 40
6.599727999999999
100
AcDbArc
 50
164.619384
 51
180.009547
  0
ARC
  5
100
330
18
100
AcDbEntity
  8
0
100
AcDbCircle
 10
128.671884
 20
110.5004289999999
 30
0.0
 40
3.68413
100
AcDbArc
 50
148.590618
 51
163.9025359999999
  0
ARC
  5
101
330
18
100
AcDbEntity
  8
0
100
AcDbCircle
 10
126.9268199999999
 20
111.5372419999999
 30
0.0
 40
1.654625999999999
100
AcDbArc
 50
125.43401
 51
147.740332
  0
ARC
  5
102
330
18
100
AcDbEntity
  8
0
100
AcDbCircle
 10
126.416747
 20
112.203635
 30
0.0
 40
0.8164609999999999
100
AcDbArc
 50
91.46728900000001
 51
123.3810709999999
  0
ARC
  5
103
330
18
100
AcDbEntity
  8
0
100
AcDbCircle
 10
126.394112
 20
112.274826
 30
0.0
 40
0.745004
100
AcDbArc
 50
59.620992
 51
89.86708399999999
  0
ARC
  5
104
330
18
100
AcDbEntity
  8
0
100
AcDbCircle
 10
126.1236629999999
 20
111.7978629999999
 30
0.0
 40
1.293274999999999
100
AcDbArc
 50
33.304251
 51
59.970647
  0
ARC
  5
105
330
18
100
AcDbEntity
  8
0
100
AcDbCircle
 10
124.816655
 20
110.826381
 30
0.0
 40
2.920576
100
AcDbArc
 50
17.061733
 51
35.15402499999999
  0
ARC
  5
106
330
18
100
AcDbEntity
  8
0
100
AcDbCircle
 10
122.156875
 20
109.8868949999999
 30
0.0
 40
5.740151
100
AcDbArc
 50
358.837049
 51
18.237189
  0
ARC
  5
107
330
18
100
AcDbEntity
  8
0
100
AcDbCircle
 10
121.2898269999999
 20
109.769314
 30
0.0
 40
6.606016999999999
100
AcDbArc
 50
344.632408
 51
0.009363
  0
ARC
  5
108
330
18
100
AcDbEntity
  8
0
100
AcDbCircle
 10
124.1188289999999
 20
109.039674
 30
0.0
 40
3.685092
100
AcDbArc
 50
328.604
 51
343.914637
  0
ARC
  5
109
330
18
100
AcDbEntity
  8
0
100
AcDbCircle
 10
125.865797
 20
108.002103
 30
0.0
 40
1.653559999999999
100
AcDbArc
 50
305.430981
 51
327.7575899999999
  0
ARC
  5
10A
330
18
100
AcDbEntity
  8
0
100
AcDbCircle
 10
126.375035
 20
107.3366399999999
 30
0.0
 40
0.8166349999999999
100
AcDbArc
 50
271.4598899999999
 51
303.3853169999999
  0
ARC
  5
10B
330
18
100
AcDbEntity
  8
0
100
AcDbCircle
 10
126.397577
 20
107.26416
 30
0.0
 40
0.743892
100
AcDbArc
 50
239.591218
 51
269.8662609999999
  0
ARC
  5
10C
330
18
100
AcDbEntity
  8
0
100
AcDbCircle
 10
126.6687689999999
 20
107.742344
 30
0.0
 40
1.29359
100
AcDbArc
 50
213.290051
 51
239.9523939999999
  0
ARC
  5
10D
330
18
100
AcDbEntity
  8
0
100
AcDbCircle
 10
127.977341
 20
108.715058
 30
0.0
 40
2.922869
100
AcDbArc
 50
197.06641
 51
215.1496509999999
  0
ARC
  5
10E
330
18
100
AcDbEntity
  8
0
100
AcDbCircle
 10
130.6354149999999
 20
109.654303
 30
0.0
 40
5.740752999999999
100
AcDbArc
 50
178.841257
 51
198.242156
  0
ARC
  5
10F
330
18
100
AcDbEntity
  8
0
100
AcDbCircle
 10
125.145952
 20
112.962639
 30
0.0
 40
0.5002310000000002
100
AcDbArc
 50
90.0
 51
179.9999699999999
  0
ARC
  5
110
330
18
100
AcDbEntity
  8
0
100
AcDbCircle
 10
127.6457289999999
 20
112.962639
 30
0.0
 40
0.5002310000000002
100
AcDbArc
 50
0.00001
 51
89.99998000000001
  0
LINE
  5
111
330
18
100
AcDbEntity
  8
0
100
AcDbLine
 10
125.146
 20
113.463
 30
0.0
 11
127.6459999999999
 21
113.463
 31
0.0
  0
ARC
  5
112
330
18
100
AcDbEntity
  8
0
100
AcDbCircle
 10
125.164326
 20
97.98168699999999
 30
0.0
 40
0.5189560000000001
100
AcDbArc
 50
182.108009
 51
267.970995
  0
ARC
  5
113
330
18
100
AcDbEntity
  8
0
100
AcDbCircle
 10
127.627355
 20
97.98168699999999
 30
0.0
 40
0.5189560000000001
100
AcDbArc
 50
272.0290419999999
 51
357.891994
  0
ARC
  5
114
330
18
100
AcDbEntity
  8
0
100
AcDbCircle
 10
124.6476379999999
 20
108.413185
 30
0.0
 40
4.049913
100
AcDbArc
 50
90.02712
 51
116.5275629999999
  0
ARC
  5
115
330
18
100
AcDbEntity
  8
0
100
AcDbCircle
 10
124.210658
 20
109.5429729999999
 30
0.0
 40
2.846169999999999
100
AcDbArc
 50
118.8154629999999
 51
171.521011
  0
ARC
  5
116
330
18
100
AcDbEntity
  8
0
100
AcDbCircle
 10
124.6476389999999
 20
102.513202
 30
0.0
 40
4.050373
100
AcDbArc
 50
243.4756759999999
 51
269.9728749999999
  0
ARC
  5
117
330
18
100
AcDbEntity
  8
0
100
AcDbCircle
 10
124.210123
 20
101.382655
 30
0.0
 40
2.845698
100
AcDbArc
 50
188.4883639999999
 51
241.191619
  0
LINE
  5
118
330
18
100
AcDbEntity
  8
0
100
AcDbLine
 10
125.146
 20
97.46310000000001
 30
0.0
 11
127.6459999999999
 21
97.46310000000001
 31
0.0
  0
LINE
  5
119
330
18
100
AcDbEntity
  8
0
100
AcDbLine
 10
124.646
 20
97.9626
 30
0.0
 11
124.646
 21
112.9629999999999
 31
0.0
  0
LINE
  5
11A
330
18
100
AcDbEntity
  8
0
100
AcDbLine
 10
128.146
 20
112.463
 30
0.0
 11
129.396
 21
112.463
 31
0.0
  0
LINE
  5
11B
330
18
100
AcDbEntity
  8
0
100
AcDbLine
 10
128.146
 20
98.4628
 30
0.0
 11
129.396
 21
98.4628
 31
0.0
  0
LINE
  5
11C
330
18
100
AcDbEntity
  8
0
100
AcDbLine
 10
128.146
 20
97.9626
 30
0.0
 11
128.146
 21
112.9629999999999
 31
0.0
  0
ARC
  5
11D
330
18
100
AcDbEntity
  8
0
100
AcDbCircle
 10
54.971157
 20
176.378328
 30
0.0
 40
3.509031999999999
100
AcDbArc
 50
194.7578989999999
 51
207.8920529999999
  0
ARC
  5
11E
330
18
100
AcDbEntity
  8
0
100
AcDbCircle
 10
53.195299
 20
175.482059
 30
0.0
 40
1.520683999999999
100
AcDbArc
 50
209.346881
 51
233.7651609999999
  0
ARC
  5
11F
330
18
100
AcDbEntity
  8
0
100
AcDbCircle
 10
52.93853699999999
 20
175.2001229999999
 30
0.0
 40
1.142219
100
AcDbArc
 50
235.7947779999999
 51
271.252824
  0
ARC
  5
120
330
18
100
AcDbEntity
  8
0
100
AcDbCircle
 10
49.145061
 20
179.5609379999999
 30
0.0
 40
1.577984999999999
100
AcDbArc
 50
180.0955929999999
 51
200.7256079999999
  0
ARC
  5
121
330
18
100
AcDbEntity
  8
0
100
AcDbCircle
 10
49.866785
 20
179.8010689999999
 30
0.0
 40
2.338185999999999
100
AcDbArc
 50
199.970315
 51
255.064081
  0
ARC
  5
122
330
18
100
AcDbEntity
  8
0
100
AcDbCircle
 10
48.155597
 20
173.4219329999999
 30
0.0
 40
4.266478
100
AcDbArc
 50
56.28948399999999
 51
74.940186
  0
ARC
  5
123
330
18
100
AcDbEntity
  8
0
100
AcDbCircle
 10
48.84331599999999
 20
174.6620639999999
 30
0.0
 40
2.855554
100
AcDbArc
 50
16.73807299999999
 51
53.95755900000001
  0
ARC
  5
124
330
18
100
AcDbEntity
  8
0
100
AcDbCircle
 10
57.07473100000001
 20
158.186137
 30
0.0
 40
1.265519
100
AcDbArc
 50
334.975041
 51
344.713358
  0
ARC
  5
125
330
18
100
AcDbEntity
  8
0
100
AcDbCircle
 10
55.80236899999999
 20
158.549068
 30
0.0
 40
2.588591999999999
100
AcDbArc
 50
344.38944
 51
352.967891
  0
ARC
  5
126
330
18
100
AcDbEntity
  8
0
100
AcDbCircle
 10
53.681695
 20
158.817612
 30
0.0
 40
4.726194999999999
100
AcDbArc
 50
352.884249
 51
16.146988
  0
ARC
  5
127
330
18
100
AcDbEntity
  8
0
100
AcDbCircle
 10
60.163175
 20
156.9762
 30
0.0
 40
2.096068999999999
100
AcDbArc
 50
172.4227449999999
 51
180.0456979999999
  0
ARC
  5
128
330
18
100
AcDbEntity
  8
0
100
AcDbCircle
 10
59.299108
 20
157.0603069999999
 30
0.0
 40
1.228836
100
AcDbArc
 50
151.2796669999999
 51
170.9974689999999
  0
ARC
  5
129
330
18
100
AcDbEntity
  8
0
100
AcDbCircle
 10
60.163175
 20
160.806584
 30
0.0
 40
2.096068999999999
100
AcDbArc
 50
179.954302
 51
187.577255
  0
ARC
  5
12A
330
18
100
AcDbEntity
  8
0
100
AcDbCircle
 10
59.299108
 20
160.722477
 30
0.0
 40
1.228836
100
AcDbArc
 50
189.0025309999999
 51
208.7203329999999
  0
ARC
  5
12B
330
18
100
AcDbEntity
  8
0
100
AcDbCircle
 10
59.092747
 20
163.9007
 30
0.0
 40
3.381908
100
AcDbArc
 50
194.424367
 51
231.92425
  0
ARC
  5
12C
330
18
100
AcDbEntity
  8
0
100
AcDbCircle
 10
58.358914
 20
163.048157
 30
0.0
 40
2.25883
100
AcDbArc
 50
233.240949
 51
262.577506
  0
ARC
  5
12D
330
18
100
AcDbEntity
  8
0
100
AcDbCircle
 10
47.97319
 20
181.5849
 30
0.0
 40
2.156395999999999
100
AcDbArc
 50
180.709548
 51
238.1757759999999
  0
ARC
  5
12E
330
18
100
AcDbEntity
  8
0
100
AcDbCircle
 10
47.570952
 20
181.044622
 30
0.0
 40
1.486321
100
AcDbArc
 50
240.368672
 51
269.8506759999999
  0
LINE
  5
12F
330
18
100
AcDbEntity
  8
0
100
AcDbLine
 10
58.0671
 20
160.8079999999999
 30
0.0
 11
60.3175
 21
160.8079999999999
 31
0.0
  0
LINE
  5
130
330
18
100
AcDbEntity
  8
0
100
AcDbLine
 10
55.81739999999999
 20
163.0579999999999
 30
0.0
 11
60.3175
 21
163.0579999999999
 31
0.0
  0
LINE
  5
131
330
18
100
AcDbEntity
  8
0
100
AcDbLine
 10
53.8172
 20
171.059
 30
0.0
 11
53.8172
 21
174.058
 31
0.0
  0
LINE
  5
132
330
18
100
AcDbEntity
  8
0
100
AcDbLine
 10
52.9635
 20
174.058
 30
0.0
 11
60.3175
 21
174.058
 31
0.0
  0
LINE
  5
133
330
18
100
AcDbEntity
  8
0
100
AcDbLine
 10
47.5671
 20
179.5579999999999
 30
0.0
 11
60.3175
 21
179.5579999999999
 31
0.0
  0
ARC
  5
134
330
18
100
AcDbEntity
  8
0
100
AcDbCircle
 10
65.65715199999999
 20
176.3798999999999
 30
0.0
 40
3.515155
100
AcDbArc
 50
332.131799
 51
345.241916
  0
ARC
  5
135
330
18
100
AcDbEntity
  8
0
100
AcDbCircle
 10
67.43988299999999
 20
175.481128
 30
0.0
 40
1.519549999999999
100
AcDbArc
 50
306.235875
 51
330.669349
  0
ARC
  5
136
330
18
100
AcDbEntity
  8
0
100
AcDbCircle
 10
67.695904
 20
175.2003959999999
 30
0.0
 40
1.142496999999999
100
AcDbArc
 50
268.736737
 51
304.2013719999999
  0
ARC
  5
137
330
18
100
AcDbEntity
  8
0
100
AcDbCircle
 10
71.48779999999999
 20
179.560946
 30
0.0
 40
1.579348999999999
100
AcDbArc
 50
339.292851
 51
359.90424
  0
ARC
  5
138
330
18
100
AcDbEntity
  8
0
100
AcDbCircle
 10
70.768333
 20
179.800233
 30
0.0
 40
2.337149
100
AcDbArc
 50
284.9201049999999
 51
340.0422639999999
  0
ARC
  5
139
330
18
100
AcDbEntity
  8
0
100
AcDbCircle
 10
72.478629
 20
173.4219329999999
 30
0.0
 40
4.266478
100
AcDbArc
 50
105.059794
 51
123.7104959999999
  0
ARC
  5
13A
330
18
100
AcDbEntity
  8
0
100
AcDbCircle
 10
71.79090999999999
 20
174.6620639999999
 30
0.0
 40
2.855554
100
AcDbArc
 50
126.042421
 51
163.261908
  0
ARC
  5
13B
330
18
100
AcDbEntity
  8
0
100
AcDbCircle
 10
63.559495
 20
158.186137
 30
0.0
 40
1.265519
100
AcDbArc
 50
195.286662
 51
205.024978
  0
ARC
  5
13C
330
18
100
AcDbEntity
  8
0
100
AcDbCircle
 10
64.831858
 20
158.549068
 30
0.0
 40
2.588591999999999
100
AcDbArc
 50
187.0321289999999
 51
195.61058
  0
ARC
  5
13D
330
18
100
AcDbEntity
  8
0
100
AcDbCircle
 10
66.95252299999999
 20
158.8176129999999
 30
0.0
 40
4.726187
100
AcDbArc
 50
163.8529729999999
 51
187.11579
  0
ARC
  5
13E
330
18
100
AcDbEntity
  8
0
100
AcDbCircle
 10
60.47104
 20
156.976199
 30
0.0
 40
2.096079
100
AcDbArc
 50
359.9543409999999
 51
7.577214999999999
  0
ARC
  5
13F
330
18
100
AcDbEntity
  8
0
100
AcDbCircle
 10
61.33511899999999
 20
157.0603069999999
 30
0.0
 40
1.228836
100
AcDbArc
 50
9.002511
 51
28.72031299999999
  0
ARC
  5
140
330
18
100
AcDbEntity
  8
0
100
AcDbCircle
 10
60.47104
 20
160.806585
 30
0.0
 40
2.096079
100
AcDbArc
 50
352.422785
 51
0.045659
  0
ARC
  5
141
330
18
100
AcDbEntity
  8
0
100
AcDbCircle
 10
61.33511899999999
 20
160.722477
 30
0.0
 40
1.228836
100
AcDbArc
 50
331.279687
 51
350.997489
  0
ARC
  5
142
330
18
100
AcDbEntity
  8
0
100
AcDbCircle
 10
61.539663
 20
163.9041549999999
 30
0.0
 40
3.385196
100
AcDbArc
 50
307.6107749999999
 51
345.529574
  0
ARC
  5
143
330
18
100
AcDbEntity
  8
0
100
AcDbCircle
 10
62.279789
 20
163.037536
 30
0.0
 40
2.247721999999999
100
AcDbArc
 50
277.344334
 51
306.147036
  0
ARC
  5
144
330
18
100
AcDbEntity
  8
0
100
AcDbCircle
 10
72.66073100000001
 20
181.5848889999999
 30
0.0
 40
2.156700999999999
100
AcDbArc
 50
301.8378419999999
 51
359.290865
  0
ARC
  5
145
330
18
100
AcDbEntity
  8
0
100
AcDbCircle
 10
73.06344200000001
 20
181.0450879999999
 30
0.0
 40
1.486787
100
AcDbArc
 50
270.1428079999999
 51
299.626571
  0
LINE
  5
146
330
18
100
AcDbEntity
  8
0
100
AcDbLine
 10
115.312
 20
107.712
 30
0.0
 11
115.312
 21
103.212
 31
0.0
  0
LINE
  5
147
330
18
100
AcDbEntity
  8
0
100
AcDbLine
 10
114.562
 20
101.4629999999999
 30
0.0
 11
103.062
 21
101.4629999999999
 31
0.0
  0
LINE
  5
148
330
18
100
AcDbEntity
  8
0
100
AcDbLine
 10
114.562
 20
109.462
 30
0.0
 11
103.062
 21
109.462
 31
0.0
  0
LINE
  5
149
330
18
100
AcDbEntity
  8
0
100
AcDbLine
 10
58.6907
 20
197.369
 30
0.0
 11
61.5398
 21
198.3869999999999
 31
0.0
  0
LINE
  5
14A
330
18
100
AcDbEntity
  8
0
100
AcDbLine
 10
58.6907
 20
195.967
 30
0.0
 11
61.9436
 21
197.129
 31
0.0
  0
LINE
  5
14B
330
18
100
AcDbEntity
  8
0
100
AcDbLine
 10
58.6907
 20
194.565
 30
0.0
 11
61.9436
 21
195.7279999999999
 31
0.0
  0
LINE
  5
14C
330
18
100
AcDbEntity
  8
0
100
AcDbLine
 10
58.6907
 20
193.164
 30
0.0
 11
61.9436
 21
194.326
 31
0.0
  0
LINE
  5
14D
330
18
100
AcDbEntity
  8
0
100
AcDbLine
 10
58.6907
 20
191.762
 30
0.0
 11
61.9436
 21
192.925
 31
0.0
  0
LINE
  5
14E
330
18
100
AcDbEntity
  8
0
100
AcDbLine
 10
58.6907
 20
190.36
 30
0.0
 11
61.9436
 21
191.523
 31
0.0
  0
LINE
  5
14F
330
18
100
AcDbEntity
  8
0
100
AcDbLine
 10
58.6907
 20
188.959
 30
0.0
 11
61.9436
 21
190.1209999999999
 31
0.0
  0
LINE
  5
150
330
18
100
AcDbEntity
  8
0
100
AcDbLine
 10
58.6907
 20
187.557
 30
0.0
 11
61.9436
 21
188.7199999999999
 31
0.0
  0
LINE
  5
151
330
18
100
AcDbEntity
  8
0
100
AcDbLine
 10
58.6907
 20
186.1559999999999
 30
0.0
 11
61.9436
 21
187.3179999999999
 31
0.0
  0
LINE
  5
152
330
18
100
AcDbEntity
  8
0
100
AcDbLine
 10
58.6907
 20
184.754
 30
0.0
 11
61.9436
 21
185.9169999999999
 31
0.0
  0
LINE
  5
153
330
18
100
AcDbEntity
  8
0
100
AcDbLine
 10
58.6907
 20
183.352
 30
0.0
 11
61.9436
 21
184.5149999999999
 31
0.0
  0
LINE
  5
154
330
18
100
AcDbEntity
  8
0
100
AcDbLine
 10
165.284
 20
119.962
 30
0.0
 11
141.05
 21
119.962
 31
0.0
  0
LINE
  5
155
330
18
100
AcDbEntity
  8
0
100
AcDbLine
 10
165.284
 20
90.96210000000001
 30
0.0
 11
141.05
 21
90.96210000000001
 31
0.0
  0
LINE
  5
156
330
18
100
AcDbEntity
  8
0
100
AcDbLine
 10
163.935
 20
93.17350000000001
 30
0.0
 11
164.5279999999999
 21
90.9618
 31
0.0
  0
LINE
  5
157
330
18
100
AcDbEntity
  8
0
100
AcDbLine
 10
164.5279999999999
 20
90.9618
 30
0.0
 11
165.1209999999999
 21
93.17350000000001
 31
0.0
  0
LINE
  5
158
330
18
100
AcDbEntity
  8
0
100
AcDbLine
 10
165.1209999999999
 20
93.17350000000001
 30
0.0
 11
163.935
 21
93.17350000000001
 31
0.0
  0
LINE
  5
159
330
18
100
AcDbEntity
  8
0
100
AcDbLine
 10
165.106
 20
117.751
 30
0.0
 11
164.514
 21
119.9629999999999
 31
0.0
  0
LINE
  5
15A
330
18
100
AcDbEntity
  8
0
100
AcDbLine
 10
164.514
 20
119.9629999999999
 30
0.0
 11
163.921
 21
117.751
 31
0.0
  0
LINE
  5
15B
330
18
100
AcDbEntity
  8
0
100
AcDbLine
 10
163.921
 20
117.751
 30
0.0
 11
165.106
 21
117.751
 31
0.0
  0
LINE
  5
15C
330
18
100
AcDbEntity
  8
0
100
AcDbLine
 10
164.5129999999999
 20
90.96210000000001
 30
0.0
 11
164.5129999999999
 21
119.962
 31
0.0
  0
LINE
  5
15D
330
18
100
AcDbEntity
  8
0
  6
AIGENLINE001
100
AcDbLine
 10
107.896
 20
100.1779999999999
 30
0.0
 11
107.896
 21
110.8779999999999
 31
0.0
  0
LINE
  5
15E
330
18
100
AcDbEntity
  8
0
100
AcDbLine
 10
58.6907
 20
181.951
 30
0.0
 11
61.9436
 21
183.1129999999999
 31
0.0
  0
LINE
  5
15F
330
18
100
AcDbEntity
  8
0
100
AcDbLine
 10
60.3175
 20
199.5579999999999
 30
0.0
 11
61.5673
 21
196.9709999999999
 31
0.0
  0
LINE
  5
160
330
18
100
AcDbEntity
  8
0
100
AcDbLine
 10
60.3175
 20
199.5579999999999
 30
0.0
 11
59.0669
 21
196.9709999999999
 31
0.0
  0
LINE
  5
161
330
18
100
AcDbEntity
  8
0
100
AcDbLine
 10
59.0669
 20
181.5579999999999
 30
0.0
 11
59.0669
 21
196.9709999999999
 31
0.0
  0
LINE
  5
162
330
18
100
AcDbEntity
  8
0
100
AcDbLine
 10
61.5673
 20
181.5579999999999
 30
0.0
 11
61.5673
 21
196.9709999999999
 31
0.0
  0
LINE
  5
163
330
18
100
AcDbEntity
  8
0
100
AcDbLine
 10
56.0669
 20
146.067
 30
0.0
 11
56.0669
 21
143.077
 31
0.0
  0
LINE
  5
164
330
18
100
AcDbEntity
  8
0
  6
AIGENLINE001
100
AcDbLine
 10
159.41
 20
105.4629999999999
 30
0.0
 11
99.5744
 21
105.4629999999999
 31
0.0
  0
LINE
  5
165
330
18
100
AcDbEntity
  8
0
  6
AIGENLINE001
100
AcDbLine
 10
60.3175
 20
201.072
 30
0.0
 11
60.3175
 21
141.2369999999999
 31
0.0
  0
LINE
  5
166
330
18
100
AcDbEntity
  8
0
100
AcDbLine
 10
64.5674
 20
146.067
 30
0.0
 11
64.5674
 21
143.077
 31
0.0
  0
ARC
  5
167
330
18
100
AcDbEntity
  8
0
100
AcDbCircle
 10
60.317399
 20
149.558549
 30
0.0
 40
6.499894
100
AcDbArc
 50
310.82448
 51
40.828045
  0
ARC
  5
168
330
18
100
AcDbEntity
  8
0
100
AcDbCircle
 10
60.31730899999999
 20
149.558728
 30
0.0
 40
6.499844
100
AcDbArc
 50
40.826328
 51
130.830459
  0
ARC
  5
169
330
18
100
AcDbEntity
  8
0
100
AcDbCircle
 10
60.317399
 20
149.558204
 30
0.0
 40
6.5003
100
AcDbArc
 50
130.8280349999999
 51
220.8244899999999
  0
ARC
  5
16A
330
18
100
AcDbEntity
  8
0
100
AcDbCircle
 10
60.375974
 20
149.61965
 30
0.0
 40
6.5848
100
AcDbArc
 50
220.895877
 51
229.133664
  0
ARC
  5
16B
330
18
100
AcDbEntity
  8
0
100
AcDbCircle
 10
60.31705099999999
 20
149.558219
 30
0.0
 40
5.500151999999999
100
AcDbArc
 50
320.6024759999999
 51
50.60155
  0
ARC
  5
16C
330
18
100
AcDbEntity
  8
0
100
AcDbCircle
 10
60.317258
 20
149.559019
 30
0.0
 40
5.499403
100
AcDbArc
 50
50.59792499999999
 51
140.6020199999999
  0
ARC
  5
16D
330
18
100
AcDbEntity
  8
0
100
AcDbCircle
 10
60.541575
 20
149.558397
 30
0.0
 40
5.674914
100
AcDbArc
 50
142.034779
 51
217.9652209999999
  0
ARC
  5
16E
330
18
100
AcDbEntity
  8
0
100
AcDbCircle
 10
60.317915
 20
149.557716
 30
0.0
 40
7.750822999999999
100
AcDbArc
 50
106.881657
 51
196.8742189999999
  0
ARC
  5
16F
330
18
100
AcDbEntity
  8
0
100
AcDbCircle
 10
60.382128
 20
149.608087
 30
0.0
 40
7.826947999999999
100
AcDbArc
 50
197.090632
 51
236.5535799999999
  0
ARC
  5
170
330
18
100
AcDbEntity
  8
0
100
AcDbCircle
 10
60.317645
 20
149.558322
 30
0.0
 40
7.749722999999999
100
AcDbArc
 50
303.2491199999999
 51
33.252947
  0
ARC
  5
171
330
18
100
AcDbEntity
  8
0
100
AcDbCircle
 10
60.26943199999999
 20
149.4947249999999
 30
0.0
 40
7.82496
100
AcDbArc
 50
33.448796
 51
72.918972
  0
LINE
  5
172
330
18
100
AcDbEntity
  8
0
100
AcDbLine
 10
62.5671
 20
156.9749999999999
 30
0.0
 11
58.0671
 21
156.9749999999999
 31
0.0
  0
LINE
  5
173
330
18
100
AcDbEntity
  8
0
100
AcDbLine
 10
62.5671
 20
160.8079999999999
 30
0.0
 11
60.3175
 21
160.8079999999999
 31
0.0
  0
LINE
  5
174
330
18
100
AcDbEntity
  8
0
100
AcDbLine
 10
64.81749999999999
 20
163.0579999999999
 30
0.0
 11
60.3175
 21
163.0579999999999
 31
0.0
  0
LINE
  5
175
330
18
100
AcDbEntity
  8
0
100
AcDbLine
 10
66.81699999999999
 20
171.059
 30
0.0
 11
66.81699999999999
 21
174.058
 31
0.0
  0
LINE
  5
176
330
18
100
AcDbEntity
  8
0
100
AcDbLine
 10
67.3172
 20
171.059
 30
0.0
 11
53.317
 21
171.059
 31
0.0
  0
LINE
  5
177
330
18
100
AcDbEntity
  8
0
100
AcDbLine
 10
67.6707
 20
174.058
 30
0.0
 11
60.3175
 21
174.058
 31
0.0
  0
LINE
  5
178
330
18
100
AcDbEntity
  8
0
100
AcDbLine
 10
73.06709999999999
 20
179.5579999999999
 30
0.0
 11
60.3175
 21
179.5579999999999
 31
0.0
  0
LINE
  5
179
330
18
100
AcDbEntity
  8
0
100
AcDbLine
 10
74.8173
 20
181.5579999999999
 30
0.0
 11
45.817
 21
181.5579999999999
 31
0.0
  0
LINE
  5
17A
330
18
100
AcDbEntity
  8
_________2
100
AcDbLine
 10
136.5469999999999
 20
258.911
 30
0.0
 11
136.5469999999999
 21
237.9109999999999
 31
0.0
  0
LINE
  5
17B
330
18
100
AcDbEntity
  8
_________2
100
AcDbLine
 10
161.7879999999999
 20
258.911
 30
0.0
 11
161.7879999999999
 21
237.9109999999999
 31
0.0
  0
TEXT
  5
17C
330
18
100
AcDbEntity
  8
_________2
100
AcDbText
 10
169.5725589999999
 20
240.0609999999999
 30
0.0
 40
3.373459999999999
  1
クロム
 41
0.5
 72
     1
 11
172.4399999999999
 21
240.0609999999999
 31
0.0
100
AcDbText
  0
TEXT
  5
17D
330
18
100
AcDbEntity
  8
_________2
100
AcDbText
 10
164.5685933333333
 20
247.0609999999999
 30
0.0
 40
3.373459999999999
  1
ポリッシュブラス
 41
0.5
 72
     1
 11
172.4399999999999
 21
247.0609999999999
 31
0.0
100
AcDbText
  0
TEXT
  5
17E
330
18
100
AcDbEntity
  8
_________2
100
AcDbText
 10
169.6287833333333
 20
254.061
 30
0.0
 40
3.373459999999999
  1
仕上色
 41
0.5
 72
     1
 11
172.4399999999999
 21
254.061
 31
0.0
100
AcDbText
  0
TEXT
  5
17F
330
18
100
AcDbEntity
  8
_________2
100
AcDbText
 10
141.4291541666666
 20
240.0609999999999
 30
0.0
 40
3.373459999999999
  1
HR01594-CH
 41
0.5
 72
     1
 11
149.16
 21
240.0609999999999
 31
0.0
100
AcDbText
  0
TEXT
  5
180
330
18
100
AcDbEntity
  8
_________2
100
AcDbText
 10
141.4291541666666
 20
247.0609999999999
 30
0.0
 40
3.373459999999999
  1
HR01594-PB
 41
0.5
 72
     1
 11
149.16
 21
247.0609999999999
 31
0.0
100
AcDbText
  0
TEXT
  5
181
330
18
100
AcDbEntity
  8
_________2
100
AcDbText
 10
147.3608213333333
 20
254.061
 30
0.0
 40
3.373459999999999
  1
品番
 41
0.5
 72
     1
 11
149.16
 21
254.061
 31
0.0
100
AcDbText
  0
LINE
  5
182
330
18
100
AcDbEntity
  8
_________2
100
AcDbLine
 10
136.5469999999999
 20
237.9109999999999
 30
0.0
 11
183.551
 21
237.9109999999999
 31
0.0
  0
LINE
  5
183
330
18
100
AcDbEntity
  8
_________2
100
AcDbLine
 10
136.5469999999999
 20
244.9109999999999
 30
0.0
 11
183.551
 21
244.9109999999999
 31
0.0
  0
LINE
  5
184
330
18
100
AcDbEntity
  8
_________2
100
AcDbLine
 10
136.5469999999999
 20
251.9109999999999
 30
0.0
 11
183.551
 21
251.9109999999999
 31
0.0
  0
LINE
  5
185
330
18
100
AcDbEntity
  8
_________2
100
AcDbLine
 10
205.301
 20
127.411
 30
0.0
 11
183.551
 21
127.411
 31
0.0
  0
LINE
  5
186
330
18
100
AcDbEntity
  8
_________2
100
AcDbLine
 10
100.2999999999999
 20
-4.09108
 30
0.0
 11
100.2999999999999
 21
-21.0714
 31
0.0
  0
LINE
  5
187
330
18
100
AcDbEntity
  8
_________2
100
AcDbLine
 10
100.2999999999999
 20
275.9309999999999
 30
0.0
 11
100.2999999999999
 21
258.911
 31
0.0
  0
LINE
  5
188
330
18
100
AcDbEntity
  8
_________2
100
AcDbLine
 10
17.0495
 20
127.411
 30
0.0
 11
-4.700859999999999
 21
127.411
 31
0.0
  0
LINE
  5
189
330
18
100
AcDbEntity
  8
_________2
100
AcDbLine
 10
76.741
 20
29.8047
 30
0.0
 11
74.5547
 21
29.8047
 31
0.0
  0
LINE
  5
18A
330
18
100
AcDbEntity
  8
_________2
100
AcDbLine
 10
77.2337
 20
29.8047
 30
0.0
 11
76.9815
 21
29.8047
 31
0.0
  0
LINE
  5
18B
330
18
100
AcDbEntity
  8
_________2
100
AcDbLine
 10
77.72629999999999
 20
29.8047
 30
0.0
 11
80.6512
 21
29.8047
 31
0.0
  0
LINE
  5
18C
330
18
100
AcDbEntity
  8
_________2
100
AcDbLine
 10
77.2337
 20
29.8047
 30
0.0
 11
77.4859
 21
29.8047
 31
0.0
  0
LINE
  5
18D
330
18
100
AcDbEntity
  8
_________2
100
AcDbLine
 10
70.83750000000001
 20
29.8047
 30
0.0
 11
68.6505
 21
29.8047
 31
0.0
  0
LINE
  5
18E
330
18
100
AcDbEntity
  8
_________2
100
AcDbLine
 10
71.32940000000001
 20
29.8047
 30
0.0
 11
71.0779
 21
29.8047
 31
0.0
  0
LINE
  5
18F
330
18
100
AcDbEntity
  8
_________2
100
AcDbLine
 10
71.32940000000001
 20
30.2974
 30
0.0
 11
71.32940000000001
 21
32.4844
 31
0.0
  0
LINE
  5
190
330
18
100
AcDbEntity
  8
_________2
100
AcDbLine
 10
71.32940000000001
 20
29.8047
 30
0.0
 11
71.32940000000001
 21
30.05689999999999
 31
0.0
  0
LINE
  5
191
330
18
100
AcDbEntity
  8
_________2
100
AcDbLine
 10
71.82210000000001
 20
29.8047
 30
0.0
 11
74.009
 21
29.8047
 31
0.0
  0
LINE
  5
192
330
18
100
AcDbEntity
  8
_________2
100
AcDbLine
 10
71.32940000000001
 20
29.8047
 30
0.0
 11
71.58159999999999
 21
29.8047
 31
0.0
  0
LINE
  5
193
330
18
100
AcDbEntity
  8
_________2
100
AcDbLine
 10
71.32940000000001
 20
29.3128
 30
0.0
 11
71.32940000000001
 21
27.1258
 31
0.0
  0
LINE
  5
194
330
18
100
AcDbEntity
  8
_________2
100
AcDbLine
 10
71.32940000000001
 20
29.8047
 30
0.0
 11
71.32940000000001
 21
29.5532
 31
0.0
  0
LINE
  5
195
330
18
100
AcDbEntity
  8
_________2
100
AcDbLine
 10
75.04049999999999
 20
28.5852
 30
0.0
 11
80.2185
 21
27.7204
 31
0.0
  0
LINE
  5
196
330
18
100
AcDbEntity
  8
_________2
100
AcDbLine
 10
75.04049999999999
 20
31.0243
 30
0.0
 11
80.2185
 21
31.8897
 31
0.0
  0
LINE
  5
197
330
18
100
AcDbEntity
  8
_________2
100
AcDbLine
 10
80.2185
 20
27.7204
 30
0.0
 11
80.2185
 21
31.8897
 31
0.0
  0
LINE
  5
198
330
18
100
AcDbEntity
  8
_________2
100
AcDbLine
 10
75.04049999999999
 20
28.5852
 30
0.0
 11
75.04049999999999
 21
31.0243
 31
0.0
  0
ARC
  5
199
330
18
100
AcDbEntity
  8
_________2
100
AcDbCircle
 10
71.28319000000001
 20
29.757787
 30
0.0
 40
1.267370999999999
100
AcDbArc
 50
2.123295
 51
87.909056
  0
ARC
  5
19A
330
18
100
AcDbEntity
  8
_________2
100
AcDbCircle
 10
71.37595999999999
 20
29.758213
 30
0.0
 40
1.266955999999999
100
AcDbArc
 50
92.104701
 51
177.8952689999999
  0
ARC
  5
19B
330
18
100
AcDbEntity
  8
_________2
100
AcDbCircle
 10
71.37635799999999
 20
29.851671
 30
0.0
 40
1.267368
100
AcDbArc
 50
182.122036
 51
267.877993
  0
ARC
  5
19C
330
18
100
AcDbEntity
  8
_________2
100
AcDbCircle
 10
71.28254100000001
 20
29.852348
 30
0.0
 40
1.268043999999999
100
AcDbArc
 50
272.119164
 51
357.8484849999999
  0
ARC
  5
19D
330
18
100
AcDbEntity
  8
_________2
100
AcDbCircle
 10
71.32943
 20
29.804743
 30
0.0
 40
2.084984999999999
100
AcDbArc
 50
0.00001
 51
89.99998000000001
  0
ARC
  5
19E
330
18
100
AcDbEntity
  8
_________2
100
AcDbCircle
 10
71.409076
 20
29.72581299999999
 30
0.0
 40
2.165379999999999
100
AcDbArc
 50
92.10787600000001
 51
177.911032
  0
ARC
  5
19F
330
18
100
AcDbEntity
  8
_________2
100
AcDbCircle
 10
71.409439
 20
29.884752
 30
0.0
 40
2.165783
100
AcDbArc
 50
182.117133
 51
267.882897
  0
ARC
  5
1A0
330
18
100
AcDbEntity
  8
_________2
100
AcDbCircle
 10
71.249459
 20
29.88542999999999
 30
0.0
 40
2.166459
100
AcDbArc
 50
272.115468
 51
357.865604
  0
TEXT
  5
1A1
330
18
100
AcDbEntity
  8
_________2
100
AcDbText
 10
104.605
 20
1.67949
 30
0.0
 40
3.09234
  1
図番
 41
0.5
100
AcDbText
  0
LINE
  5
1A2
330
18
100
AcDbEntity
  8
_________2
100
AcDbLine
 10
103.55
 20
5.908719999999999
 30
0.0
 11
183.551
 21
5.908719999999999
 31
0.0
  0
TEXT
  5
1A3
330
18
100
AcDbEntity
  8
_________2
100
AcDbText
 10
104.605
 20
11.67929999999999
 30
0.0
 40
3.09234
  1
品番
 41
0.5
100
AcDbText
  0
TEXT
  5
1A4
330
18
100
AcDbEntity
  8
_________2
100
AcDbText
 10
104.605
 20
31.8181
 30
0.0
 40
3.09234
  1
名称
 41
0.5
100
AcDbText
  0
TEXT
  5
1A5
330
18
100
AcDbEntity
  8
_________2
100
AcDbText
 10
91.84505833333334
 20
26.82199999999999
 30
0.0
 40
3.65458
  1
mm
 41
0.5
 72
     1
 11
93.3678
 21
26.82199999999999
 31
0.0
100
AcDbText
  0
TEXT
  5
1A6
330
18
100
AcDbEntity
  8
_________2
100
AcDbText
 10
85.6432
 20
31.8181
 30
0.0
 40
3.09234
  1
単位
 41
0.5
100
AcDbText
  0
TEXT
  5
1A7
330
18
100
AcDbEntity
  8
_________2
100
AcDbText
 10
85.6432
 20
19.41079999999999
 30
0.0
 40
3.09234
  1
尺度
 41
0.5
100
AcDbText
  0
TEXT
  5
1A8
330
18
100
AcDbEntity
  8
_________2
100
AcDbText
 10
90.54875866666666
 20
13.2179
 30
0.0
 40
3.65458
  1
1 ： 2
 41
0.5
 72
     1
 11
93.9597
 21
13.2179
 31
0.0
100
AcDbText
  0
TEXT
  5
1A9
330
18
100
AcDbEntity
  8
_________2
100
AcDbText
 10
137.4824625
 20
9.10786
 30
0.0
 40
3.9357
  1
HR01594
 41
0.5
 72
     1
 11
143.55
 21
9.10786
 31
0.0
100
AcDbText
  0
TEXT
  5
1AA
330
18
100
AcDbEntity
  8
_________2
100
AcDbText
 10
137.4824625
 20
-0.8926299999999999
 30
0.0
 40
3.9357
  1
HR01594
 41
0.5
 72
     1
 11
143.55
 21
-0.8926299999999999
 31
0.0
100
AcDbText
  0
TEXT
  5
1AB
330
18
100
AcDbEntity
  8
_________2
100
AcDbText
 10
109.179
 20
24.2257
 30
0.0
 40
3.9357
  1
シャワーホルダー
 41
0.5
100
AcDbText
  0
TEXT
  5
1AC
330
18
100
AcDbEntity
  8
_________2
100
AcDbText
 10
39.36439066666666
 20
13.603
 30
0.0
 40
3.65458
  1
高橋
 41
0.5
 72
     1
 11
41.3135
 21
13.603
 31
0.0
100
AcDbText
  0
TEXT
  5
1AD
330
18
100
AcDbEntity
  8
_________2
100
AcDbText
 10
20.79039066666666
 20
13.603
 30
0.0
 40
3.65458
  1
石原
 41
0.5
 72
     1
 11
22.7395
 21
13.603
 31
0.0
100
AcDbText
  0
TEXT
  5
1AE
330
18
100
AcDbEntity
  8
_________2
100
AcDbText
 10
67.78579999999999
 20
13.2179
 30
0.0
 40
3.65458
  1
08.11.28
 41
0.5
100
AcDbText
  0
TEXT
  5
1AF
330
18
100
AcDbEntity
  8
_________2
100
AcDbText
 10
66.59310000000001
 20
19.41079999999999
 30
0.0
 40
3.09234
  1
日付
 41
0.5
100
AcDbText
  0
TEXT
  5
1B0
330
18
100
AcDbEntity
  8
_________2
100
AcDbText
 10
29.6394
 20
19.41079999999999
 30
0.0
 40
3.09234
  1
検図
 41
0.5
100
AcDbText
  0
TEXT
  5
1B1
330
18
100
AcDbEntity
  8
_________2
100
AcDbText
 10
18.0211
 20
5.21143
 30
0.0
 40
3.09234
  1
備考
 41
0.5
100
AcDbText
  0
TEXT
  5
1B2
330
18
100
AcDbEntity
  8
_________2
100
AcDbText
 10
18.0211
 20
19.41079999999999
 30
0.0
 40
3.09234
  1
製図
 41
0.5
100
AcDbText
  0
TEXT
  5
1B3
330
18
100
AcDbEntity
  8
_________2
100
AcDbText
 10
23.863431
 20
27.9368
 30
0.0
 40
4.497939999999999
  1
セラトレーディング株式会社
 41
0.5
 72
     1
 11
41.1805
 21
27.9368
 31
0.0
100
AcDbText
  0
LINE
  5
1B4
330
18
100
AcDbEntity
  8
_________2
100
AcDbLine
 10
183.551
 20
-4.09108
 30
0.0
 11
17.0495
 21
-4.09108
 31
0.0
  0
LINE
  5
1B5
330
18
100
AcDbEntity
  8
_________2
100
AcDbLine
 10
17.0495
 20
-4.09108
 30
0.0
 11
17.0495
 21
258.911
 31
0.0
  0
LINE
  5
1B6
330
18
100
AcDbEntity
  8
_________2
100
AcDbLine
 10
17.0495
 20
258.911
 30
0.0
 11
183.551
 21
258.911
 31
0.0
  0
LINE
  5
1B7
330
18
100
AcDbEntity
  8
_________2
100
AcDbLine
 10
183.551
 20
258.911
 30
0.0
 11
183.551
 21
-4.09108
 31
0.0
  0
LINE
  5
1B8
330
18
100
AcDbEntity
  8
_________2
100
AcDbLine
 10
65.5499
 20
9.40896
 30
0.0
 11
65.5499
 21
35.9088
 31
0.0
  0
LINE
  5
1B9
330
18
100
AcDbEntity
  8
_________2
100
AcDbLine
 10
84.54970000000001
 20
9.40896
 30
0.0
 11
84.54970000000001
 21
35.9088
 31
0.0
  0
LINE
  5
1BA
330
18
100
AcDbEntity
  8
_________2
100
AcDbLine
 10
103.55
 20
-4.09108
 30
0.0
 11
103.55
 21
35.9088
 31
0.0
  0
LINE
  5
1BB
330
18
100
AcDbEntity
  8
_________2
100
AcDbLine
 10
28.54929999999999
 20
9.40896
 30
0.0
 11
28.54929999999999
 21
23.4092
 31
0.0
  0
LINE
  5
1BC
330
18
100
AcDbEntity
  8
_________2
100
AcDbLine
 10
17.0495
 20
9.40896
 30
0.0
 11
103.55
 21
9.40896
 31
0.0
  0
LINE
  5
1BD
330
18
100
AcDbEntity
  8
_________2
100
AcDbLine
 10
17.0495
 20
23.4092
 30
0.0
 11
103.55
 21
23.4092
 31
0.0
  0
LINE
  5
1BE
330
18
100
AcDbEntity
  8
_________2
100
AcDbLine
 10
103.55
 20
15.9085
 30
0.0
 11
183.551
 21
15.9085
 31
0.0
  0
LINE
  5
1BF
330
18
100
AcDbEntity
  8
_________2
100
AcDbLine
 10
17.0495
 20
35.9088
 30
0.0
 11
183.551
 21
35.9088
 31
0.0
  0
ENDSEC
  0
SECTION
  2
OBJECTS
  0
DICTIONARY
  5
C
330
0
100
AcDbDictionary
281
     1
  3
ACAD_GROUP
350
D
  3
ACAD_MLINESTYLE
350
1B
  3
ACAD_PLOTSTYLENAME
350
1C3
  3
ACAD_LAYOUT
350
1C5
  3
ACAD_PLOTSETTINGS
350
1C6
  0
DICTIONARY
  5
D
102
{ACAD_REACTORS
330
C
102
}
330
C
100
AcDbDictionary
281
     1
  0
DICTIONARY
  5
1B
102
{ACAD_REACTORS
330
C
102
}
330
C
100
AcDbDictionary
281
     1
  3
STANDARD
350
1C
  0
ACDBDICTIONARYWDFLT
  5
1C3
102
{ACAD_REACTORS
330
C
102
}
330
C
100
AcDbDictionary
281
     1
  3
Normal
350
1C4
100
AcDbDictionaryWithDefault
340
1C4
  0
DICTIONARY
  5
1C5
102
{ACAD_REACTORS
330
C
102
}
330
C
100
AcDbDictionary
281
     1
  3
Model
350
1C7
  3
ﾚｲｱｳﾄ1
350
1C8
  0
DICTIONARY
  5
1C6
102
{ACAD_REACTORS
330
C
102
}
330
C
100
AcDbDictionary
281
     1
  0
MLINESTYLE
  5
1C
102
{ACAD_REACTORS
330
1B
102
}
330
1B
100
AcDbMlineStyle
  2
STANDARD
 70
     0
  3

 62
   256
 51
90.0
 52
90.0
 71
     2
 49
0.5
 62
   256
  6
BYLAYER
 49
-0.5
 62
   256
  6
BYLAYER
  0
ACDBPLACEHOLDER
  5
1C4
102
{ACAD_REACTORS
330
1C3
102
}
330
1C3
  0
LAYOUT
  5
1C7
102
{ACAD_REACTORS
330
1C5
102
}
330
1C5
100
AcDbPlotSettings
  1

  2
Canon LASER SHOT LBP-880
  4

  6

 40
0.0
 41
0.0
 42
0.0
 43
0.0
 44
0.0
 45
0.0
 46
0.0
 47
0.0
 48
0.0
 49
0.0
140
0.0
141
0.0
142
1.0
143
1.0
 70
  1712
 72
     0
 73
     0
 74
     0
  7

 75
     0
147
1.0
148
0.0
149
0.0
100
AcDbLayout
  1
Model
 70
     1
 71
     0
 10
0.0
 20
0.0
 11
12.0
 21
9.0
 12
0.0
 22
0.0
 32
0.0
 14
0.0
 24
0.0
 34
0.0
 15
0.0
 25
0.0
 35
0.0
146
0.0
 13
0.0
 23
0.0
 33
0.0
 16
1.0
 26
0.0
 36
0.0
 17
0.0
 27
1.0
 37
0.0
 76
     0
330
18
  0
LAYOUT
  5
1C8
102
{ACAD_REACTORS
330
1C5
102
}
330
1C5
100
AcDbPlotSettings
  1

  2
Canon LASER SHOT LBP-880
  4

  6

 40
0.0
 41
0.0
 42
0.0
 43
0.0
 44
0.0
 45
0.0
 46
0.0
 47
0.0
 48
0.0
 49
0.0
140
0.0
141
0.0
142
1.0
143
1.0
 70
   688
 72
     0
 73
     0
 74
     5
  7

 75
    16
147
1.0
148
0.0
149
0.0
100
AcDbLayout
  1
ﾚｲｱｳﾄ1
 70
     1
 71
     1
 10
0.0
 20
0.0
 11
12.0
 21
9.0
 12
0.0
 22
0.0
 32
0.0
 14
1.000000000000000E+20
 24
1.000000000000000E+20
 34
1.000000000000000E+20
 15
-1.000000000000000E+20
 25
-1.000000000000000E+20
 35
-1.000000000000000E+20
146
0.0
 13
0.0
 23
0.0
 33
0.0
 16
1.0
 26
0.0
 36
0.0
 17
0.0
 27
1.0
 37
0.0
 76
     0
330
15
  0
ENDSEC
  0
EOF
