  0
SECTION
  2
HEADER
  9
$ACADVER
  1
AC1009
  9
$INSBASE
 10
0.0
 20
0.0
 30
0.0
  9
$EXTMIN
 10
-4.7008599999999987
 20
-21.071400000000001
 30
0.0
  9
$EXTMAX
 10
205.30099999999999
 20
275.93099999999998
 30
0.0
  9
$LIMMIN
 10
0.0
 20
0.0
  9
$LIMMAX
 10
12.0
 20
9.0
  9
$ORTHOMODE
 70
     0
  9
$REGENMODE
 70
     1
  9
$FILLMODE
 70
     1
  9
$QTEXTMODE
 70
     0
  9
$MIRRTEXT
 70
     1
  9
$DRAGMODE
 70
     2
  9
$LTSCALE
 40
1.0
  9
$OSMODE
 70
    37
  9
$ATTMODE
 70
     1
  9
$TEXTSIZE
 40
0.0
  9
$TRACEWID
 40
0.05
  9
$TEXTSTYLE
  7
STANDARD
  9
$CLAYER
  8
0
  9
$CELTYPE
  6
CONTINUOUS
  9
$CECOLOR
 62
   256
  9
$DIMSCALE
 40
1.0
  9
$DIMASZ
 40
0.18
  9
$DIMEXO
 40
0.0625
  9
$DIMDLI
 40
0.38
  9
$DIMRND
 40
0.0
  9
$DIMDLE
 40
0.0
  9
$DIMEXE
 40
0.18
  9
$DIMTP
 40
0.0
  9
$DIMTM
 40
0.0
  9
$DIMTXT
 40
0.18
  9
$DIMCEN
 40
0.09
  9
$DIMTSZ
 40
0.0
  9
$DIMTOL
 70
     0
  9
$DIMLIM
 70
     0
  9
$DIMTIH
 70
     1
  9
$DIMTOH
 70
     1
  9
$DIMSE1
 70
     0
  9
$DIMSE2
 70
     0
  9
$DIMTAD
 70
     0
  9
$DIMZIN
 70
     0
  9
$DIMBLK
  1

  9
$DIMASO
 70
     1
  9
$DIMSHO
 70
     1
  9
$DIMPOST
  1

  9
$DIMAPOST
  1

  9
$DIMALT
 70
     0
  9
$DIMALTD
 70
     2
  9
$DIMALTF
 40
25.399999999999999
  9
$DIMLFAC
 40
1.0
  9
$DIMTOFL
 70
     0
  9
$DIMTVP
 40
0.0
  9
$DIMTIX
 70
     0
  9
$DIMSOXD
 70
     0
  9
$DIMSAH
 70
     0
  9
$DIMBLK1
  1

  9
$DIMBLK2
  1

  9
$DIMSTYLE
  2
STANDARD
  9
$DIMCLRD
 70
     0
  9
$DIMCLRE
 70
     0
  9
$DIMCLRT
 70
     0
  9
$DIMTFAC
 40
1.0
  9
$DIMGAP
 40
0.09
  9
$LUNITS
 70
     2
  9
$LUPREC
 70
     4
  9
$SKETCHINC
 40
0.1
  9
$FILLETRAD
 40
0.0
  9
$AUNITS
 70
     0
  9
$AUPREC
 70
     0
  9
$MENU
  1
.
  9
$ELEVATION
 40
0.0
  9
$PELEVATION
 40
0.0
  9
$THICKNESS
 40
0.0
  9
$LIMCHECK
 70
     0
  9
$BLIPMODE
 70
     0
  9
$CHAMFERA
 40
0.0
  9
$CHAMFERB
 40
0.0
  9
$SKPOLY
 70
     0
  9
$TDCREATE
 40
2444972.375
  9
$TDUPDATE
 40
2457866.2518120371
  9
$TDINDWG
 40
0.000034456
  9
$TDUSRTIMER
 40
0.000034456
  9
$USRTIMER
 70
     1
  9
$ANGBASE
 50
0.0
  9
$ANGDIR
 70
     0
  9
$PDMODE
 70
     0
  9
$PDSIZE
 40
0.0
  9
$PLINEWID
 40
0.0
  9
$COORDS
 70
     1
  9
$SPLFRAME
 70
     0
  9
$SPLINETYPE
 70
     6
  9
$SPLINESEGS
 70
     8
  9
$ATTDIA
 70
     1
  9
$ATTREQ
 70
     1
  9
$HANDLING
 70
     1
  9
$HANDSEED
  5
5A6
  9
$SURFTAB1
 70
     6
  9
$SURFTAB2
 70
     6
  9
$SURFTYPE
 70
     6
  9
$SURFU
 70
     6
  9
$SURFV
 70
     6
  9
$UCSNAME
  2

  9
$UCSORG
 10
0.0
 20
0.0
 30
0.0
  9
$UCSXDIR
 10
1.0
 20
0.0
 30
0.0
  9
$UCSYDIR
 10
0.0
 20
1.0
 30
0.0
  9
$PUCSNAME
  2

  9
$PUCSORG
 10
0.0
 20
0.0
 30
0.0
  9
$PUCSXDIR
 10
1.0
 20
0.0
 30
0.0
  9
$PUCSYDIR
 10
0.0
 20
1.0
 30
0.0
  9
$USERI1
 70
     0
  9
$USERI2
 70
     0
  9
$USERI3
 70
     0
  9
$USERI4
 70
     0
  9
$USERI5
 70
     0
  9
$USERR1
 40
0.0
  9
$USERR2
 40
0.0
  9
$USERR3
 40
0.0
  9
$USERR4
 40
0.0
  9
$USERR5
 40
0.0
  9
$WORLDVIEW
 70
     1
  9
$SHADEDGE
 70
     3
  9
$SHADEDIF
 70
    70
  9
$TILEMODE
 70
     1
  9
$MAXACTVP
 70
    48
  9
$PLIMCHECK
 70
     0
  9
$PEXTMIN
 10
1.0000000000000000E+020
 20
1.0000000000000000E+020
 30
1.0000000000000000E+020
  9
$PEXTMAX
 10
-1.0000000000000000E+020
 20
-1.0000000000000000E+020
 30
-1.0000000000000000E+020
  9
$PLIMMIN
 10
0.0
 20
0.0
  9
$PLIMMAX
 10
12.0
 20
9.0
  9
$UNITMODE
 70
     0
  9
$VISRETAIN
 70
     1
  9
$PLINEGEN
 70
     0
  9
$PSLTSCALE
 70
     1
  0
ENDSEC
  0
SECTION
  2
TABLES
  0
TABLE
  2
VPORT
 70
     1
  0
VPORT
  2
*ACTIVE
 70
     0
 10
0.0
 20
0.0
 11
1.0
 21
1.0
 12
226.67876394973209
 22
127.4298
 13
0.0
 23
0.0
 14
1.0
 24
1.0
 15
0.0
 25
0.0
 16
0.0
 26
0.0
 36
1.0
 17
0.0
 27
0.0
 37
0.0
 40
272.82219812461602
 41
1.479591836734693
 42
50.0
 43
0.0
 44
0.0
 50
0.0
 51
0.0
 71
     0
 72
   100
 73
     1
 74
     1
 75
     0
 76
     0
 77
     0
 78
     0
  0
ENDTAB
  0
TABLE
  2
LTYPE
 70
     2
  0
LTYPE
  2
CONTINUOUS
 70
     0
  3
Solid line
 72
    65
 73
     0
 40
0.0
  0
LTYPE
  2
AIGENLINE001
 70
     0
  3
generate AI->DXF Converter
 72
    65
 73
     4
 40
5.8561449999999988
 49
3.5278
 49
-0.776115
 49
0.776115
 49
-0.776115
  0
ENDTAB
  0
TABLE
  2
LAYER
 70
     4
  0
LAYER
  2
0
 70
     0
 62
     7
  6
CONTINUOUS
  0
LAYER
  2
____
 70
     0
 62
     7
  6
CONTINUOUS
  0
LAYER
  2
_________1
 70
     0
 62
     7
  6
CONTINUOUS
  0
LAYER
  2
_________2
 70
     0
 62
     7
  6
CONTINUOUS
  0
ENDTAB
  0
TABLE
  2
STYLE
 70
     1
  0
STYLE
  2
STANDARD
 70
     0
 40
0.0
 41
0.0
 50
0.0
 71
     0
 42
0.0
  3
TXT
  4
EXTFONT.SHX
  0
ENDTAB
  0
TABLE
  2
VIEW
 70
     0
  0
ENDTAB
  0
TABLE
  2
UCS
 70
     0
  0
ENDTAB
  0
TABLE
  2
APPID
 70
     3
  0
APPID
  2
ACAD
 70
     0
  0
APPID
  2
ACAD_NAV_VCDISPLAY
 70
     0
  0
APPID
  2
ACAD_MLEADERVER
 70
     0
  0
ENDTAB
  0
TABLE
  2
DIMSTYLE
 70
     1
  0
DIMSTYLE
  2
STANDARD
 70
     0
  3

  4

  5

  6

  7

 40
1.0
 41
0.18
 42
0.0625
 43
0.38
 44
0.18
 45
0.0
 46
0.0
 47
0.0
 48
0.0
140
0.18
141
0.09
142
0.0
143
25.399999999999999
144
1.0
145
0.0
146
1.0
147
0.09
 71
     0
 72
     0
 73
     1
 74
     1
 75
     0
 76
     0
 77
     0
 78
     0
170
     0
171
     2
172
     0
173
     0
174
     0
175
     0
176
     0
177
     0
178
     0
  0
ENDTAB
  0
ENDSEC
  0
SECTION
  2
BLOCKS
  0
BLOCK
  8
0
  2
$MODEL_SPACE
 70
     0
 10
0.0
 20
0.0
 30
0.0
  3
$MODEL_SPACE
  1

  0
ENDBLK
  5
1A
  8
0
  0
BLOCK
 67
     1
  8
0
  2
$PAPER_SPACE
 70
     0
 10
0.0
 20
0.0
 30
0.0
  3
$PAPER_SPACE
  1

  0
ENDBLK
  5
17
 67
     1
  8
0
  0
BLOCK
  8
_________1
  2
AIGNBL02010002
 70
     0
 10
0.0
 20
0.0
 30
0.0
  3
AIGNBL02010002
  1

  0
LINE
  5
26
  8
_________1
 62
     7
 10
161.67400000000001
 20
112.755
 30
0.0
 11
161.08099999999999
 21
114.96599999999999
 31
0.0
  0
LINE
  5
27
  8
_________1
 62
     7
 10
161.08099999999999
 20
114.96599999999999
 30
0.0
 11
160.489
 21
112.755
 31
0.0
  0
LINE
  5
28
  8
_________1
 62
     7
 10
160.489
 20
112.755
 30
0.0
 11
161.67400000000001
 21
112.755
 31
0.0
  0
LINE
  5
29
  8
_________1
 62
     7
 10
160.489
 20
98.174800000000005
 30
0.0
 11
161.08099999999999
 21
95.963099999999997
 31
0.0
  0
LINE
  5
2A
  8
_________1
 62
     7
 10
161.08099999999999
 20
95.963099999999997
 30
0.0
 11
161.67400000000001
 21
98.174800000000005
 31
0.0
  0
LINE
  5
2B
  8
_________1
 62
     7
 10
161.67400000000001
 20
98.174800000000005
 30
0.0
 11
160.489
 21
98.174800000000005
 31
0.0
  0
LINE
  5
2C
  8
_________1
 62
     7
 10
161.08099999999999
 20
114.96599999999999
 30
0.0
 11
161.08099999999999
 21
95.963099999999997
 31
0.0
  0
ENDBLK
  5
2D
  8
_________1
  0
BLOCK
  8
_________1
  2
AIGNBL02010003
 70
     0
 10
0.0
 20
0.0
 30
0.0
  3
AIGNBL02010003
  1

  0
LINE
  5
30
  8
_________1
 62
     7
 10
168.898
 20
119.502
 30
0.0
 11
168.30500000000001
 21
121.714
 31
0.0
  0
LINE
  5
31
  8
_________1
 62
     7
 10
168.30500000000001
 20
121.714
 30
0.0
 11
167.71299999999999
 21
119.502
 31
0.0
  0
LINE
  5
32
  8
_________1
 62
     7
 10
167.71299999999999
 20
119.502
 30
0.0
 11
168.898
 21
119.502
 31
0.0
  0
LINE
  5
33
  8
_________1
 62
     7
 10
167.71299999999999
 20
91.424499999999995
 30
0.0
 11
168.30500000000001
 21
89.212699999999984
 31
0.0
  0
LINE
  5
34
  8
_________1
 62
     7
 10
168.30500000000001
 20
89.212699999999984
 30
0.0
 11
168.898
 21
91.424499999999995
 31
0.0
  0
LINE
  5
35
  8
_________1
 62
     7
 10
168.898
 20
91.424499999999995
 30
0.0
 11
167.71299999999999
 21
91.424499999999995
 31
0.0
  0
LINE
  5
36
  8
_________1
 62
     7
 10
168.30500000000001
 20
121.714
 30
0.0
 11
168.30500000000001
 21
89.212699999999984
 31
0.0
  0
ENDBLK
  5
37
  8
_________1
  0
BLOCK
  8
_________1
  2
AIGNBL02010004
 70
     0
 10
0.0
 20
0.0
 30
0.0
  3
AIGNBL02010004
  1

  0
LINE
  5
3A
  8
_________1
 62
     7
 10
132.22800000000001
 20
128.54499999999999
 30
0.0
 11
134.44
 21
129.137
 31
0.0
  0
LINE
  5
3B
  8
_________1
 62
     7
 10
134.44
 20
129.137
 30
0.0
 11
132.22800000000001
 21
129.72999999999999
 31
0.0
  0
LINE
  5
3C
  8
_________1
 62
     7
 10
132.22800000000001
 20
129.72999999999999
 30
0.0
 11
132.22800000000001
 21
128.54499999999999
 31
0.0
  0
LINE
  5
3D
  8
_________1
 62
     7
 10
100.651
 20
129.72999999999999
 30
0.0
 11
98.439400000000006
 21
129.137
 31
0.0
  0
LINE
  5
3E
  8
_________1
 62
     7
 10
98.439400000000006
 20
129.137
 30
0.0
 11
100.651
 21
128.54499999999999
 31
0.0
  0
LINE
  5
3F
  8
_________1
 62
     7
 10
100.651
 20
128.54499999999999
 30
0.0
 11
100.651
 21
129.72999999999999
 31
0.0
  0
LINE
  5
40
  8
_________1
 62
     7
 10
134.44
 20
129.137
 30
0.0
 11
98.439400000000006
 21
129.137
 31
0.0
  0
ENDBLK
  5
41
  8
_________1
  0
ENDSEC
  0
SECTION
  2
ENTITIES
  0
TEXT
  5
42
  8
____
 62
     7
 10
72.911749
 20
199.65600000000001
 30
0.0
 40
3.0923400000000001
  1
%%c3.9\U+00D735（樹脂プラグ%%c6\U+00D730付）
 41
0.5
 72
     2
 11
104.29900000000001
 21
199.65600000000001
 31
0.0
  0
TEXT
  5
43
  8
____
 62
     7
 10
80.784325999999993
 20
205.10499999999999
 30
0.0
 40
3.0923400000000001
  1
SUSすり割り付木ねじ
 41
0.5
 72
     2
 11
99.647599999999997
 21
205.10499999999999
 31
0.0
  0
TEXT
  5
44
  8
____
 62
     7
 10
115.150525
 20
129.83799999999999
 30
0.0
 40
3.0923400000000001
  1
72
 41
0.5
 72
     1
 11
116.43899999999999
 21
129.83799999999999
 31
0.0
  0
TEXT
  5
45
  8
____
 62
     7
 10
160.381
 20
104.176525
 30
0.0
 40
3.0923400000000001
  1
38
 50
90.0
 41
0.5
 72
     1
 11
160.381
 21
105.465
 31
0.0
  0
TEXT
  5
46
  8
____
 62
     7
 10
167.60499999999999
 20
103.40143999999999
 30
0.0
 40
3.0923400000000001
  1
%%c65
 50
90.0
 41
0.5
 72
     1
 11
167.60499999999999
 21
105.46299999999999
 31
0.0
  0
LINE
  5
47
  8
_________1
 62
     7
 10
161.78100000000001
 20
114.96599999999999
 30
0.0
 11
154.14099999999999
 21
114.96599999999999
 31
0.0
  0
LINE
  5
48
  8
_________1
 62
     7
 10
161.78100000000001
 20
95.963099999999997
 30
0.0
 11
154.14099999999999
 21
95.963099999999997
 31
0.0
  0
INSERT
  5
49
  8
_________1
 62
     7
  2
AIGNBL02010002
 10
0.0
 20
0.0
 30
0.0
  0
LINE
  5
4A
  8
_________1
 62
     7
 10
169.005
 20
121.714
 30
0.0
 11
135.13999999999999
 21
121.714
 31
0.0
  0
LINE
  5
4B
  8
_________1
 62
     7
 10
169.005
 20
89.212699999999984
 30
0.0
 11
135.13999999999999
 21
89.212699999999984
 31
0.0
  0
INSERT
  5
4C
  8
_________1
 62
     7
  2
AIGNBL02010003
 10
0.0
 20
0.0
 30
0.0
  0
INSERT
  5
4D
  8
_________1
 62
     7
  2
AIGNBL02010004
 10
0.0
 20
0.0
 30
0.0
  0
LINE
  5
4E
  8
_________1
 62
     7
 10
104.985
 20
101.306
 30
0.0
 11
93.486000000000004
 21
101.306
 31
0.0
  0
ARC
  5
4F
  8
_________1
 62
     7
 10
99.948631999999989
 20
106.632086
 30
0.0
 40
8.3742499999999982
 50
211.71410299999991
 51
219.49096299999999
  0
ARC
  5
50
  8
_________1
 62
     7
 10
97.841459999999984
 20
105.287479
 30
0.0
 40
5.874994
 50
197.59496300000001
 51
211.36171400000001
  0
ARC
  5
51
  8
_________1
 62
     7
 10
97.187736999999984
 20
105.01695599999999
 30
0.0
 40
5.1704290000000004
 50
181.79958500000001
 51
196.927222
  0
ARC
  5
52
  8
_________1
 62
     7
 10
103.58205599999999
 20
105.343887
 30
0.0
 40
11.572547
 50
179.408715
 51
182.42326399999999
  0
ARC
  5
53
  8
_________1
 62
     7
 10
104.297556
 20
102.002262
 30
0.0
 40
0.9782299999999999
 50
314.65776799999998
 51
319.52929399999999
  0
ARC
  5
54
  8
_________1
 62
     7
 10
102.96844
 20
103.17359999999999
 30
0.0
 40
2.7497539999999998
 50
318.93740100000002
 51
327.02770500000003
  0
ARC
  5
55
  8
_________1
 62
     7
 10
101.81201299999999
 20
103.954978
 30
0.0
 40
4.1452540000000004
 50
326.66614900000002
 51
343.181962
  0
ARC
  5
56
  8
_________1
 62
     7
 10
100.996343
 20
104.262827
 30
0.0
 40
5.0154500000000004
 50
342.51156900000012
 51
346.30206299999998
  0
LINE
  5
57
  8
_________1
 62
     7
 10
105.869
 20
103.075
 30
0.0
 11
105.958
 21
105.46299999999999
 31
0.0
  0
LINE
  5
58
  8
_________1
 62
     7
 10
104.985
 20
109.61799999999999
 30
0.0
 11
93.486000000000004
 21
109.61799999999999
 31
0.0
  0
ARC
  5
59
  8
_________1
 62
     7
 10
99.948631999999989
 20
104.292462
 30
0.0
 40
8.3742499999999982
 50
140.50903700000001
 51
148.28589700000001
  0
ARC
  5
5A
  8
_________1
 62
     7
 10
97.842126000000007
 20
105.63667700000001
 30
0.0
 40
5.8757669999999989
 50
148.638396
 51
162.402749
  0
ARC
  5
5B
  8
_________1
 62
     7
 10
97.186218000000011
 20
105.907871
 30
0.0
 40
5.168914
 50
163.07014599999999
 51
178.19891699999999
  0
ARC
  5
5C
  8
_________1
 62
     7
 10
103.571894
 20
105.581254
 30
0.0
 40
11.562385000000001
 50
177.57572500000001
 51
180.59132399999999
  0
ARC
  5
5D
  8
_________1
 62
     7
 10
104.32402500000001
 20
108.94624
 30
0.0
 40
0.9425899999999998
 50
40.410308000000001
 51
45.463270999999999
  0
ARC
  5
5E
  8
_________1
 62
     7
 10
102.972024
 20
107.752521
 30
0.0
 40
2.7460610000000001
 50
32.990943999999999
 51
41.088008000000002
  0
ARC
  5
5F
  8
_________1
 62
     7
 10
101.815489
 20
106.971103
 30
0.0
 40
4.141678999999999
 50
16.820644999999999
 51
33.346178000000002
  0
ARC
  5
60
  8
_________1
 62
     7
 10
100.994463
 20
106.661835
 30
0.0
 40
5.0174139999999987
 50
13.699237999999999
 51
17.488129000000001
  0
LINE
  5
61
  8
_________1
  6
AIGENLINE001
 62
     7
 10
98.439400000000006
 20
99.358599999999996
 30
0.0
 11
98.439400000000006
 21
111.565
 31
0.0
  0
LINE
  5
62
  8
_________1
 62
     7
 10
105.869
 20
107.84999999999999
 30
0.0
 11
105.958
 21
105.46299999999999
 31
0.0
  0
ARC
  5
63
  8
_________1
 62
     7
 10
65.157273000000004
 20
171.33326199999999
 30
0.0
 40
2.182828999999999
 50
270.06933600000002
 51
300.41814599999998
  0
ARC
  5
64
  8
_________1
 62
     7
 10
65.398344999999992
 20
170.85579300000001
 30
0.0
 40
1.6493739999999999
 50
301.594334
 51
328.46031799999997
  0
ARC
  5
65
  8
_________1
 62
     7
 10
65.718491
 20
170.62274099999999
 30
0.0
 40
1.254999999999999
 50
329.88305000000003
 51
359.40852899999999
  0
ARC
  5
66
  8
_________1
 62
     7
 10
65.748174000000006
 20
170.60665299999999
 30
0.0
 40
1.2252540000000001
 50
0.146502
 51
34.775075000000001
  0
ARC
  5
67
  8
_________1
 62
     7
 10
65.477083999999991
 20
170.43783099999999
 30
0.0
 40
1.544297
 50
34.183376000000003
 51
57.202455
  0
ARC
  5
68
  8
_________1
 62
     7
 10
65.213420999999997
 20
170.067125
 30
0.0
 40
1.9988369999999991
 50
56.605299000000009
 51
86.214673000000005
  0
ARC
  5
69
  8
_________1
 62
     7
 10
65.160482999999999
 20
169.79720699999999
 30
0.0
 40
2.271930999999999
 50
85.331909999999993
 51
90.014330000000015
  0
ARC
  5
6A
  8
_________1
 62
     7
 10
65.162560999999997
 20
169.88737800000001
 30
0.0
 40
2.181760999999999
 50
90.069505000000007
 51
120.42574500000001
  0
ARC
  5
6B
  8
_________1
 62
     7
 10
64.922021999999998
 20
170.36306300000001
 30
0.0
 40
1.6501099999999991
 50
121.58843400000001
 51
148.446819
  0
ARC
  5
6C
  8
_________1
 62
     7
 10
64.600956000000011
 20
170.59673699999999
 30
0.0
 40
1.2546200000000001
 50
149.867977
 51
179.404033
  0
ARC
  5
6D
  8
_________1
 62
     7
 10
64.571031000000005
 20
170.61291800000001
 30
0.0
 40
1.224629999999999
 50
180.146525
 51
214.79526100000001
  0
ARC
  5
6E
  8
_________1
 62
     7
 10
64.843683999999996
 20
170.782859
 30
0.0
 40
1.545590999999999
 50
214.200907
 51
237.20453599999991
  0
ARC
  5
6F
  8
_________1
 62
     7
 10
65.106923999999992
 20
171.15306299999989
 30
0.0
 40
1.999477999999999
 50
236.60951299999999
 51
266.20433700000001
  0
ARC
  5
70
  8
_________1
 62
     7
 10
65.159351000000001
 20
171.41971799999999
 30
0.0
 40
2.269283999999999
 50
265.329207
 51
270.01423699999998
  0
LINE
  5
71
  8
_________1
 62
     7
 10
65.203999999999994
 20
172.334
 30
0.0
 11
65.554699999999997
 21
172.334
 31
0.0
  0
ARC
  5
72
  8
_________1
 62
     7
 10
65.553347000000002
 20
171.362301
 30
0.0
 40
0.9721110000000001
 50
70.706486999999996
 51
89.918756000000016
  0
ARC
  5
73
  8
_________1
 62
     7
 10
65.432812999999996
 20
170.967083
 30
0.0
 40
1.3850610000000001
 50
48.363854000000003
 51
71.402260999999996
  0
ARC
  5
74
  8
_________1
 62
     7
 10
65.158904000000007
 20
170.63579799999999
 30
0.0
 40
1.8147070000000001
 50
359.17871100000002
 51
48.849796999999988
  0
ARC
  5
75
  8
_________1
 62
     7
 10
64.997913999999994
 20
170.619
 30
0.0
 40
1.9755320000000001
 50
319.20874700000002
 51
359.732775
  0
ARC
  5
76
  8
_________1
 62
     7
 10
65.491270999999983
 20
170.2378239999999
 30
0.0
 40
1.35341
 50
270.527762
 51
317.78081600000002
  0
LINE
  5
77
  8
_________1
 62
     7
 10
65.503699999999995
 20
168.88399999999999
 30
0.0
 11
65.203999999999994
 21
168.88399999999999
 31
0.0
  0
LINE
  5
78
  8
_________1
 62
     7
 10
41.966700000000003
 20
187.10599999999999
 30
0.0
 11
58.217300000000002
 21
187.10599999999999
 31
0.0
  0
ARC
  5
79
  8
_________1
 62
     7
 10
51.276659000000002
 20
171.33525499999999
 30
0.0
 40
2.184822
 50
239.596092
 51
269.93093599999997
  0
ARC
  5
7A
  8
_________1
 62
     7
 10
51.034593000000001
 20
170.855662
 30
0.0
 40
1.6490249999999991
 50
211.54179099999999
 51
238.41669300000001
  0
ARC
  5
7B
  8
_________1
 62
     7
 10
50.714455000000001
 20
170.62268599999999
 30
0.0
 40
1.2546949999999999
 50
180.589113
 51
210.12213700000001
  0
ARC
  5
7C
  8
_________1
 62
     7
 10
50.685001
 20
170.60665299999999
 30
0.0
 40
1.225179
 50
145.22248500000001
 51
179.853478
  0
ARC
  5
7D
  8
_________1
 62
     7
 10
50.956209000000001
 20
170.43759399999999
 30
0.0
 40
1.5444530000000001
 50
122.790254
 51
145.80989400000001
  0
ARC
  5
7E
  8
_________1
 62
     7
 10
51.220193999999999
 20
170.06622899999999
 30
0.0
 40
1.9997180000000001
 50
93.777714999999986
 51
123.386302
  0
ARC
  5
7F
  8
_________1
 62
     7
 10
51.273446
 20
169.79455799999999
 30
0.0
 40
2.2745799999999989
 50
89.985404000000017
 51
94.665349000000006
  0
ARC
  5
80
  8
_________1
 62
     7
 10
51.271377999999999
 20
169.88737800000001
 30
0.0
 40
2.181760999999999
 50
59.574235000000002
 51
89.930475000000015
  0
ARC
  5
81
  8
_________1
 62
     7
 10
51.511916999999997
 20
170.36306300000001
 30
0.0
 40
1.6501099999999991
 50
31.553160999999999
 51
58.411546000000001
  0
ARC
  5
82
  8
_________1
 62
     7
 10
51.832982999999999
 20
170.59673699999999
 30
0.0
 40
1.2546200000000001
 50
0.595947
 51
30.132004000000009
  0
ARC
  5
83
  8
_________1
 62
     7
 10
51.862907999999997
 20
170.61291800000001
 30
0.0
 40
1.224629999999999
 50
325.20475900000002
 51
359.85349400000001
  0
ARC
  5
84
  8
_________1
 62
     7
 10
51.590254999999999
 20
170.782859
 30
0.0
 40
1.545590999999999
 50
302.79548399999999
 51
325.79911199999998
  0
ARC
  5
85
  8
_________1
 62
     7
 10
51.327015000000003
 20
171.15306299999989
 30
0.0
 40
1.999477999999999
 50
273.795682
 51
303.3905069999999
  0
ARC
  5
86
  8
_________1
 62
     7
 10
51.274588000000001
 20
171.41971799999999
 30
0.0
 40
2.269283999999999
 50
269.98578199999997
 51
274.67081300000001
  0
ARC
  5
87
  8
_________1
 62
     7
 10
55.217843000000002
 20
161.250496
 30
0.0
 40
0.770809
 50
32.05475100000001
 51
37.525390999999999
  0
ARC
  5
88
  8
_________1
 62
     7
 10
54.097340000000003
 20
160.53374299999999
 30
0.0
 40
2.1009220000000002
 50
351.75054899999998
 51
32.403660000000002
  0
ARC
  5
89
  8
_________1
 62
     7
 10
53.731502999999996
 20
160.55162100000001
 30
0.0
 40
2.465784999999999
 50
334.922326
 51
352.55916100000002
  0
ARC
  5
8A
  8
_________1
 62
     7
 10
53.178280000000008
 20
160.77853899999999
 30
0.0
 40
3.063172999999999
 50
329.92875500000002
 51
335.46391699999998
  0
ARC
  5
8B
  8
_________1
 62
     7
 10
54.628687999999997
 20
165.73020600000001
 30
0.0
 40
1.2055530000000001
 50
189.876915
 51
194.413758
  0
ARC
  5
8C
  8
_________1
 62
     7
 10
56.913954000000011
 20
166.27862400000001
 30
0.0
 40
3.5556000000000001
 50
193.806285
 51
204.222003
  0
ARC
  5
8D
  8
_________1
 62
     7
 10
58.001984
 20
166.72842600000001
 30
0.0
 40
4.7325220000000003
 50
203.783896
 51
237.52280999999999
  0
ARC
  5
8E
  8
_________1
 62
     7
 10
58.401516999999998
 20
167.25174699999999
 30
0.0
 40
5.3888249999999989
 50
236.92692099999999
 51
241.48751100000001
  0
ARC
  5
8F
  8
_________1
 62
     7
 10
52.30845399999999
 20
168.44838799999999
 30
0.0
 40
1.0823739999999991
 50
175.622512
 51
180.13529600000001
  0
ARC
  5
90
  8
_________1
 62
     7
 10
54.520980999999999
 20
168.45456799999999
 30
0.0
 40
3.2949089999999992
 50
180.15191299999989
 51
233.980717
  0
ARC
  5
91
  8
_________1
 62
     7
 10
54.856106000000011
 20
168.87838099999999
 30
0.0
 40
3.834832
 50
233.65457699999999
 51
241.0291850000001
  0
LINE
  5
92
  8
_________1
 62
     7
 10
50.963999999999999
 20
175.25299999999999
 30
0.0
 11
50.43269999999999
 21
175.78399999999999
 31
0.0
  0
LINE
  5
93
  8
_________1
 62
     7
 10
41.966700000000003
 20
187.10599999999999
 30
0.0
 11
41.966700000000003
 21
186.84100000000001
 31
0.0
  0
LINE
  5
94
  8
_________1
 62
     7
 10
41.966700000000003
 20
186.84100000000001
 30
0.0
 11
43.710599999999992
 21
185.072
 31
0.0
  0
LINE
  5
95
  8
_________1
 62
     7
 10
43.710599999999992
 20
185.072
 30
0.0
 11
43.710599999999992
 21
184.98400000000001
 31
0.0
  0
ARC
  5
96
  8
_________1
 62
     7
 10
45.552388999999991
 20
185.21893399999999
 30
0.0
 40
1.8567599999999991
 50
187.28449599999999
 51
224.211634
  0
ARC
  5
97
  8
_________1
 62
     7
 10
46.063251999999991
 20
185.67743899999999
 30
0.0
 40
2.542800999999999
 50
223.589991
 51
239.953991
  0
ARC
  5
98
  8
_________1
 62
     7
 10
46.652459999999991
 20
186.605964
 30
0.0
 40
3.641848
 50
239.24404799999999
 51
256.7929509999999
  0
ARC
  5
99
  8
_________1
 62
     7
 10
43.679253000000003
 20
178.55401000000001
 30
0.0
 40
4.9892320000000003
 50
36.159945999999998
 51
64.58608000000001
  0
ARC
  5
9A
  8
_________1
 62
     7
 10
44.82146199999999
 20
179.45156499999999
 30
0.0
 40
3.5378120000000002
 50
25.070440000000001
 51
35.338642999999998
  0
ARC
  5
9B
  8
_________1
 62
     7
 10
50.958623000000003
 20
182.22061400000001
 30
0.0
 40
3.195821
 50
203.41466800000001
 51
217.118154
  0
ARC
  5
9C
  8
_________1
 62
     7
 10
50.179302999999997
 20
181.668622
 30
0.0
 40
2.241493999999999
 50
217.88844800000001
 51
243.42566600000001
  0
ARC
  5
9D
  8
_________1
 62
     7
 10
49.919123999999996
 20
181.22509199999999
 30
0.0
 40
1.7287669999999991
 50
244.561725
 51
266.490385
  0
LINE
  5
9E
  8
_________1
 62
     7
 10
49.813299999999991
 20
179.5
 30
0.0
 11
49.902200000000001
 21
179.5
 31
0.0
  0
LINE
  5
9F
  8
_________1
 62
     7
 10
49.902200000000001
 20
179.5
 30
0.0
 11
49.990400000000001
 21
179.5
 31
0.0
  0
LINE
  5
A0
  8
_________1
 62
     7
 10
49.990400000000001
 20
179.5
 30
0.0
 11
50.079300000000003
 21
179.5
 31
0.0
  0
LINE
  5
A1
  8
_________1
 62
     7
 10
50.079300000000003
 20
179.5
 30
0.0
 11
50.344499999999989
 21
179.5
 31
0.0
  0
LINE
  5
A2
  8
_________1
 62
     7
 10
50.344499999999989
 20
179.5
 30
0.0
 11
50.6098
 21
179.5
 31
0.0
  0
LINE
  5
A3
  8
_________1
 62
     7
 10
50.6098
 20
179.5
 30
0.0
 11
50.963999999999999
 21
179.5
 31
0.0
  0
LINE
  5
A4
  8
_________1
 62
     7
 10
50.963999999999999
 20
179.5
 30
0.0
 11
51.317399999999999
 21
179.5
 31
0.0
  0
LINE
  5
A5
  8
_________1
 62
     7
 10
51.317399999999999
 20
179.5
 30
0.0
 11
51.759799999999998
 21
179.5
 31
0.0
  0
LINE
  5
A6
  8
_________1
 62
     7
 10
51.759799999999998
 20
179.5
 30
0.0
 11
52.290999999999997
 21
179.5
 31
0.0
  0
LINE
  5
A7
  8
_________1
 62
     7
 10
52.290999999999997
 20
179.5
 30
0.0
 11
52.821599999999997
 21
179.5
 31
0.0
  0
LINE
  5
A8
  8
_________1
 62
     7
 10
52.821599999999997
 20
179.5
 30
0.0
 11
53.441000000000003
 21
179.5
 31
0.0
  0
LINE
  5
A9
  8
_________1
 62
     7
 10
53.441000000000003
 20
179.5
 30
0.0
 11
54.060400000000001
 21
179.5
 31
0.0
  0
LINE
  5
AA
  8
_________1
 62
     7
 10
54.060400000000001
 20
179.5
 30
0.0
 11
54.6785
 21
179.5
 31
0.0
  0
LINE
  5
AB
  8
_________1
 62
     7
 10
54.6785
 20
179.5
 30
0.0
 11
55.386800000000001
 21
179.5
 31
0.0
  0
LINE
  5
AC
  8
_________1
 62
     7
 10
55.386800000000001
 20
179.5
 30
0.0
 11
56.0944
 21
179.5
 31
0.0
  0
LINE
  5
AD
  8
_________1
 62
     7
 10
56.0944
 20
179.5
 30
0.0
 11
56.802100000000003
 21
179.5
 31
0.0
  0
LINE
  5
AE
  8
_________1
 62
     7
 10
56.802100000000003
 20
179.5
 30
0.0
 11
57.508999999999993
 21
179.5
 31
0.0
  0
LINE
  5
AF
  8
_________1
 62
     7
 10
57.508999999999993
 20
179.5
 30
0.0
 11
58.2166
 21
179.5
 31
0.0
  0
LINE
  5
B0
  8
_________1
 62
     7
 10
43.710599999999992
 20
185.072
 30
0.0
 11
43.798099999999991
 21
185.072
 31
0.0
  0
LINE
  5
B1
  8
_________1
 62
     7
 10
43.798099999999991
 20
185.072
 30
0.0
 11
43.975200000000001
 21
185.072
 31
0.0
  0
LINE
  5
B2
  8
_________1
 62
     7
 10
43.975200000000001
 20
185.072
 30
0.0
 11
44.152299999999997
 21
185.072
 31
0.0
  0
LINE
  5
B3
  8
_________1
 62
     7
 10
44.152299999999997
 20
185.072
 30
0.0
 11
44.50569999999999
 21
185.072
 31
0.0
  0
LINE
  5
B4
  8
_________1
 62
     7
 10
44.50569999999999
 20
185.072
 30
0.0
 11
44.771700000000003
 21
185.072
 31
0.0
  0
LINE
  5
B5
  8
_________1
 62
     7
 10
44.771700000000003
 20
185.072
 30
0.0
 11
45.214100000000002
 21
185.072
 31
0.0
  0
LINE
  5
B6
  8
_________1
 62
     7
 10
45.214100000000002
 20
185.072
 30
0.0
 11
45.656399999999998
 21
185.072
 31
0.0
  0
LINE
  5
B7
  8
_________1
 62
     7
 10
45.656399999999998
 20
185.072
 30
0.0
 11
46.186999999999991
 21
185.072
 31
0.0
  0
LINE
  5
B8
  8
_________1
 62
     7
 10
46.186999999999991
 20
185.072
 30
0.0
 11
46.717500000000001
 21
185.072
 31
0.0
  0
LINE
  5
B9
  8
_________1
 62
     7
 10
46.717500000000001
 20
185.072
 30
0.0
 11
47.336300000000001
 21
185.072
 31
0.0
  0
LINE
  5
BA
  8
_________1
 62
     7
 10
47.336300000000001
 20
185.072
 30
0.0
 11
47.9557
 21
185.072
 31
0.0
  0
LINE
  5
BB
  8
_________1
 62
     7
 10
47.9557
 20
185.072
 30
0.0
 11
48.6633
 21
185.072
 31
0.0
  0
LINE
  5
BC
  8
_________1
 62
     7
 10
48.6633
 20
185.072
 30
0.0
 11
49.370899999999999
 21
185.072
 31
0.0
  0
LINE
  5
BD
  8
_________1
 62
     7
 10
49.370899999999999
 20
185.072
 30
0.0
 11
50.167499999999997
 21
185.072
 31
0.0
  0
LINE
  5
BE
  8
_________1
 62
     7
 10
50.167499999999997
 20
185.072
 30
0.0
 11
50.963999999999999
 21
185.072
 31
0.0
  0
LINE
  5
BF
  8
_________1
 62
     7
 10
50.963999999999999
 20
185.072
 30
0.0
 11
51.848700000000001
 21
185.072
 31
0.0
  0
LINE
  5
C0
  8
_________1
 62
     7
 10
51.848700000000001
 20
185.072
 30
0.0
 11
52.644500000000001
 21
185.072
 31
0.0
  0
LINE
  5
C1
  8
_________1
 62
     7
 10
52.644500000000001
 20
185.072
 30
0.0
 11
53.52920000000001
 21
185.072
 31
0.0
  0
LINE
  5
C2
  8
_________1
 62
     7
 10
53.52920000000001
 20
185.072
 30
0.0
 11
54.502099999999999
 21
185.072
 31
0.0
  0
LINE
  5
C3
  8
_________1
 62
     7
 10
54.502099999999999
 20
185.072
 30
0.0
 11
55.386800000000001
 21
185.072
 31
0.0
  0
LINE
  5
C4
  8
_________1
 62
     7
 10
55.386800000000001
 20
185.072
 30
0.0
 11
56.359699999999997
 21
185.072
 31
0.0
  0
LINE
  5
C5
  8
_________1
 62
     7
 10
56.359699999999997
 20
185.072
 30
0.0
 11
57.331899999999997
 21
185.072
 31
0.0
  0
LINE
  5
C6
  8
_________1
 62
     7
 10
57.331899999999997
 20
185.072
 30
0.0
 11
58.2166
 21
185.072
 31
0.0
  0
LINE
  5
C7
  8
_________1
 62
     7
 10
50.43269999999999
 20
179.5
 30
0.0
 11
50.43269999999999
 21
175.78399999999999
 31
0.0
  0
LINE
  5
C8
  8
_________1
 62
     7
 10
51.759799999999998
 20
175.25299999999999
 30
0.0
 11
51.759799999999998
 21
173.66099999999989
 31
0.0
  0
LINE
  5
C9
  8
_________1
 62
     7
 10
51.759799999999998
 20
173.66099999999989
 30
0.0
 11
51.848700000000001
 21
173.48400000000001
 31
0.0
  0
LINE
  5
CA
  8
_________1
 62
     7
 10
55.8292
 20
159.244
 30
0.0
 11
55.8292
 21
158.536
 31
0.0
  0
LINE
  5
CB
  8
_________1
 62
     7
 10
55.8292
 20
162.517
 30
0.0
 11
55.8292
 21
161.72
 31
0.0
  0
LINE
  5
CC
  8
_________1
 62
     7
 10
51.229199999999999
 20
168.88399999999999
 30
0.0
 11
51.229199999999999
 21
168.53100000000001
 31
0.0
  0
LINE
  5
CD
  8
_________1
 62
     7
 10
51.229199999999999
 20
173.48400000000001
 30
0.0
 11
51.229199999999999
 21
172.334
 31
0.0
  0
LINE
  5
CE
  8
_________1
 62
     7
 10
53.263899999999992
 20
175.25299999999999
 30
0.0
 11
52.73340000000001
 21
175.25299999999999
 31
0.0
  0
LINE
  5
CF
  8
_________1
 62
     7
 10
52.73340000000001
 20
175.25299999999999
 30
0.0
 11
52.37919999999999
 21
175.25299999999999
 31
0.0
  0
LINE
  5
D0
  8
_________1
 62
     7
 10
52.37919999999999
 20
175.25299999999999
 30
0.0
 11
52.025100000000002
 21
175.25299999999999
 31
0.0
  0
LINE
  5
D1
  8
_________1
 62
     7
 10
52.025100000000002
 20
175.25299999999999
 30
0.0
 11
51.671599999999991
 21
175.25299999999999
 31
0.0
  0
LINE
  5
D2
  8
_________1
 62
     7
 10
51.671599999999991
 20
175.25299999999999
 30
0.0
 11
51.406300000000002
 21
175.25299999999999
 31
0.0
  0
LINE
  5
D3
  8
_________1
 62
     7
 10
51.406300000000002
 20
175.25299999999999
 30
0.0
 11
51.229199999999999
 21
175.25299999999999
 31
0.0
  0
LINE
  5
D4
  8
_________1
 62
     7
 10
51.229199999999999
 20
175.25299999999999
 30
0.0
 11
51.051499999999997
 21
175.25299999999999
 31
0.0
  0
LINE
  5
D5
  8
_________1
 62
     7
 10
51.051499999999997
 20
175.25299999999999
 30
0.0
 11
50.963999999999999
 21
175.25299999999999
 31
0.0
  0
LINE
  5
D6
  8
_________1
 62
     7
 10
58.217300000000002
 20
175.25299999999999
 30
0.0
 11
57.421500000000002
 21
175.25299999999999
 31
0.0
  0
LINE
  5
D7
  8
_________1
 62
     7
 10
57.421500000000002
 20
175.25299999999999
 30
0.0
 11
56.713900000000002
 21
175.25299999999999
 31
0.0
  0
LINE
  5
D8
  8
_________1
 62
     7
 10
56.713900000000002
 20
175.25299999999999
 30
0.0
 11
56.0944
 21
175.25299999999999
 31
0.0
  0
LINE
  5
D9
  8
_________1
 62
     7
 10
56.0944
 20
175.25299999999999
 30
0.0
 11
55.475000000000001
 21
175.25299999999999
 31
0.0
  0
LINE
  5
DA
  8
_________1
 62
     7
 10
55.475000000000001
 20
175.25299999999999
 30
0.0
 11
54.855600000000003
 21
175.25299999999999
 31
0.0
  0
LINE
  5
DB
  8
_________1
 62
     7
 10
54.855600000000003
 20
175.25299999999999
 30
0.0
 11
54.325000000000003
 21
175.25299999999999
 31
0.0
  0
LINE
  5
DC
  8
_________1
 62
     7
 10
54.325000000000003
 20
175.25299999999999
 30
0.0
 11
53.706299999999999
 21
175.25299999999999
 31
0.0
  0
LINE
  5
DD
  8
_________1
 62
     7
 10
53.706299999999999
 20
175.25299999999999
 30
0.0
 11
53.263899999999992
 21
175.25299999999999
 31
0.0
  0
LINE
  5
DE
  8
_________1
 62
     7
 10
51.759799999999998
 20
173.66099999999989
 30
0.0
 11
51.848700000000001
 21
173.66099999999989
 31
0.0
  0
LINE
  5
DF
  8
_________1
 62
     7
 10
51.848700000000001
 20
173.66099999999989
 30
0.0
 11
51.936900000000001
 21
173.66099999999989
 31
0.0
  0
LINE
  5
E0
  8
_________1
 62
     7
 10
51.936900000000001
 20
173.66099999999989
 30
0.0
 11
52.202100000000002
 21
173.66099999999989
 31
0.0
  0
LINE
  5
E1
  8
_________1
 62
     7
 10
52.202100000000002
 20
173.66099999999989
 30
0.0
 11
52.467399999999991
 21
173.66099999999989
 31
0.0
  0
LINE
  5
E2
  8
_________1
 62
     7
 10
52.467399999999991
 20
173.66099999999989
 30
0.0
 11
52.73340000000001
 21
173.66099999999989
 31
0.0
  0
LINE
  5
E3
  8
_________1
 62
     7
 10
52.73340000000001
 20
173.66099999999989
 30
0.0
 11
53.175699999999992
 21
173.66099999999989
 31
0.0
  0
LINE
  5
E4
  8
_________1
 62
     7
 10
53.175699999999992
 20
173.66099999999989
 30
0.0
 11
53.52920000000001
 21
173.66099999999989
 31
0.0
  0
LINE
  5
E5
  8
_________1
 62
     7
 10
53.52920000000001
 20
173.66099999999989
 30
0.0
 11
54.060400000000001
 21
173.66099999999989
 31
0.0
  0
LINE
  5
E6
  8
_________1
 62
     7
 10
54.060400000000001
 20
173.66099999999989
 30
0.0
 11
54.502099999999999
 21
173.66099999999989
 31
0.0
  0
LINE
  5
E7
  8
_________1
 62
     7
 10
54.502099999999999
 20
173.66099999999989
 30
0.0
 11
55.032600000000002
 21
173.66099999999989
 31
0.0
  0
LINE
  5
E8
  8
_________1
 62
     7
 10
55.032600000000002
 20
173.66099999999989
 30
0.0
 11
55.652099999999997
 21
173.66099999999989
 31
0.0
  0
LINE
  5
E9
  8
_________1
 62
     7
 10
55.652099999999997
 20
173.66099999999989
 30
0.0
 11
56.271500000000003
 21
173.66099999999989
 31
0.0
  0
LINE
  5
EA
  8
_________1
 62
     7
 10
56.271500000000003
 20
173.66099999999989
 30
0.0
 11
56.890300000000003
 21
173.66099999999989
 31
0.0
  0
LINE
  5
EB
  8
_________1
 62
     7
 10
56.890300000000003
 20
173.66099999999989
 30
0.0
 11
57.508999999999993
 21
173.66099999999989
 31
0.0
  0
LINE
  5
EC
  8
_________1
 62
     7
 10
57.508999999999993
 20
173.66099999999989
 30
0.0
 11
58.128399999999999
 21
173.66099999999989
 31
0.0
  0
LINE
  5
ED
  8
_________1
 62
     7
 10
58.128399999999999
 20
173.66099999999989
 30
0.0
 11
58.217300000000002
 21
173.66099999999989
 31
0.0
  0
LINE
  5
EE
  8
_________1
 62
     7
 10
58.2166
 20
159.244
 30
0.0
 11
57.863199999999992
 21
159.244
 31
0.0
  0
LINE
  5
EF
  8
_________1
 62
     7
 10
57.863199999999992
 20
159.244
 30
0.0
 11
57.508999999999993
 21
159.244
 31
0.0
  0
LINE
  5
F0
  8
_________1
 62
     7
 10
57.508999999999993
 20
159.244
 30
0.0
 11
57.067300000000003
 21
159.244
 31
0.0
  0
LINE
  5
F1
  8
_________1
 62
     7
 10
57.067300000000003
 20
159.244
 30
0.0
 11
56.802100000000003
 21
159.244
 31
0.0
  0
LINE
  5
F2
  8
_________1
 62
     7
 10
56.802100000000003
 20
159.244
 30
0.0
 11
56.447899999999997
 21
159.244
 31
0.0
  0
LINE
  5
F3
  8
_________1
 62
     7
 10
56.447899999999997
 20
159.244
 30
0.0
 11
56.271500000000003
 21
159.244
 31
0.0
  0
LINE
  5
F4
  8
_________1
 62
     7
 10
56.271500000000003
 20
159.244
 30
0.0
 11
56.0944
 21
159.244
 31
0.0
  0
LINE
  5
F5
  8
_________1
 62
     7
 10
56.0944
 20
159.244
 30
0.0
 11
55.917400000000001
 21
159.244
 31
0.0
  0
LINE
  5
F6
  8
_________1
 62
     7
 10
55.917400000000001
 20
159.244
 30
0.0
 11
55.8292
 21
159.244
 31
0.0
  0
LINE
  5
F7
  8
_________1
 62
     7
 10
58.2166
 20
161.72
 30
0.0
 11
57.863199999999992
 21
161.72
 31
0.0
  0
LINE
  5
F8
  8
_________1
 62
     7
 10
57.863199999999992
 20
161.72
 30
0.0
 11
57.508999999999993
 21
161.72
 31
0.0
  0
LINE
  5
F9
  8
_________1
 62
     7
 10
57.508999999999993
 20
161.72
 30
0.0
 11
57.067300000000003
 21
161.72
 31
0.0
  0
LINE
  5
FA
  8
_________1
 62
     7
 10
57.067300000000003
 20
161.72
 30
0.0
 11
56.802100000000003
 21
161.72
 31
0.0
  0
LINE
  5
FB
  8
_________1
 62
     7
 10
56.802100000000003
 20
161.72
 30
0.0
 11
56.447899999999997
 21
161.72
 31
0.0
  0
LINE
  5
FC
  8
_________1
 62
     7
 10
56.447899999999997
 20
161.72
 30
0.0
 11
56.271500000000003
 21
161.72
 31
0.0
  0
LINE
  5
FD
  8
_________1
 62
     7
 10
56.271500000000003
 20
161.72
 30
0.0
 11
56.0944
 21
161.72
 31
0.0
  0
LINE
  5
FE
  8
_________1
 62
     7
 10
56.0944
 20
161.72
 30
0.0
 11
55.917400000000001
 21
161.72
 31
0.0
  0
LINE
  5
FF
  8
_________1
 62
     7
 10
55.917400000000001
 20
161.72
 30
0.0
 11
55.8292
 21
161.72
 31
0.0
  0
LINE
  5
100
  8
_________1
 62
     7
 10
51.229199999999999
 20
172.334
 30
0.0
 11
51.317399999999999
 21
172.334
 31
0.0
  0
LINE
  5
101
  8
_________1
 62
     7
 10
51.317399999999999
 20
172.334
 30
0.0
 11
51.494500000000002
 21
172.334
 31
0.0
  0
LINE
  5
102
  8
_________1
 62
     7
 10
51.494500000000002
 20
172.334
 30
0.0
 11
51.759799999999998
 21
172.334
 31
0.0
  0
LINE
  5
103
  8
_________1
 62
     7
 10
51.759799999999998
 20
172.334
 30
0.0
 11
52.025100000000002
 21
172.334
 31
0.0
  0
LINE
  5
104
  8
_________1
 62
     7
 10
52.025100000000002
 20
172.334
 30
0.0
 11
52.37919999999999
 21
172.334
 31
0.0
  0
LINE
  5
105
  8
_________1
 62
     7
 10
52.37919999999999
 20
172.334
 30
0.0
 11
52.73340000000001
 21
172.334
 31
0.0
  0
LINE
  5
106
  8
_________1
 62
     7
 10
52.73340000000001
 20
172.334
 30
0.0
 11
53.175699999999992
 21
172.334
 31
0.0
  0
LINE
  5
107
  8
_________1
 62
     7
 10
53.175699999999992
 20
172.334
 30
0.0
 11
53.618099999999998
 21
172.334
 31
0.0
  0
LINE
  5
108
  8
_________1
 62
     7
 10
53.618099999999998
 20
172.334
 30
0.0
 11
54.147899999999993
 21
172.334
 31
0.0
  0
LINE
  5
109
  8
_________1
 62
     7
 10
54.147899999999993
 20
172.334
 30
0.0
 11
54.767400000000002
 21
172.334
 31
0.0
  0
LINE
  5
10A
  8
_________1
 62
     7
 10
54.767400000000002
 20
172.334
 30
0.0
 11
55.297899999999998
 21
172.334
 31
0.0
  0
LINE
  5
10B
  8
_________1
 62
     7
 10
55.297899999999998
 20
172.334
 30
0.0
 11
55.917400000000001
 21
172.334
 31
0.0
  0
LINE
  5
10C
  8
_________1
 62
     7
 10
55.917400000000001
 20
172.334
 30
0.0
 11
56.625
 21
172.334
 31
0.0
  0
LINE
  5
10D
  8
_________1
 62
     7
 10
56.625
 20
172.334
 30
0.0
 11
57.244399999999999
 21
172.334
 31
0.0
  0
LINE
  5
10E
  8
_________1
 62
     7
 10
57.244399999999999
 20
172.334
 30
0.0
 11
57.951399999999992
 21
172.334
 31
0.0
  0
LINE
  5
10F
  8
_________1
 62
     7
 10
57.951399999999992
 20
172.334
 30
0.0
 11
58.217300000000002
 21
172.334
 31
0.0
  0
LINE
  5
110
  8
_________1
 62
     7
 10
51.229199999999999
 20
168.88399999999999
 30
0.0
 11
51.317399999999999
 21
168.88399999999999
 31
0.0
  0
LINE
  5
111
  8
_________1
 62
     7
 10
51.317399999999999
 20
168.88399999999999
 30
0.0
 11
51.494500000000002
 21
168.88399999999999
 31
0.0
  0
LINE
  5
112
  8
_________1
 62
     7
 10
51.494500000000002
 20
168.88399999999999
 30
0.0
 11
51.759799999999998
 21
168.88399999999999
 31
0.0
  0
LINE
  5
113
  8
_________1
 62
     7
 10
51.759799999999998
 20
168.88399999999999
 30
0.0
 11
52.025100000000002
 21
168.88399999999999
 31
0.0
  0
LINE
  5
114
  8
_________1
 62
     7
 10
52.025100000000002
 20
168.88399999999999
 30
0.0
 11
52.37919999999999
 21
168.88399999999999
 31
0.0
  0
LINE
  5
115
  8
_________1
 62
     7
 10
52.37919999999999
 20
168.88399999999999
 30
0.0
 11
52.73340000000001
 21
168.88399999999999
 31
0.0
  0
LINE
  5
116
  8
_________1
 62
     7
 10
52.73340000000001
 20
168.88399999999999
 30
0.0
 11
53.175699999999992
 21
168.88399999999999
 31
0.0
  0
LINE
  5
117
  8
_________1
 62
     7
 10
53.175699999999992
 20
168.88399999999999
 30
0.0
 11
53.618099999999998
 21
168.88399999999999
 31
0.0
  0
LINE
  5
118
  8
_________1
 62
     7
 10
53.618099999999998
 20
168.88399999999999
 30
0.0
 11
54.147899999999993
 21
168.88399999999999
 31
0.0
  0
LINE
  5
119
  8
_________1
 62
     7
 10
54.147899999999993
 20
168.88399999999999
 30
0.0
 11
54.767400000000002
 21
168.88399999999999
 31
0.0
  0
LINE
  5
11A
  8
_________1
 62
     7
 10
54.767400000000002
 20
168.88399999999999
 30
0.0
 11
55.297899999999998
 21
168.88399999999999
 31
0.0
  0
LINE
  5
11B
  8
_________1
 62
     7
 10
55.297899999999998
 20
168.88399999999999
 30
0.0
 11
55.917400000000001
 21
168.88399999999999
 31
0.0
  0
LINE
  5
11C
  8
_________1
 62
     7
 10
55.917400000000001
 20
168.88399999999999
 30
0.0
 11
56.625
 21
168.88399999999999
 31
0.0
  0
LINE
  5
11D
  8
_________1
 62
     7
 10
56.625
 20
168.88399999999999
 30
0.0
 11
57.244399999999999
 21
168.88399999999999
 31
0.0
  0
LINE
  5
11E
  8
_________1
 62
     7
 10
57.244399999999999
 20
168.88399999999999
 30
0.0
 11
57.951399999999992
 21
168.88399999999999
 31
0.0
  0
LINE
  5
11F
  8
_________1
 62
     7
 10
57.951399999999992
 20
168.88399999999999
 30
0.0
 11
58.217300000000002
 21
168.88399999999999
 31
0.0
  0
LINE
  5
120
  8
_________1
 62
     7
 10
52.998699999999999
 20
165.523
 30
0.0
 11
53.08679999999999
 21
165.523
 31
0.0
  0
LINE
  5
121
  8
_________1
 62
     7
 10
53.08679999999999
 20
165.523
 30
0.0
 11
53.263899999999992
 21
165.523
 31
0.0
  0
LINE
  5
122
  8
_________1
 62
     7
 10
53.263899999999992
 20
165.523
 30
0.0
 11
53.441000000000003
 21
165.523
 31
0.0
  0
LINE
  5
123
  8
_________1
 62
     7
 10
53.441000000000003
 20
165.523
 30
0.0
 11
53.793799999999997
 21
165.523
 31
0.0
  0
LINE
  5
124
  8
_________1
 62
     7
 10
53.793799999999997
 20
165.523
 30
0.0
 11
54.060400000000001
 21
165.523
 31
0.0
  0
LINE
  5
125
  8
_________1
 62
     7
 10
54.060400000000001
 20
165.523
 30
0.0
 11
54.502099999999999
 21
165.523
 31
0.0
  0
LINE
  5
126
  8
_________1
 62
     7
 10
54.502099999999999
 20
165.523
 30
0.0
 11
54.855600000000003
 21
165.523
 31
0.0
  0
LINE
  5
127
  8
_________1
 62
     7
 10
54.855600000000003
 20
165.523
 30
0.0
 11
55.386800000000001
 21
165.523
 31
0.0
  0
LINE
  5
128
  8
_________1
 62
     7
 10
55.386800000000001
 20
165.523
 30
0.0
 11
55.8292
 21
165.523
 31
0.0
  0
LINE
  5
129
  8
_________1
 62
     7
 10
55.8292
 20
165.523
 30
0.0
 11
56.359699999999997
 21
165.523
 31
0.0
  0
LINE
  5
12A
  8
_________1
 62
     7
 10
56.359699999999997
 20
165.523
 30
0.0
 11
56.979100000000003
 21
165.523
 31
0.0
  0
LINE
  5
12B
  8
_________1
 62
     7
 10
56.979100000000003
 20
165.523
 30
0.0
 11
57.508999999999993
 21
165.523
 31
0.0
  0
LINE
  5
12C
  8
_________1
 62
     7
 10
57.508999999999993
 20
165.523
 30
0.0
 11
58.128399999999999
 21
165.523
 31
0.0
  0
LINE
  5
12D
  8
_________1
 62
     7
 10
58.128399999999999
 20
165.523
 30
0.0
 11
58.217300000000002
 21
165.523
 31
0.0
  0
LINE
  5
12E
  8
_________1
 62
     7
 10
51.229199999999999
 20
173.48400000000001
 30
0.0
 11
51.317399999999999
 21
173.48400000000001
 31
0.0
  0
LINE
  5
12F
  8
_________1
 62
     7
 10
51.317399999999999
 20
173.48400000000001
 30
0.0
 11
51.494500000000002
 21
173.48400000000001
 31
0.0
  0
LINE
  5
130
  8
_________1
 62
     7
 10
51.494500000000002
 20
173.48400000000001
 30
0.0
 11
51.759799999999998
 21
173.48400000000001
 31
0.0
  0
LINE
  5
131
  8
_________1
 62
     7
 10
51.759799999999998
 20
173.48400000000001
 30
0.0
 11
52.025100000000002
 21
173.48400000000001
 31
0.0
  0
LINE
  5
132
  8
_________1
 62
     7
 10
52.025100000000002
 20
173.48400000000001
 30
0.0
 11
52.37919999999999
 21
173.48400000000001
 31
0.0
  0
LINE
  5
133
  8
_________1
 62
     7
 10
52.37919999999999
 20
173.48400000000001
 30
0.0
 11
52.73340000000001
 21
173.48400000000001
 31
0.0
  0
LINE
  5
134
  8
_________1
 62
     7
 10
52.73340000000001
 20
173.48400000000001
 30
0.0
 11
53.175699999999992
 21
173.48400000000001
 31
0.0
  0
LINE
  5
135
  8
_________1
 62
     7
 10
53.175699999999992
 20
173.48400000000001
 30
0.0
 11
53.618099999999998
 21
173.48400000000001
 31
0.0
  0
LINE
  5
136
  8
_________1
 62
     7
 10
53.618099999999998
 20
173.48400000000001
 30
0.0
 11
54.147899999999993
 21
173.48400000000001
 31
0.0
  0
LINE
  5
137
  8
_________1
 62
     7
 10
54.147899999999993
 20
173.48400000000001
 30
0.0
 11
54.767400000000002
 21
173.48400000000001
 31
0.0
  0
LINE
  5
138
  8
_________1
 62
     7
 10
54.767400000000002
 20
173.48400000000001
 30
0.0
 11
55.297899999999998
 21
173.48400000000001
 31
0.0
  0
LINE
  5
139
  8
_________1
 62
     7
 10
55.297899999999998
 20
173.48400000000001
 30
0.0
 11
55.917400000000001
 21
173.48400000000001
 31
0.0
  0
LINE
  5
13A
  8
_________1
 62
     7
 10
55.917400000000001
 20
173.48400000000001
 30
0.0
 11
56.625
 21
173.48400000000001
 31
0.0
  0
LINE
  5
13B
  8
_________1
 62
     7
 10
56.625
 20
173.48400000000001
 30
0.0
 11
57.244399999999999
 21
173.48400000000001
 31
0.0
  0
LINE
  5
13C
  8
_________1
 62
     7
 10
57.244399999999999
 20
173.48400000000001
 30
0.0
 11
57.951399999999992
 21
173.48400000000001
 31
0.0
  0
LINE
  5
13D
  8
_________1
 62
     7
 10
57.951399999999992
 20
173.48400000000001
 30
0.0
 11
58.217300000000002
 21
173.48400000000001
 31
0.0
  0
LINE
  5
13E
  8
_________1
 62
     7
 10
58.217300000000002
 20
162.517
 30
0.0
 11
57.951399999999992
 21
162.517
 31
0.0
  0
LINE
  5
13F
  8
_________1
 62
     7
 10
57.951399999999992
 20
162.517
 30
0.0
 11
57.59859999999999
 21
162.517
 31
0.0
  0
LINE
  5
140
  8
_________1
 62
     7
 10
57.59859999999999
 20
162.517
 30
0.0
 11
57.244399999999999
 21
162.517
 31
0.0
  0
LINE
  5
141
  8
_________1
 62
     7
 10
57.244399999999999
 20
162.517
 30
0.0
 11
56.890300000000003
 21
162.517
 31
0.0
  0
LINE
  5
142
  8
_________1
 62
     7
 10
56.890300000000003
 20
162.517
 30
0.0
 11
56.536799999999999
 21
162.517
 31
0.0
  0
LINE
  5
143
  8
_________1
 62
     7
 10
56.536799999999999
 20
162.517
 30
0.0
 11
56.271500000000003
 21
162.517
 31
0.0
  0
LINE
  5
144
  8
_________1
 62
     7
 10
56.271500000000003
 20
162.517
 30
0.0
 11
56.0944
 21
162.517
 31
0.0
  0
LINE
  5
145
  8
_________1
 62
     7
 10
56.0944
 20
162.517
 30
0.0
 11
55.917400000000001
 21
162.517
 31
0.0
  0
LINE
  5
146
  8
_________1
 62
     7
 10
55.917400000000001
 20
162.517
 30
0.0
 11
55.8292
 21
162.517
 31
0.0
  0
LINE
  5
147
  8
_________1
 62
     7
 10
98.439400000000006
 20
112.265
 30
0.0
 11
98.439400000000006
 21
129.83799999999999
 31
0.0
  0
LINE
  5
148
  8
_________1
 62
     7
 10
134.44
 20
122.413
 30
0.0
 11
134.44
 21
129.83799999999999
 31
0.0
  0
LINE
  5
149
  8
_________1
 62
     7
 10
74.467200000000005
 20
187.10599999999999
 30
0.0
 11
58.217300000000002
 21
187.10599999999999
 31
0.0
  0
LINE
  5
14A
  8
_________1
 62
     7
 10
51.229199999999999
 20
172.334
 30
0.0
 11
50.878500000000003
 21
172.334
 31
0.0
  0
ARC
  5
14B
  8
_________1
 62
     7
 10
50.87989799999999
 20
171.360941
 30
0.0
 40
0.9734719999999999
 50
90.080776
 51
109.27987400000001
  0
ARC
  5
14C
  8
_________1
 62
     7
 10
50.999790999999988
 20
170.96761000000001
 30
0.0
 40
1.3844309999999991
 50
108.588623
 51
131.63962699999999
  0
ARC
  5
14D
  8
_________1
 62
     7
 10
51.273702
 20
170.63633400000001
 30
0.0
 40
1.814071
 50
131.15291999999999
 51
180.83853300000001
  0
ARC
  5
14E
  8
_________1
 62
     7
 10
51.435751000000003
 20
170.618998
 30
0.0
 40
1.975946
 50
180.267133
 51
220.78083100000001
  0
ARC
  5
14F
  8
_________1
 62
     7
 10
50.941571000000003
 20
170.23719800000001
 30
0.0
 40
1.352787
 50
222.20737199999999
 51
269.46011200000009
  0
LINE
  5
150
  8
_________1
 62
     7
 10
50.928800000000003
 20
168.88399999999999
 30
0.0
 11
51.229199999999999
 21
168.88399999999999
 31
0.0
  0
ARC
  5
151
  8
_________1
 62
     7
 10
58.217610999999991
 20
177.36857499999999
 30
0.0
 40
8.21814
 50
269.993134
 51
281.02407699999998
  0
ARC
  5
152
  8
_________1
 62
     7
 10
58.663699999999992
 20
174.837287
 30
0.0
 40
5.6484489999999994
 50
281.49250999999998
 51
290.00009799999998
  0
ARC
  5
153
  8
_________1
 62
     7
 10
59.389595999999997
 20
172.77643800000001
 30
0.0
 40
3.463689
 50
290.37619599999999
 51
300.55680799999999
  0
ARC
  5
154
  8
_________1
 62
     7
 10
60.164006000000001
 20
171.423903
 30
0.0
 40
1.9053949999999999
 50
301.18089600000002
 51
314.91588899999999
  0
ARC
  5
155
  8
_________1
 62
     7
 10
60.789037999999991
 20
170.77125100000001
 30
0.0
 40
1.0020729999999991
 50
315.95678600000002
 51
336.35894300000001
  0
ARC
  5
156
  8
_________1
 62
     7
 10
61.097451999999997
 20
170.61542399999999
 30
0.0
 40
0.6573319999999999
 50
338.02166299999999
 51
359.50853799999999
  0
ARC
  5
157
  8
_________1
 62
     7
 10
61.099685000000001
 20
170.60798199999999
 30
0.0
 40
0.6550780000000001
 50
0.157833
 51
32.197427000000012
  0
ARC
  5
158
  8
_________1
 62
     7
 10
60.796019000000001
 20
170.44615400000001
 30
0.0
 40
0.9985829999999999
 50
30.770682999999998
 51
44.411051999999998
  0
ARC
  5
159
  8
_________1
 62
     7
 10
60.404488999999998
 20
170.081063
 30
0.0
 40
1.533814999999999
 50
43.918154999999992
 51
54.920196999999987
  0
ARC
  5
15A
  8
_________1
 62
     7
 10
59.925834000000002
 20
169.43039400000001
 30
0.0
 40
2.3414509999999988
 50
54.485647
 51
62.689255000000003
  0
ARC
  5
15B
  8
_________1
 62
     7
 10
59.310894999999988
 20
168.270929
 30
0.0
 40
3.6538439999999999
 50
62.463266000000012
 51
73.192166
  0
ARC
  5
15C
  8
_________1
 62
     7
 10
58.624153
 20
166.22910999999999
 30
0.0
 40
5.8074019999999988
 50
72.531257999999994
 51
81.186286999999993
  0
ARC
  5
15D
  8
_________1
 62
     7
 10
58.251854999999999
 20
164.154393
 30
0.0
 40
7.9148240000000003
 50
80.824268000000004
 51
90.255019000000004
  0
ARC
  5
15E
  8
_________1
 62
     7
 10
58.215643000000007
 20
163.85552999999999
 30
0.0
 40
8.2136080000000007
 50
89.993138999999999
 51
101.027108
  0
ARC
  5
15F
  8
_________1
 62
     7
 10
57.770006999999993
 20
166.383466
 30
0.0
 40
5.647295999999999
 50
101.495029
 51
110.00293499999999
  0
ARC
  5
160
  8
_________1
 62
     7
 10
57.044190999999998
 20
168.44370599999999
 30
0.0
 40
3.4631359999999991
 50
110.378692
 51
120.559883
  0
ARC
  5
161
  8
_________1
 62
     7
 10
56.269555000000011
 20
169.79621499999999
 30
0.0
 40
1.904749
 50
121.18046099999999
 51
134.919622
  0
ARC
  5
162
  8
_________1
 62
     7
 10
55.645097
 20
170.448216
 30
0.0
 40
1.0022949999999999
 50
135.96066399999989
 51
156.357912
  0
ARC
  5
163
  8
_________1
 62
     7
 10
55.336486999999998
 20
170.60414800000001
 30
0.0
 40
0.6573319999999999
 50
158.02164400000001
 51
179.50851800000001
  0
ARC
  5
164
  8
_________1
 62
     7
 10
55.334254999999999
 20
170.611591
 30
0.0
 40
0.6550780000000001
 50
180.1578529999999
 51
212.19744700000001
  0
ARC
  5
165
  8
_________1
 62
     7
 10
55.638199
 20
170.77359200000001
 30
0.0
 40
0.998911
 50
210.771085
 51
224.40656899999999
  0
ARC
  5
166
  8
_________1
 62
     7
 10
56.029184000000001
 20
171.138137
 30
0.0
 40
1.533372999999999
 50
223.91476599999999
 51
234.919533
  0
ARC
  5
167
  8
_________1
 62
     7
 10
56.508142999999997
 20
171.789118
 30
0.0
 40
2.3414389999999989
 50
234.48352800000001
 51
242.68661399999999
  0
ARC
  5
168
  8
_________1
 62
     7
 10
57.123283999999998
 20
172.94901100000001
 30
0.0
 40
3.6543059999999992
 50
242.46186800000001
 51
253.188152
  0
ARC
  5
169
  8
_________1
 62
     7
 10
57.809543999999988
 20
174.98927800000001
 30
0.0
 40
5.8062420000000001
 50
252.5287350000001
 51
261.18388800000002
  0
ARC
  5
16A
  8
_________1
 62
     7
 10
58.181483999999998
 20
177.061542
 30
0.0
 40
7.9111859999999989
 50
260.82218999999998
 51
270.25451900000002
  0
ARC
  5
16B
  8
_________1
 62
     7
 10
61.192455000000002
 20
161.26739900000001
 30
0.0
 40
0.741219
 50
142.36530400000001
 51
148.05451500000001
  0
ARC
  5
16C
  8
_________1
 62
     7
 10
62.337285999999999
 20
160.53374400000001
 30
0.0
 40
2.100919999999999
 50
147.59630100000001
 51
188.24949000000001
  0
ARC
  5
16D
  8
_________1
 62
     7
 10
62.703125
 20
160.55162100000001
 30
0.0
 40
2.465784999999999
 50
187.44085899999999
 51
205.07769400000001
  0
ARC
  5
16E
  8
_________1
 62
     7
 10
63.256347999999988
 20
160.77853899999999
 30
0.0
 40
3.063172999999999
 50
204.536102
 51
210.07126500000001
  0
ARC
  5
16F
  8
_________1
 62
     7
 10
61.80594
 20
165.73020600000001
 30
0.0
 40
1.2055530000000001
 50
345.58626199999998
 51
350.12310500000012
  0
ARC
  5
170
  8
_________1
 62
     7
 10
59.520674
 20
166.27862400000001
 30
0.0
 40
3.5556000000000001
 50
335.77801699999998
 51
346.193735
  0
ARC
  5
171
  8
_________1
 62
     7
 10
58.432643999999989
 20
166.72842600000001
 30
0.0
 40
4.7325220000000003
 50
302.47721000000001
 51
336.21612399999998
  0
ARC
  5
172
  8
_________1
 62
     7
 10
58.033110999999998
 20
167.25174699999999
 30
0.0
 40
5.3888249999999989
 50
298.51250900000002
 51
303.07309800000002
  0
ARC
  5
173
  8
_________1
 62
     7
 10
64.115269999999995
 20
168.44757000000001
 30
0.0
 40
1.0933079999999991
 50
359.90896700000002
 51
4.3766199999999991
  0
ARC
  5
174
  8
_________1
 62
     7
 10
61.915114000000003
 20
168.45375999999999
 30
0.0
 40
3.2934730000000001
 50
306.00881900000002
 51
359.86208800000003
  0
ARC
  5
175
  8
_________1
 62
     7
 10
61.579171999999993
 20
168.87851599999999
 30
0.0
 40
3.8346360000000002
 50
298.96136300000001
 51
306.33804600000002
  0
LINE
  5
176
  8
_________1
 62
     7
 10
65.469999999999999
 20
175.25299999999999
 30
0.0
 11
66.001199999999997
 21
175.78399999999999
 31
0.0
  0
ARC
  5
177
  8
_________1
 62
     7
 10
66.605768000000012
 20
180.53239300000001
 30
0.0
 40
1.0329330000000001
 50
270.82520799999998
 51
277.962288
  0
ARC
  5
178
  8
_________1
 62
     7
 10
66.508277000000007
 20
181.237978
 30
0.0
 40
1.745220999999999
 50
277.9233089999999
 51
303.42988000000003
  0
ARC
  5
179
  8
_________1
 62
     7
 10
66.293903999999998
 20
181.61734200000001
 30
0.0
 40
2.1801319999999991
 50
302.63905199999999
 51
324.88820299999998
  0
ARC
  5
17A
  8
_________1
 62
     7
 10
65.667948999999993
 20
182.1066659999999
 30
0.0
 40
2.9739019999999989
 50
324.11272200000002
 51
337.12511000000001
  0
ARC
  5
17B
  8
_________1
 62
     7
 10
69.433148000000003
 20
180.52645699999999
 30
0.0
 40
1.109472
 50
152.90513000000001
 51
157.52141499999999
  0
ARC
  5
17C
  8
_________1
 62
     7
 10
71.339260999999993
 20
179.59467000000001
 30
0.0
 40
3.2310229999999991
 50
146.18751
 51
153.590362
  0
ARC
  5
17D
  8
_________1
 62
     7
 10
72.512011000000001
 20
178.83098000000001
 30
0.0
 40
4.6304290000000004
 50
118.340895
 51
146.411305
  0
ARC
  5
17E
  8
_________1
 62
     7
 10
72.851058999999992
 20
178.33910299999999
 30
0.0
 40
5.2247050000000002
 50
115.357077
 51
119.052699
  0
ARC
  5
17F
  8
_________1
 62
     7
 10
70.226165000000009
 20
184.86980800000001
 30
0.0
 40
1.850368999999999
 50
282.08411799999999
 51
285.74947400000002
  0
ARC
  5
180
  8
_________1
 62
     7
 10
69.735636
 20
186.70189400000001
 30
0.0
 40
3.7469049999999999
 50
285.36454199999997
 51
302.312026
  0
ARC
  5
181
  8
_________1
 62
     7
 10
70.310443999999976
 20
185.74891199999999
 30
0.0
 40
2.634345999999999
 50
302.82530300000002
 51
318.82513299999999
  0
ARC
  5
182
  8
_________1
 62
     7
 10
70.852531999999997
 20
185.23384799999999
 30
0.0
 40
1.887468999999999
 50
319.760176
 51
352.378128
  0
LINE
  5
183
  8
_________1
 62
     7
 10
72.723299999999995
 20
184.98400000000001
 30
0.0
 11
72.723299999999995
 21
185.072
 31
0.0
  0
LINE
  5
184
  8
_________1
 62
     7
 10
72.723299999999995
 20
185.072
 30
0.0
 11
74.467200000000005
 21
186.84100000000001
 31
0.0
  0
LINE
  5
185
  8
_________1
 62
     7
 10
74.467200000000005
 20
186.84100000000001
 30
0.0
 11
74.467200000000005
 21
187.10599999999999
 31
0.0
  0
LINE
  5
186
  8
_________1
 62
     7
 10
58.218000000000004
 20
179.5
 30
0.0
 11
58.925600000000003
 21
179.5
 31
0.0
  0
LINE
  5
187
  8
_________1
 62
     7
 10
58.925600000000003
 20
179.5
 30
0.0
 11
59.632599999999996
 21
179.5
 31
0.0
  0
LINE
  5
188
  8
_________1
 62
     7
 10
59.632599999999996
 20
179.5
 30
0.0
 11
60.340200000000003
 21
179.5
 31
0.0
  0
LINE
  5
189
  8
_________1
 62
     7
 10
60.340200000000003
 20
179.5
 30
0.0
 11
61.047800000000002
 21
179.5
 31
0.0
  0
LINE
  5
18A
  8
_________1
 62
     7
 10
61.047800000000002
 20
179.5
 30
0.0
 11
61.756100000000004
 21
179.5
 31
0.0
  0
LINE
  5
18B
  8
_________1
 62
     7
 10
61.756100000000004
 20
179.5
 30
0.0
 11
62.374200000000002
 21
179.5
 31
0.0
  0
LINE
  5
18C
  8
_________1
 62
     7
 10
62.374200000000002
 20
179.5
 30
0.0
 11
62.993600000000001
 21
179.5
 31
0.0
  0
LINE
  5
18D
  8
_________1
 62
     7
 10
62.993600000000001
 20
179.5
 30
0.0
 11
63.613100000000003
 21
179.5
 31
0.0
  0
LINE
  5
18E
  8
_________1
 62
     7
 10
63.613100000000003
 20
179.5
 30
0.0
 11
64.143600000000006
 21
179.5
 31
0.0
  0
LINE
  5
18F
  8
_________1
 62
     7
 10
64.143600000000006
 20
179.5
 30
0.0
 11
64.674800000000005
 21
179.5
 31
0.0
  0
LINE
  5
190
  8
_________1
 62
     7
 10
64.674800000000005
 20
179.5
 30
0.0
 11
65.117199999999997
 21
179.5
 31
0.0
  0
LINE
  5
191
  8
_________1
 62
     7
 10
65.117199999999997
 20
179.5
 30
0.0
 11
65.469999999999999
 21
179.5
 31
0.0
  0
LINE
  5
192
  8
_________1
 62
     7
 10
65.469999999999999
 20
179.5
 30
0.0
 11
65.824100000000001
 21
179.5
 31
0.0
  0
LINE
  5
193
  8
_________1
 62
     7
 10
65.824100000000001
 20
179.5
 30
0.0
 11
66.089399999999998
 21
179.5
 31
0.0
  0
LINE
  5
194
  8
_________1
 62
     7
 10
66.089399999999998
 20
179.5
 30
0.0
 11
66.354699999999994
 21
179.5
 31
0.0
  0
LINE
  5
195
  8
_________1
 62
     7
 10
66.354699999999994
 20
179.5
 30
0.0
 11
66.443600000000004
 21
179.5
 31
0.0
  0
LINE
  5
196
  8
_________1
 62
     7
 10
66.443600000000004
 20
179.5
 30
0.0
 11
66.531800000000004
 21
179.5
 31
0.0
  0
LINE
  5
197
  8
_________1
 62
     7
 10
66.531800000000004
 20
179.5
 30
0.0
 11
66.620599999999996
 21
179.5
 31
0.0
  0
LINE
  5
198
  8
_________1
 62
     7
 10
58.218000000000004
 20
185.072
 30
0.0
 11
59.102699999999999
 21
185.072
 31
0.0
  0
LINE
  5
199
  8
_________1
 62
     7
 10
59.102699999999999
 20
185.072
 30
0.0
 11
60.0749
 21
185.072
 31
0.0
  0
LINE
  5
19A
  8
_________1
 62
     7
 10
60.0749
 20
185.072
 30
0.0
 11
61.047800000000002
 21
185.072
 31
0.0
  0
LINE
  5
19B
  8
_________1
 62
     7
 10
61.047800000000002
 20
185.072
 30
0.0
 11
61.93249999999999
 21
185.072
 31
0.0
  0
LINE
  5
19C
  8
_________1
 62
     7
 10
61.93249999999999
 20
185.072
 30
0.0
 11
62.9054
 21
185.072
 31
0.0
  0
LINE
  5
19D
  8
_________1
 62
     7
 10
62.9054
 20
185.072
 30
0.0
 11
63.790100000000002
 21
185.072
 31
0.0
  0
LINE
  5
19E
  8
_________1
 62
     7
 10
63.790100000000002
 20
185.072
 30
0.0
 11
64.585999999999999
 21
185.072
 31
0.0
  0
LINE
  5
19F
  8
_________1
 62
     7
 10
64.585999999999999
 20
185.072
 30
0.0
 11
65.469999999999999
 21
185.072
 31
0.0
  0
LINE
  5
1A0
  8
_________1
 62
     7
 10
65.469999999999999
 20
185.072
 30
0.0
 11
66.266499999999994
 21
185.072
 31
0.0
  0
LINE
  5
1A1
  8
_________1
 62
     7
 10
66.266499999999994
 20
185.072
 30
0.0
 11
67.063000000000002
 21
185.072
 31
0.0
  0
LINE
  5
1A2
  8
_________1
 62
     7
 10
67.063000000000002
 20
185.072
 30
0.0
 11
67.770600000000002
 21
185.072
 31
0.0
  0
LINE
  5
1A3
  8
_________1
 62
     7
 10
67.770600000000002
 20
185.072
 30
0.0
 11
68.478300000000004
 21
185.072
 31
0.0
  0
LINE
  5
1A4
  8
_________1
 62
     7
 10
68.478300000000004
 20
185.072
 30
0.0
 11
69.097700000000003
 21
185.072
 31
0.0
  0
LINE
  5
1A5
  8
_________1
 62
     7
 10
69.097700000000003
 20
185.072
 30
0.0
 11
69.716399999999993
 21
185.072
 31
0.0
  0
LINE
  5
1A6
  8
_________1
 62
     7
 10
69.716399999999993
 20
185.072
 30
0.0
 11
70.247
 21
185.072
 31
0.0
  0
LINE
  5
1A7
  8
_________1
 62
     7
 10
70.247
 20
185.072
 30
0.0
 11
70.777500000000003
 21
185.072
 31
0.0
  0
LINE
  5
1A8
  8
_________1
 62
     7
 10
70.777500000000003
 20
185.072
 30
0.0
 11
71.219899999999996
 21
185.072
 31
0.0
  0
LINE
  5
1A9
  8
_________1
 62
     7
 10
71.219899999999996
 20
185.072
 30
0.0
 11
71.662199999999999
 21
185.072
 31
0.0
  0
LINE
  5
1AA
  8
_________1
 62
     7
 10
71.662199999999999
 20
185.072
 30
0.0
 11
71.928200000000004
 21
185.072
 31
0.0
  0
LINE
  5
1AB
  8
_________1
 62
     7
 10
71.928200000000004
 20
185.072
 30
0.0
 11
72.281700000000001
 21
185.072
 31
0.0
  0
LINE
  5
1AC
  8
_________1
 62
     7
 10
72.281700000000001
 20
185.072
 30
0.0
 11
72.458699999999993
 21
185.072
 31
0.0
  0
LINE
  5
1AD
  8
_________1
 62
     7
 10
72.458699999999993
 20
185.072
 30
0.0
 11
72.635800000000003
 21
185.072
 31
0.0
  0
LINE
  5
1AE
  8
_________1
 62
     7
 10
72.635800000000003
 20
185.072
 30
0.0
 11
72.723299999999995
 21
185.072
 31
0.0
  0
LINE
  5
1AF
  8
_________1
  6
AIGENLINE001
 62
     7
 10
133.405
 20
114.96599999999999
 30
0.0
 11
153.441
 21
114.96599999999999
 31
0.0
  0
LINE
  5
1B0
  8
_________1
  6
AIGENLINE001
 62
     7
 10
133.405
 20
95.963099999999997
 30
0.0
 11
153.441
 21
95.963099999999997
 31
0.0
  0
LINE
  5
1B1
  8
_________1
  6
AIGENLINE001
 62
     7
 10
58.217300000000002
 20
141.994
 30
0.0
 11
58.217300000000002
 21
207.02699999999999
 31
0.0
  0
LINE
  5
1B2
  8
_________1
 62
     7
 10
66.001199999999997
 20
175.78399999999999
 30
0.0
 11
66.001199999999997
 21
179.5
 31
0.0
  0
LINE
  5
1B3
  8
_________1
 62
     7
 10
64.674800000000005
 20
173.66099999999989
 30
0.0
 11
64.674800000000005
 21
175.25299999999999
 31
0.0
  0
LINE
  5
1B4
  8
_________1
 62
     7
 10
64.585999999999999
 20
173.48400000000001
 30
0.0
 11
64.674800000000005
 21
173.66099999999989
 31
0.0
  0
LINE
  5
1B5
  8
_________1
 62
     7
 10
60.605499999999999
 20
158.536
 30
0.0
 11
60.605499999999999
 21
159.244
 31
0.0
  0
LINE
  5
1B6
  8
_________1
 62
     7
 10
60.605499999999999
 20
161.72
 30
0.0
 11
60.605499999999999
 21
162.517
 31
0.0
  0
LINE
  5
1B7
  8
_________1
 62
     7
 10
65.205399999999997
 20
168.53100000000001
 30
0.0
 11
65.205399999999997
 21
168.88399999999999
 31
0.0
  0
LINE
  5
1B8
  8
_________1
 62
     7
 10
65.205399999999997
 20
172.334
 30
0.0
 11
65.205399999999997
 21
173.48400000000001
 31
0.0
  0
LINE
  5
1B9
  8
_________1
 62
     7
 10
65.469999999999999
 20
175.25299999999999
 30
0.0
 11
65.382499999999993
 21
175.25299999999999
 31
0.0
  0
LINE
  5
1BA
  8
_________1
 62
     7
 10
65.382499999999993
 20
175.25299999999999
 30
0.0
 11
65.205399999999997
 21
175.25299999999999
 31
0.0
  0
LINE
  5
1BB
  8
_________1
 62
     7
 10
65.205399999999997
 20
175.25299999999999
 30
0.0
 11
65.028300000000002
 21
175.25299999999999
 31
0.0
  0
LINE
  5
1BC
  8
_________1
 62
     7
 10
65.028300000000002
 20
175.25299999999999
 30
0.0
 11
64.763000000000005
 21
175.25299999999999
 31
0.0
  0
LINE
  5
1BD
  8
_________1
 62
     7
 10
64.763000000000005
 20
175.25299999999999
 30
0.0
 11
64.409599999999998
 21
175.25299999999999
 31
0.0
  0
LINE
  5
1BE
  8
_________1
 62
     7
 10
64.409599999999998
 20
175.25299999999999
 30
0.0
 11
64.055400000000006
 21
175.25299999999999
 31
0.0
  0
LINE
  5
1BF
  8
_________1
 62
     7
 10
64.055400000000006
 20
175.25299999999999
 30
0.0
 11
63.701300000000003
 21
175.25299999999999
 31
0.0
  0
LINE
  5
1C0
  8
_________1
 62
     7
 10
63.701300000000003
 20
175.25299999999999
 30
0.0
 11
63.170699999999997
 21
175.25299999999999
 31
0.0
  0
LINE
  5
1C1
  8
_________1
 62
     7
 10
63.170699999999997
 20
175.25299999999999
 30
0.0
 11
62.728400000000001
 21
175.25299999999999
 31
0.0
  0
LINE
  5
1C2
  8
_________1
 62
     7
 10
62.728400000000001
 20
175.25299999999999
 30
0.0
 11
62.1096
 21
175.25299999999999
 31
0.0
  0
LINE
  5
1C3
  8
_________1
 62
     7
 10
62.1096
 20
175.25299999999999
 30
0.0
 11
61.579099999999997
 21
175.25299999999999
 31
0.0
  0
LINE
  5
1C4
  8
_________1
 62
     7
 10
61.579099999999997
 20
175.25299999999999
 30
0.0
 11
60.959600000000002
 21
175.25299999999999
 31
0.0
  0
LINE
  5
1C5
  8
_________1
 62
     7
 10
60.959600000000002
 20
175.25299999999999
 30
0.0
 11
60.340200000000003
 21
175.25299999999999
 31
0.0
  0
LINE
  5
1C6
  8
_________1
 62
     7
 10
60.340200000000003
 20
175.25299999999999
 30
0.0
 11
59.720799999999997
 21
175.25299999999999
 31
0.0
  0
LINE
  5
1C7
  8
_________1
 62
     7
 10
59.720799999999997
 20
175.25299999999999
 30
0.0
 11
59.013100000000001
 21
175.25299999999999
 31
0.0
  0
LINE
  5
1C8
  8
_________1
 62
     7
 10
59.013100000000001
 20
175.25299999999999
 30
0.0
 11
58.217300000000002
 21
175.25299999999999
 31
0.0
  0
LINE
  5
1C9
  8
_________1
 62
     7
 10
58.217300000000002
 20
173.66099999999989
 30
0.0
 11
58.30619999999999
 21
173.66099999999989
 31
0.0
  0
LINE
  5
1CA
  8
_________1
 62
     7
 10
58.30619999999999
 20
173.66099999999989
 30
0.0
 11
58.925600000000003
 21
173.66099999999989
 31
0.0
  0
LINE
  5
1CB
  8
_________1
 62
     7
 10
58.925600000000003
 20
173.66099999999989
 30
0.0
 11
59.544400000000003
 21
173.66099999999989
 31
0.0
  0
LINE
  5
1CC
  8
_________1
 62
     7
 10
59.544400000000003
 20
173.66099999999989
 30
0.0
 11
60.1631
 21
173.66099999999989
 31
0.0
  0
LINE
  5
1CD
  8
_________1
 62
     7
 10
60.1631
 20
173.66099999999989
 30
0.0
 11
60.782499999999999
 21
173.66099999999989
 31
0.0
  0
LINE
  5
1CE
  8
_________1
 62
     7
 10
60.782499999999999
 20
173.66099999999989
 30
0.0
 11
61.402000000000001
 21
173.66099999999989
 31
0.0
  0
LINE
  5
1CF
  8
_________1
 62
     7
 10
61.402000000000001
 20
173.66099999999989
 30
0.0
 11
61.93249999999999
 21
173.66099999999989
 31
0.0
  0
LINE
  5
1D0
  8
_________1
 62
     7
 10
61.93249999999999
 20
173.66099999999989
 30
0.0
 11
62.374200000000002
 21
173.66099999999989
 31
0.0
  0
LINE
  5
1D1
  8
_________1
 62
     7
 10
62.374200000000002
 20
173.66099999999989
 30
0.0
 11
62.9054
 21
173.66099999999989
 31
0.0
  0
LINE
  5
1D2
  8
_________1
 62
     7
 10
62.9054
 20
173.66099999999989
 30
0.0
 11
63.258899999999997
 21
173.66099999999989
 31
0.0
  0
LINE
  5
1D3
  8
_________1
 62
     7
 10
63.258899999999997
 20
173.66099999999989
 30
0.0
 11
63.701300000000003
 21
173.66099999999989
 31
0.0
  0
LINE
  5
1D4
  8
_________1
 62
     7
 10
63.701300000000003
 20
173.66099999999989
 30
0.0
 11
63.967199999999998
 21
173.66099999999989
 31
0.0
  0
LINE
  5
1D5
  8
_________1
 62
     7
 10
63.967199999999998
 20
173.66099999999989
 30
0.0
 11
64.232500000000002
 21
173.66099999999989
 31
0.0
  0
LINE
  5
1D6
  8
_________1
 62
     7
 10
64.232500000000002
 20
173.66099999999989
 30
0.0
 11
64.497799999999998
 21
173.66099999999989
 31
0.0
  0
LINE
  5
1D7
  8
_________1
 62
     7
 10
64.497799999999998
 20
173.66099999999989
 30
0.0
 11
64.585999999999999
 21
173.66099999999989
 31
0.0
  0
LINE
  5
1D8
  8
_________1
 62
     7
 10
64.585999999999999
 20
173.66099999999989
 30
0.0
 11
64.674800000000005
 21
173.66099999999989
 31
0.0
  0
LINE
  5
1D9
  8
_________1
 62
     7
 10
60.605499999999999
 20
159.244
 30
0.0
 11
60.517299999999999
 21
159.244
 31
0.0
  0
LINE
  5
1DA
  8
_________1
 62
     7
 10
60.517299999999999
 20
159.244
 30
0.0
 11
60.340200000000003
 21
159.244
 31
0.0
  0
LINE
  5
1DB
  8
_________1
 62
     7
 10
60.340200000000003
 20
159.244
 30
0.0
 11
60.1631
 21
159.244
 31
0.0
  0
LINE
  5
1DC
  8
_________1
 62
     7
 10
60.1631
 20
159.244
 30
0.0
 11
59.986699999999999
 21
159.244
 31
0.0
  0
LINE
  5
1DD
  8
_________1
 62
     7
 10
59.986699999999999
 20
159.244
 30
0.0
 11
59.632599999999996
 21
159.244
 31
0.0
  0
LINE
  5
1DE
  8
_________1
 62
     7
 10
59.632599999999996
 20
159.244
 30
0.0
 11
59.3673
 21
159.244
 31
0.0
  0
LINE
  5
1DF
  8
_________1
 62
     7
 10
59.3673
 20
159.244
 30
0.0
 11
58.925600000000003
 21
159.244
 31
0.0
  0
LINE
  5
1E0
  8
_________1
 62
     7
 10
58.925600000000003
 20
159.244
 30
0.0
 11
58.5715
 21
159.244
 31
0.0
  0
LINE
  5
1E1
  8
_________1
 62
     7
 10
58.5715
 20
159.244
 30
0.0
 11
58.218000000000004
 21
159.244
 31
0.0
  0
LINE
  5
1E2
  8
_________1
 62
     7
 10
60.605499999999999
 20
161.72
 30
0.0
 11
60.517299999999999
 21
161.72
 31
0.0
  0
LINE
  5
1E3
  8
_________1
 62
     7
 10
60.517299999999999
 20
161.72
 30
0.0
 11
60.340200000000003
 21
161.72
 31
0.0
  0
LINE
  5
1E4
  8
_________1
 62
     7
 10
60.340200000000003
 20
161.72
 30
0.0
 11
60.1631
 21
161.72
 31
0.0
  0
LINE
  5
1E5
  8
_________1
 62
     7
 10
60.1631
 20
161.72
 30
0.0
 11
59.986699999999999
 21
161.72
 31
0.0
  0
LINE
  5
1E6
  8
_________1
 62
     7
 10
59.986699999999999
 20
161.72
 30
0.0
 11
59.632599999999996
 21
161.72
 31
0.0
  0
LINE
  5
1E7
  8
_________1
 62
     7
 10
59.632599999999996
 20
161.72
 30
0.0
 11
59.3673
 21
161.72
 31
0.0
  0
LINE
  5
1E8
  8
_________1
 62
     7
 10
59.3673
 20
161.72
 30
0.0
 11
58.925600000000003
 21
161.72
 31
0.0
  0
LINE
  5
1E9
  8
_________1
 62
     7
 10
58.925600000000003
 20
161.72
 30
0.0
 11
58.5715
 21
161.72
 31
0.0
  0
LINE
  5
1EA
  8
_________1
 62
     7
 10
58.5715
 20
161.72
 30
0.0
 11
58.218000000000004
 21
161.72
 31
0.0
  0
LINE
  5
1EB
  8
_________1
 62
     7
 10
58.217300000000002
 20
172.334
 30
0.0
 11
58.4833
 21
172.334
 31
0.0
  0
LINE
  5
1EC
  8
_________1
 62
     7
 10
58.4833
 20
172.334
 30
0.0
 11
59.19019999999999
 21
172.334
 31
0.0
  0
LINE
  5
1ED
  8
_________1
 62
     7
 10
59.19019999999999
 20
172.334
 30
0.0
 11
59.809600000000003
 21
172.334
 31
0.0
  0
LINE
  5
1EE
  8
_________1
 62
     7
 10
59.809600000000003
 20
172.334
 30
0.0
 11
60.517299999999999
 21
172.334
 31
0.0
  0
LINE
  5
1EF
  8
_________1
 62
     7
 10
60.517299999999999
 20
172.334
 30
0.0
 11
61.13669999999999
 21
172.334
 31
0.0
  0
LINE
  5
1F0
  8
_________1
 62
     7
 10
61.13669999999999
 20
172.334
 30
0.0
 11
61.667299999999997
 21
172.334
 31
0.0
  0
LINE
  5
1F1
  8
_________1
 62
     7
 10
61.667299999999997
 20
172.334
 30
0.0
 11
62.28670000000001
 21
172.334
 31
0.0
  0
LINE
  5
1F2
  8
_________1
 62
     7
 10
62.28670000000001
 20
172.334
 30
0.0
 11
62.816499999999991
 21
172.334
 31
0.0
  0
LINE
  5
1F3
  8
_________1
 62
     7
 10
62.816499999999991
 20
172.334
 30
0.0
 11
63.258899999999997
 21
172.334
 31
0.0
  0
LINE
  5
1F4
  8
_________1
 62
     7
 10
63.258899999999997
 20
172.334
 30
0.0
 11
63.701300000000003
 21
172.334
 31
0.0
  0
LINE
  5
1F5
  8
_________1
 62
     7
 10
63.701300000000003
 20
172.334
 30
0.0
 11
64.055400000000006
 21
172.334
 31
0.0
  0
LINE
  5
1F6
  8
_________1
 62
     7
 10
64.055400000000006
 20
172.334
 30
0.0
 11
64.409599999999998
 21
172.334
 31
0.0
  0
LINE
  5
1F7
  8
_________1
 62
     7
 10
64.409599999999998
 20
172.334
 30
0.0
 11
64.674800000000005
 21
172.334
 31
0.0
  0
LINE
  5
1F8
  8
_________1
 62
     7
 10
64.674800000000005
 20
172.334
 30
0.0
 11
64.940100000000001
 21
172.334
 31
0.0
  0
LINE
  5
1F9
  8
_________1
 62
     7
 10
64.940100000000001
 20
172.334
 30
0.0
 11
65.117199999999997
 21
172.334
 31
0.0
  0
LINE
  5
1FA
  8
_________1
 62
     7
 10
65.117199999999997
 20
172.334
 30
0.0
 11
65.205399999999997
 21
172.334
 31
0.0
  0
LINE
  5
1FB
  8
_________1
 62
     7
 10
58.217300000000002
 20
168.88399999999999
 30
0.0
 11
58.4833
 21
168.88399999999999
 31
0.0
  0
LINE
  5
1FC
  8
_________1
 62
     7
 10
58.4833
 20
168.88399999999999
 30
0.0
 11
59.19019999999999
 21
168.88399999999999
 31
0.0
  0
LINE
  5
1FD
  8
_________1
 62
     7
 10
59.19019999999999
 20
168.88399999999999
 30
0.0
 11
59.809600000000003
 21
168.88399999999999
 31
0.0
  0
LINE
  5
1FE
  8
_________1
 62
     7
 10
59.809600000000003
 20
168.88399999999999
 30
0.0
 11
60.517299999999999
 21
168.88399999999999
 31
0.0
  0
LINE
  5
1FF
  8
_________1
 62
     7
 10
60.517299999999999
 20
168.88399999999999
 30
0.0
 11
61.13669999999999
 21
168.88399999999999
 31
0.0
  0
LINE
  5
200
  8
_________1
 62
     7
 10
61.13669999999999
 20
168.88399999999999
 30
0.0
 11
61.667299999999997
 21
168.88399999999999
 31
0.0
  0
LINE
  5
201
  8
_________1
 62
     7
 10
61.667299999999997
 20
168.88399999999999
 30
0.0
 11
62.28670000000001
 21
168.88399999999999
 31
0.0
  0
LINE
  5
202
  8
_________1
 62
     7
 10
62.28670000000001
 20
168.88399999999999
 30
0.0
 11
62.816499999999991
 21
168.88399999999999
 31
0.0
  0
LINE
  5
203
  8
_________1
 62
     7
 10
62.816499999999991
 20
168.88399999999999
 30
0.0
 11
63.258899999999997
 21
168.88399999999999
 31
0.0
  0
LINE
  5
204
  8
_________1
 62
     7
 10
63.258899999999997
 20
168.88399999999999
 30
0.0
 11
63.701300000000003
 21
168.88399999999999
 31
0.0
  0
LINE
  5
205
  8
_________1
 62
     7
 10
63.701300000000003
 20
168.88399999999999
 30
0.0
 11
64.055400000000006
 21
168.88399999999999
 31
0.0
  0
LINE
  5
206
  8
_________1
 62
     7
 10
64.055400000000006
 20
168.88399999999999
 30
0.0
 11
64.409599999999998
 21
168.88399999999999
 31
0.0
  0
LINE
  5
207
  8
_________1
 62
     7
 10
64.409599999999998
 20
168.88399999999999
 30
0.0
 11
64.674800000000005
 21
168.88399999999999
 31
0.0
  0
LINE
  5
208
  8
_________1
 62
     7
 10
64.674800000000005
 20
168.88399999999999
 30
0.0
 11
64.940100000000001
 21
168.88399999999999
 31
0.0
  0
LINE
  5
209
  8
_________1
 62
     7
 10
64.940100000000001
 20
168.88399999999999
 30
0.0
 11
65.117199999999997
 21
168.88399999999999
 31
0.0
  0
LINE
  5
20A
  8
_________1
 62
     7
 10
65.117199999999997
 20
168.88399999999999
 30
0.0
 11
65.205399999999997
 21
168.88399999999999
 31
0.0
  0
LINE
  5
20B
  8
_________1
 62
     7
 10
58.217300000000002
 20
165.523
 30
0.0
 11
58.30619999999999
 21
165.523
 31
0.0
  0
LINE
  5
20C
  8
_________1
 62
     7
 10
58.30619999999999
 20
165.523
 30
0.0
 11
58.925600000000003
 21
165.523
 31
0.0
  0
LINE
  5
20D
  8
_________1
 62
     7
 10
58.925600000000003
 20
165.523
 30
0.0
 11
59.455500000000001
 21
165.523
 31
0.0
  0
LINE
  5
20E
  8
_________1
 62
     7
 10
59.455500000000001
 20
165.523
 30
0.0
 11
60.0749
 21
165.523
 31
0.0
  0
LINE
  5
20F
  8
_________1
 62
     7
 10
60.0749
 20
165.523
 30
0.0
 11
60.605499999999999
 21
165.523
 31
0.0
  0
LINE
  5
210
  8
_________1
 62
     7
 10
60.605499999999999
 20
165.523
 30
0.0
 11
61.047800000000002
 21
165.523
 31
0.0
  0
LINE
  5
211
  8
_________1
 62
     7
 10
61.047800000000002
 20
165.523
 30
0.0
 11
61.579099999999997
 21
165.523
 31
0.0
  0
LINE
  5
212
  8
_________1
 62
     7
 10
61.579099999999997
 20
165.523
 30
0.0
 11
61.93249999999999
 21
165.523
 31
0.0
  0
LINE
  5
213
  8
_________1
 62
     7
 10
61.93249999999999
 20
165.523
 30
0.0
 11
62.374200000000002
 21
165.523
 31
0.0
  0
LINE
  5
214
  8
_________1
 62
     7
 10
62.374200000000002
 20
165.523
 30
0.0
 11
62.640799999999992
 21
165.523
 31
0.0
  0
LINE
  5
215
  8
_________1
 62
     7
 10
62.640799999999992
 20
165.523
 30
0.0
 11
62.993600000000001
 21
165.523
 31
0.0
  0
LINE
  5
216
  8
_________1
 62
     7
 10
62.993600000000001
 20
165.523
 30
0.0
 11
63.170699999999997
 21
165.523
 31
0.0
  0
LINE
  5
217
  8
_________1
 62
     7
 10
63.170699999999997
 20
165.523
 30
0.0
 11
63.347799999999999
 21
165.523
 31
0.0
  0
LINE
  5
218
  8
_________1
 62
     7
 10
63.347799999999999
 20
165.523
 30
0.0
 11
63.436000000000007
 21
165.523
 31
0.0
  0
LINE
  5
219
  8
_________1
 62
     7
 10
58.217300000000002
 20
173.48400000000001
 30
0.0
 11
58.4833
 21
173.48400000000001
 31
0.0
  0
LINE
  5
21A
  8
_________1
 62
     7
 10
58.4833
 20
173.48400000000001
 30
0.0
 11
59.19019999999999
 21
173.48400000000001
 31
0.0
  0
LINE
  5
21B
  8
_________1
 62
     7
 10
59.19019999999999
 20
173.48400000000001
 30
0.0
 11
59.809600000000003
 21
173.48400000000001
 31
0.0
  0
LINE
  5
21C
  8
_________1
 62
     7
 10
59.809600000000003
 20
173.48400000000001
 30
0.0
 11
60.517299999999999
 21
173.48400000000001
 31
0.0
  0
LINE
  5
21D
  8
_________1
 62
     7
 10
60.517299999999999
 20
173.48400000000001
 30
0.0
 11
61.13669999999999
 21
173.48400000000001
 31
0.0
  0
LINE
  5
21E
  8
_________1
 62
     7
 10
61.13669999999999
 20
173.48400000000001
 30
0.0
 11
61.667299999999997
 21
173.48400000000001
 31
0.0
  0
LINE
  5
21F
  8
_________1
 62
     7
 10
61.667299999999997
 20
173.48400000000001
 30
0.0
 11
62.28670000000001
 21
173.48400000000001
 31
0.0
  0
LINE
  5
220
  8
_________1
 62
     7
 10
62.28670000000001
 20
173.48400000000001
 30
0.0
 11
62.816499999999991
 21
173.48400000000001
 31
0.0
  0
LINE
  5
221
  8
_________1
 62
     7
 10
62.816499999999991
 20
173.48400000000001
 30
0.0
 11
63.258899999999997
 21
173.48400000000001
 31
0.0
  0
LINE
  5
222
  8
_________1
 62
     7
 10
63.258899999999997
 20
173.48400000000001
 30
0.0
 11
63.701300000000003
 21
173.48400000000001
 31
0.0
  0
LINE
  5
223
  8
_________1
 62
     7
 10
63.701300000000003
 20
173.48400000000001
 30
0.0
 11
64.055400000000006
 21
173.48400000000001
 31
0.0
  0
LINE
  5
224
  8
_________1
 62
     7
 10
64.055400000000006
 20
173.48400000000001
 30
0.0
 11
64.409599999999998
 21
173.48400000000001
 31
0.0
  0
LINE
  5
225
  8
_________1
 62
     7
 10
64.409599999999998
 20
173.48400000000001
 30
0.0
 11
64.674800000000005
 21
173.48400000000001
 31
0.0
  0
LINE
  5
226
  8
_________1
 62
     7
 10
64.674800000000005
 20
173.48400000000001
 30
0.0
 11
64.940100000000001
 21
173.48400000000001
 31
0.0
  0
LINE
  5
227
  8
_________1
 62
     7
 10
64.940100000000001
 20
173.48400000000001
 30
0.0
 11
65.117199999999997
 21
173.48400000000001
 31
0.0
  0
LINE
  5
228
  8
_________1
 62
     7
 10
65.117199999999997
 20
173.48400000000001
 30
0.0
 11
65.205399999999997
 21
173.48400000000001
 31
0.0
  0
LINE
  5
229
  8
_________1
 62
     7
 10
60.605499999999999
 20
162.517
 30
0.0
 11
60.517299999999999
 21
162.517
 31
0.0
  0
LINE
  5
22A
  8
_________1
 62
     7
 10
60.517299999999999
 20
162.517
 30
0.0
 11
60.340200000000003
 21
162.517
 31
0.0
  0
LINE
  5
22B
  8
_________1
 62
     7
 10
60.340200000000003
 20
162.517
 30
0.0
 11
60.1631
 21
162.517
 31
0.0
  0
LINE
  5
22C
  8
_________1
 62
     7
 10
60.1631
 20
162.517
 30
0.0
 11
59.897799999999989
 21
162.517
 31
0.0
  0
LINE
  5
22D
  8
_________1
 62
     7
 10
59.897799999999989
 20
162.517
 30
0.0
 11
59.544400000000003
 21
162.517
 31
0.0
  0
LINE
  5
22E
  8
_________1
 62
     7
 10
59.544400000000003
 20
162.517
 30
0.0
 11
59.19019999999999
 21
162.517
 31
0.0
  0
LINE
  5
22F
  8
_________1
 62
     7
 10
59.19019999999999
 20
162.517
 30
0.0
 11
58.836100000000002
 21
162.517
 31
0.0
  0
LINE
  5
230
  8
_________1
 62
     7
 10
58.836100000000002
 20
162.517
 30
0.0
 11
58.4833
 21
162.517
 31
0.0
  0
LINE
  5
231
  8
_________1
 62
     7
 10
58.4833
 20
162.517
 30
0.0
 11
58.217300000000002
 21
162.517
 31
0.0
  0
LINE
  5
232
  8
_________1
 62
     7
 10
134.44
 20
89.212699999999984
 30
0.0
 11
134.44
 21
105.46299999999999
 31
0.0
  0
ARC
  5
233
  8
_________1
 62
     7
 10
58.177923
 20
151.17419699999999
 30
0.0
 40
5.4392829999999996
 50
322.005449
 51
359.86530499999998
  0
ARC
  5
234
  8
_________1
 62
     7
 10
58.01041
 20
150.95450600000001
 30
0.0
 40
5.6105970000000003
 50
2.1133950000000001
 51
87.886595999999997
  0
ARC
  5
235
  8
_________1
 62
     7
 10
58.126486999999997
 20
151.203473
 30
0.0
 40
6.5912079999999991
 50
311.15056399999997
 51
359.63435900000002
  0
ARC
  5
236
  8
_________1
 62
     7
 10
58.217657000000003
 20
151.16106499999989
 30
0.0
 40
6.499903999999999
 50
0.003047
 51
90.003016999999986
  0
ARC
  5
237
  8
_________1
 62
     7
 10
58.062743999999988
 20
151.24375699999999
 30
0.0
 40
7.9051349999999996
 50
303.829927
 51
359.403143
  0
ARC
  5
238
  8
_________1
 62
     7
 10
58.001576
 20
151.006642
 30
0.0
 40
7.9673769999999999
 50
1.1130569999999991
 51
70.913666000000006
  0
ARC
  5
239
  8
_________1
 62
     7
 10
59.898429999999998
 20
165.79886999999999
 30
0.0
 40
7.2971750000000002
 50
273.733048
 51
275.560249
  0
ARC
  5
23A
  8
_________1
 62
     7
 10
58.548495000000003
 20
184.175952
 30
0.0
 40
25.723599
 50
271.42032699999999
 51
274.06844700000011
  0
ARC
  5
23B
  8
_________1
 62
     7
 10
58.227398999999998
 20
193.49587700000001
 30
0.0
 40
35.04873400000001
 50
269.98465099999999
 51
271.56743399999999
  0
LINE
  5
23C
  8
_________1
 62
     7
 10
62.463799999999999
 20
147.82599999999999
 30
0.0
 11
62.463799999999999
 21
144.67699999999999
 31
0.0
  0
ARC
  5
23D
  8
_________1
 62
     7
 10
58.161883999999993
 20
151.18186
 30
0.0
 40
5.7557580000000002
 50
318.37641400000001
 51
359.79643299999998
  0
ARC
  5
23E
  8
_________1
 62
     7
 10
58.217657999999993
 20
151.16106499999989
 30
0.0
 40
5.699948
 50
0.003473
 51
90.003443000000004
  0
ARC
  5
23F
  8
_________1
 62
     7
 10
58.256700000000002
 20
151.174195
 30
0.0
 40
5.4392769999999988
 50
180.13469499999999
 51
217.99459100000001
  0
ARC
  5
240
  8
_________1
 62
     7
 10
58.217314999999999
 20
151.16140899999999
 30
0.0
 40
5.3998780000000002
 50
90.0
 51
179.99996999999999
  0
ARC
  5
241
  8
_________1
 62
     7
 10
58.311638000000002
 20
151.205074
 30
0.0
 40
6.594716
 50
180.37938299999999
 51
228.835733
  0
ARC
  5
242
  8
_________1
 62
     7
 10
58.216970999999987
 20
151.16106499999989
 30
0.0
 40
6.499903999999999
 50
89.996963000000008
 51
179.99693300000001
  0
ARC
  5
243
  8
_________1
 62
     7
 10
58.374030000000012
 20
151.24491699999999
 30
0.0
 40
7.9072929999999992
 50
180.60511700000001
 51
236.16185300000001
  0
ARC
  5
244
  8
_________1
 62
     7
 10
58.43304899999999
 20
151.00664399999999
 30
0.0
 40
7.9673740000000004
 50
109.0862959999999
 51
178.88694100000001
  0
ARC
  5
245
  8
_________1
 62
     7
 10
56.810557999999993
 20
169.07262
 30
0.0
 40
10.582198
 50
264.67872
 51
266.28349600000001
  0
ARC
  5
246
  8
_________1
 62
     7
 10
57.937334999999997
 20
185.21034399999999
 30
0.0
 40
26.759136000000002
 50
266.11571199999997
 51
268.70531
  0
ARC
  5
247
  8
_________1
 62
     7
 10
58.208612000000002
 20
193.657644
 30
0.0
 40
35.210501000000001
 50
268.57457299999999
 51
270.01304800000003
  0
LINE
  5
248
  8
_________1
 62
     7
 10
53.9709
 20
144.67699999999999
 30
0.0
 11
53.9709
 21
147.82599999999999
 31
0.0
  0
ARC
  5
249
  8
_________1
 62
     7
 10
58.267790000000012
 20
151.17970299999999
 30
0.0
 40
5.750106999999999
 50
180.182299
 51
221.64489399999999
  0
ARC
  5
24A
  8
_________1
 62
     7
 10
58.217314999999999
 20
151.16140899999999
 30
0.0
 40
5.6996029999999989
 50
90.0
 51
179.99996999999999
  0
ARC
  5
24B
  8
_________1
 62
     7
 10
122.793772
 20
101.480795
 30
0.0
 40
6.3102229999999997
 50
179.99411000000001
 51
192.586658
  0
ARC
  5
24C
  8
_________1
 62
     7
 10
120.978008
 20
101.115656
 30
0.0
 40
4.4587000000000003
 50
193.091938
 51
202.63034500000001
  0
ARC
  5
24D
  8
_________1
 62
     7
 10
119.478266
 20
100.511062
 30
0.0
 40
2.8418540000000001
 50
203.01407499999999
 51
214.68759
  0
ARC
  5
24E
  8
_________1
 62
     7
 10
118.489293
 20
99.851747000000003
 30
0.0
 40
1.6535660000000001
 50
215.404574
 51
229.90648300000001
  0
ARC
  5
24F
  8
_________1
 62
     7
 10
118.038669
 20
99.341372000000007
 30
0.0
 40
0.9730459999999999
 50
230.85011900000001
 51
252.04863700000001
  0
ARC
  5
250
  8
_________1
 62
     7
 10
117.94516900000001
 20
99.109748999999994
 30
0.0
 40
0.724093
 50
253.438186
 51
269.820494
  0
ARC
  5
251
  8
_________1
 62
     7
 10
117.941209
 20
99.123187000000001
 30
0.0
 40
0.7375300000000001
 50
270.13144499999999
 51
299.79391600000008
  0
ARC
  5
252
  8
_________1
 62
     7
 10
117.766161
 20
99.462591000000003
 30
0.0
 40
1.119173999999999
 50
298.937183
 51
318.73100799999997
  0
ARC
  5
253
  8
_________1
 62
     7
 10
117.191823
 20
100.017439
 30
0.0
 40
1.9172139999999991
 50
317.589178
 51
331.16106500000001
  0
ARC
  5
254
  8
_________1
 62
     7
 10
116.11173700000001
 20
100.65692199999999
 30
0.0
 40
3.1720429999999991
 50
330.45307600000001
 51
341.66802300000001
  0
ARC
  5
255
  8
_________1
 62
     7
 10
114.6233
 20
101.19721
 30
0.0
 40
4.7550850000000002
 50
341.12913800000001
 51
350.99306899999999
  0
ARC
  5
256
  8
_________1
 62
     7
 10
113.226838
 20
101.45908
 30
0.0
 40
6.1754540000000002
 50
350.62176699999998
 51
0.207463
  0
ARC
  5
257
  8
_________1
 62
     7
 10
113.08799500000001
 20
101.482084
 30
0.0
 40
6.3142569999999987
 50
359.99416500000001
 51
12.58260099999999
  0
ARC
  5
258
  8
_________1
 62
     7
 10
114.90695100000001
 20
101.847737
 30
0.0
 40
4.4595050000000001
 50
13.088604999999999
 51
22.627003999999999
  0
ARC
  5
259
  8
_________1
 62
     7
 10
116.407566
 20
102.452659
 30
0.0
 40
2.8417249999999989
 50
23.009516000000001
 51
34.684901000000004
  0
ARC
  5
25A
  8
_________1
 62
     7
 10
117.396005
 20
103.111418
 30
0.0
 40
1.654193
 50
35.405036000000003
 51
49.901975999999991
  0
ARC
  5
25B
  8
_________1
 62
     7
 10
117.847022
 20
103.622044
 30
0.0
 40
0.973227
 50
50.850435000000012
 51
72.045254
  0
ARC
  5
25C
  8
_________1
 62
     7
 10
117.94063199999999
 20
103.85382300000001
 30
0.0
 40
0.724093
 50
73.43816600000001
 51
89.820474000000004
  0
ARC
  5
25D
  8
_________1
 62
     7
 10
117.944592
 20
103.840385
 30
0.0
 40
0.7375300000000001
 50
90.131424999999979
 51
119.793897
  0
ARC
  5
25E
  8
_________1
 62
     7
 10
118.119497
 20
103.50122399999999
 30
0.0
 40
1.1188919999999991
 50
118.936792
 51
138.736355
  0
ARC
  5
25F
  8
_________1
 62
     7
 10
118.69485299999999
 20
102.945592
 30
0.0
 40
1.9182099999999991
 50
137.59534500000001
 51
151.161202
  0
ARC
  5
260
  8
_________1
 62
     7
 10
119.774171
 20
102.30668900000001
 30
0.0
 40
3.172085
 50
150.455646
 51
161.67187300000001
  0
ARC
  5
261
  8
_________1
 62
     7
 10
121.263485
 20
101.766138
 30
0.0
 40
4.7560399999999996
 50
161.132125
 51
170.99621999999999
  0
ARC
  5
262
  8
_________1
 62
     7
 10
122.662566
 20
101.503861
 30
0.0
 40
6.1790580000000004
 50
170.62447800000001
 51
180.20790500000001
  0
ARC
  5
263
  8
_________1
 62
     7
 10
108.60339500000001
 20
102.491226
 30
0.0
 40
0.736491
 50
52.364786000000002
 51
58.093305999999998
  0
ARC
  5
264
  8
_________1
 62
     7
 10
107.866513
 20
101.341482
 30
0.0
 40
2.1020650000000001
 50
57.606389
 51
98.243448000000001
  0
ARC
  5
265
  8
_________1
 62
     7
 10
107.88429499999999
 20
100.97817000000001
 30
0.0
 40
2.4644149999999998
 50
97.441463999999982
 51
115.084014
  0
ARC
  5
266
  8
_________1
 62
     7
 10
108.111178
 20
100.42562599999999
 30
0.0
 40
3.061167999999999
 50
114.545627
 51
120.082671
  0
ARC
  5
267
  8
_________1
 62
     7
 10
113.06332
 20
101.873993
 30
0.0
 40
1.2055530000000001
 50
255.58627200000001
 51
260.12311499999998
  0
ARC
  5
268
  8
_________1
 62
     7
 10
113.611825
 20
104.159593
 30
0.0
 40
3.555944999999999
 50
245.77900000000011
 51
256.19367499999998
  0
ARC
  5
269
  8
_________1
 62
     7
 10
114.062473
 20
105.248361
 30
0.0
 40
4.7338839999999989
 50
212.482112
 51
246.211072
  0
ARC
  5
26A
  8
_________1
 62
     7
 10
114.584862
 20
105.646822
 30
0.0
 40
5.3888249999999989
 50
208.512519
 51
213.07310799999999
  0
ARC
  5
26B
  8
_________1
 62
     7
 10
115.780683
 20
99.564679999999996
 30
0.0
 40
1.0933250000000001
 50
269.90735599999999
 51
274.37662899999998
  0
ARC
  5
26C
  8
_________1
 62
     7
 10
115.786625
 20
101.764613
 30
0.0
 40
3.293266
 50
216.007124
 51
269.86586899999998
  0
ARC
  5
26D
  8
_________1
 62
     7
 10
116.20783400000001
 20
102.09726000000001
 30
0.0
 40
3.8296190000000001
 50
208.94304199999999
 51
216.328338
  0
ARC
  5
26E
  8
_________1
 62
     7
 10
118.60733500000001
 20
98.483548999999996
 30
0.0
 40
2.3897669999999991
 50
180.215957
 51
183.34678600000001
  0
ARC
  5
26F
  8
_________1
 62
     7
 10
119.558234
 20
98.502387999999996
 30
0.0
 40
3.3403449999999988
 50
182.717175
 51
189.91582099999999
  0
ARC
  5
270
  8
_________1
 62
     7
 10
117.60194300000001
 20
98.167636000000016
 30
0.0
 40
1.3556520000000001
 50
190.2168879999999
 51
201.59893600000001
  0
ARC
  5
271
  8
_________1
 62
     7
 10
116.744878
 20
97.836480000000009
 30
0.0
 40
0.4369310000000001
 50
202.59399199999999
 51
222.19063499999999
  0
ARC
  5
272
  8
_________1
 62
     7
 10
116.55017700000001
 20
97.669806000000008
 30
0.0
 40
0.180882
 50
224.49413899999999
 51
248.38620900000001
  0
ARC
  5
273
  8
_________1
 62
     7
 10
115.87682100000001
 20
98.663415999999998
 30
0.0
 40
3.7954080000000001
 50
354.58238699999998
 51
357.14757300000002
  0
ARC
  5
274
  8
_________1
 62
     7
 10
115.481576
 20
98.661394999999999
 30
0.0
 40
4.1888809999999994
 50
348.71829300000002
 51
355.12033700000001
  0
ARC
  5
275
  8
_________1
 62
     7
 10
118.100004
 20
98.158317000000025
 30
0.0
 40
1.522746999999999
 50
342.42506700000001
 51
348.007362
  0
ARC
  5
276
  8
_________1
 62
     7
 10
118.87309999999999
 20
97.912021999999993
 30
0.0
 40
0.711369
 50
334.49911500000002
 51
342.53465899999998
  0
ARC
  5
277
  8
_________1
 62
     7
 10
119.225628
 20
97.742217000000011
 30
0.0
 40
0.320082
 50
322.77201200000002
 51
334.76585399999999
  0
ARC
  5
278
  8
_________1
 62
     7
 10
119.38685099999999
 20
97.615995999999996
 30
0.0
 40
0.115387
 50
277.67026099999998
 51
324.24335000000008
  0
ARC
  5
279
  8
_________1
 62
     7
 10
123.10616899999999
 20
98.274268000000006
 30
0.0
 40
0.5239010000000001
 50
187.05095399999999
 51
193.83124799999999
  0
ARC
  5
27A
  8
_________1
 62
     7
 10
123.357073
 20
98.323020999999983
 30
0.0
 40
0.7792880000000001
 50
192.901748
 51
214.955614
  0
ARC
  5
27B
  8
_________1
 62
     7
 10
123.112087
 20
98.169367000000008
 30
0.0
 40
0.4906760000000001
 50
216.64059900000001
 51
270.62816500000002
  0
ARC
  5
27C
  8
_________1
 62
     7
 10
127.42115200000001
 20
97.053817000000009
 30
0.0
 40
0.5884960000000001
 50
179.46721700000001
 51
185.65858600000001
  0
ARC
  5
27D
  8
_________1
 62
     7
 10
128.36856399999999
 20
97.128247000000002
 30
0.0
 40
1.5387519999999999
 50
184.93815599999999
 51
201.24182500000001
  0
ARC
  5
27E
  8
_________1
 62
     7
 10
128.80005499999999
 20
97.270852000000005
 30
0.0
 40
1.9927319999999991
 50
200.568591
 51
229.05765500000001
  0
ARC
  5
27F
  8
_________1
 62
     7
 10
129.27545699999999
 20
97.755636999999993
 30
0.0
 40
2.670774999999999
 50
228.16892300000001
 51
244.29708299999999
  0
ARC
  5
280
  8
_________1
 62
     7
 10
129.66989899999999
 20
98.471620999999999
 30
0.0
 40
3.487276
 50
243.559562
 51
246.56672499999999
  0
ARC
  5
281
  8
_________1
 62
     7
 10
127.79310099999999
 20
94.099993999999995
 30
0.0
 40
1.2702690000000001
 50
62.854142000000003
 51
67.311224999999993
  0
ARC
  5
282
  8
_________1
 62
     7
 10
126.805697
 20
92.111151000000007
 30
0.0
 40
3.490666
 50
52.641476000000011
 51
63.326621000000003
  0
ARC
  5
283
  8
_________1
 62
     7
 10
126.070606
 20
91.079099999999997
 30
0.0
 40
4.7572339999999986
 50
24.69212000000001
 51
53.146824999999993
  0
ARC
  5
284
  8
_________1
 62
     7
 10
131.94637
 20
93.392679999999999
 30
0.0
 40
1.587399999999999
 50
191.86144599999989
 51
195.71491700000001
  0
ARC
  5
285
  8
_________1
 62
     7
 10
133.978487
 20
93.927544999999995
 30
0.0
 40
3.6885979999999998
 50
195.16304500000001
 51
215.21392800000001
  0
ARC
  5
286
  8
_________1
 62
     7
 10
132.91809000000001
 20
93.229889
 30
0.0
 40
2.420313999999999
 50
216.195652
 51
233.19345999999999
  0
ARC
  5
287
  8
_________1
 62
     7
 10
132.55098799999999
 20
92.790622999999997
 30
0.0
 40
1.848929
 50
234.14654400000001
 51
262.71764999999999
  0
LINE
  5
288
  8
_________1
 62
     7
 10
132.31700000000001
 20
90.956599999999995
 30
0.0
 11
132.405
 21
90.956599999999995
 31
0.0
  0
ARC
  5
289
  8
_________1
 62
     7
 10
133.36267599999999
 20
90.958841000000007
 30
0.0
 40
0.9578649999999999
 50
180.133591
 51
185.17202800000001
  0
ARC
  5
28A
  8
_________1
 62
     7
 10
134.54123899999999
 20
91.038375000000002
 30
0.0
 40
2.13897
 50
184.447901
 51
210.8302689999999
  0
ARC
  5
28B
  8
_________1
 62
     7
 10
134.002037
 20
90.767649999999989
 30
0.0
 40
1.5378430000000001
 50
212.46497400000001
 51
259.45138100000003
  0
ARC
  5
28C
  8
_________1
 62
     7
 10
134.15379999999999
 20
91.407073999999994
 30
0.0
 40
2.1944799999999991
 50
258.61222500000002
 51
270.53330899999997
  0
LINE
  5
28D
  8
_________1
 62
     7
 10
134.17400000000001
 20
89.212699999999984
 30
0.0
 11
134.44
 21
89.212699999999984
 31
0.0
  0
LINE
  5
28E
  8
_________1
 62
     7
 10
126.833
 20
105.462
 30
0.0
 11
126.833
 21
104.754
 31
0.0
  0
LINE
  5
28F
  8
_________1
 62
     7
 10
126.833
 20
104.754
 30
0.0
 11
126.833
 21
104.047
 31
0.0
  0
LINE
  5
290
  8
_________1
 62
     7
 10
126.833
 20
104.047
 30
0.0
 11
126.833
 21
103.34
 31
0.0
  0
LINE
  5
291
  8
_________1
 62
     7
 10
126.833
 20
103.34
 30
0.0
 11
126.833
 21
102.63200000000001
 31
0.0
  0
LINE
  5
292
  8
_________1
 62
     7
 10
126.833
 20
102.63200000000001
 30
0.0
 11
126.833
 21
101.92400000000001
 31
0.0
  0
LINE
  5
293
  8
_________1
 62
     7
 10
126.833
 20
101.92400000000001
 30
0.0
 11
126.833
 21
101.306
 31
0.0
  0
LINE
  5
294
  8
_________1
 62
     7
 10
126.833
 20
101.306
 30
0.0
 11
126.833
 21
100.68600000000001
 31
0.0
  0
LINE
  5
295
  8
_________1
 62
     7
 10
126.833
 20
100.68600000000001
 30
0.0
 11
126.833
 21
100.06699999999999
 31
0.0
  0
LINE
  5
296
  8
_________1
 62
     7
 10
126.833
 20
100.06699999999999
 30
0.0
 11
126.833
 21
99.536299999999997
 31
0.0
  0
LINE
  5
297
  8
_________1
 62
     7
 10
126.833
 20
99.536299999999997
 30
0.0
 11
126.833
 21
99.005099999999999
 31
0.0
  0
LINE
  5
298
  8
_________1
 62
     7
 10
126.833
 20
99.005099999999999
 30
0.0
 11
126.833
 21
98.562700000000021
 31
0.0
  0
LINE
  5
299
  8
_________1
 62
     7
 10
126.833
 20
98.562700000000021
 30
0.0
 11
126.833
 21
98.209999999999994
 31
0.0
  0
LINE
  5
29A
  8
_________1
 62
     7
 10
126.833
 20
98.209999999999994
 30
0.0
 11
126.833
 21
97.855800000000016
 31
0.0
  0
LINE
  5
29B
  8
_________1
 62
     7
 10
126.833
 20
97.855800000000016
 30
0.0
 11
126.833
 21
97.59050000000002
 31
0.0
  0
LINE
  5
29C
  8
_________1
 62
     7
 10
126.833
 20
97.59050000000002
 30
0.0
 11
126.833
 21
97.325299999999999
 31
0.0
  0
LINE
  5
29D
  8
_________1
 62
     7
 10
126.833
 20
97.325299999999999
 30
0.0
 11
126.833
 21
97.236400000000003
 31
0.0
  0
LINE
  5
29E
  8
_________1
 62
     7
 10
126.833
 20
97.236400000000003
 30
0.0
 11
126.833
 21
97.148200000000017
 31
0.0
  0
LINE
  5
29F
  8
_________1
 62
     7
 10
126.833
 20
97.148200000000017
 30
0.0
 11
126.833
 21
97.059299999999993
 31
0.0
  0
LINE
  5
2A0
  8
_________1
 62
     7
 10
132.405
 20
105.462
 30
0.0
 11
132.405
 21
104.577
 31
0.0
  0
LINE
  5
2A1
  8
_________1
 62
     7
 10
132.405
 20
104.577
 30
0.0
 11
132.405
 21
103.605
 31
0.0
  0
LINE
  5
2A2
  8
_________1
 62
     7
 10
132.405
 20
103.605
 30
0.0
 11
132.405
 21
102.63200000000001
 31
0.0
  0
LINE
  5
2A3
  8
_________1
 62
     7
 10
132.405
 20
102.63200000000001
 30
0.0
 11
132.405
 21
101.747
 31
0.0
  0
LINE
  5
2A4
  8
_________1
 62
     7
 10
132.405
 20
101.747
 30
0.0
 11
132.405
 21
100.77500000000001
 31
0.0
  0
LINE
  5
2A5
  8
_________1
 62
     7
 10
132.405
 20
100.77500000000001
 30
0.0
 11
132.405
 21
99.889799999999994
 31
0.0
  0
LINE
  5
2A6
  8
_________1
 62
     7
 10
132.405
 20
99.889799999999994
 30
0.0
 11
132.405
 21
99.093999999999994
 31
0.0
  0
LINE
  5
2A7
  8
_________1
 62
     7
 10
132.405
 20
99.093999999999994
 30
0.0
 11
132.405
 21
98.209999999999994
 31
0.0
  0
LINE
  5
2A8
  8
_________1
 62
     7
 10
132.405
 20
98.209999999999994
 30
0.0
 11
132.405
 21
97.413399999999996
 31
0.0
  0
LINE
  5
2A9
  8
_________1
 62
     7
 10
132.405
 20
97.413399999999996
 30
0.0
 11
132.405
 21
96.616900000000001
 31
0.0
  0
LINE
  5
2AA
  8
_________1
 62
     7
 10
132.405
 20
96.616900000000001
 30
0.0
 11
132.405
 21
95.909300000000002
 31
0.0
  0
LINE
  5
2AB
  8
_________1
 62
     7
 10
132.405
 20
95.909300000000002
 30
0.0
 11
132.405
 21
95.201700000000002
 31
0.0
  0
LINE
  5
2AC
  8
_________1
 62
     7
 10
132.405
 20
95.201700000000002
 30
0.0
 11
132.405
 21
94.5822
 31
0.0
  0
LINE
  5
2AD
  8
_________1
 62
     7
 10
132.405
 20
94.5822
 30
0.0
 11
132.405
 21
93.963499999999996
 31
0.0
  0
LINE
  5
2AE
  8
_________1
 62
     7
 10
132.405
 20
93.963499999999996
 30
0.0
 11
132.405
 21
93.432999999999993
 31
0.0
  0
LINE
  5
2AF
  8
_________1
 62
     7
 10
132.405
 20
93.432999999999993
 30
0.0
 11
132.405
 21
92.9024
 31
0.0
  0
LINE
  5
2B0
  8
_________1
 62
     7
 10
132.405
 20
92.9024
 30
0.0
 11
132.405
 21
92.460099999999997
 31
0.0
  0
LINE
  5
2B1
  8
_________1
 62
     7
 10
132.405
 20
92.460099999999997
 30
0.0
 11
132.405
 21
92.017700000000005
 31
0.0
  0
LINE
  5
2B2
  8
_________1
 62
     7
 10
132.405
 20
92.017700000000005
 30
0.0
 11
132.405
 21
91.751699999999985
 31
0.0
  0
LINE
  5
2B3
  8
_________1
 62
     7
 10
132.405
 20
91.751699999999985
 30
0.0
 11
132.405
 21
91.398300000000006
 31
0.0
  0
LINE
  5
2B4
  8
_________1
 62
     7
 10
132.405
 20
91.398300000000006
 30
0.0
 11
132.405
 21
91.221199999999996
 31
0.0
  0
LINE
  5
2B5
  8
_________1
 62
     7
 10
132.405
 20
91.221199999999996
 30
0.0
 11
132.405
 21
91.044099999999986
 31
0.0
  0
LINE
  5
2B6
  8
_________1
 62
     7
 10
132.405
 20
91.044099999999986
 30
0.0
 11
132.405
 21
90.956599999999995
 31
0.0
  0
LINE
  5
2B7
  8
_________1
 62
     7
 10
123.117
 20
97.678700000000021
 30
0.0
 11
126.833
 21
97.678700000000021
 31
0.0
  0
LINE
  5
2B8
  8
_________1
 62
     7
 10
120.995
 20
99.005099999999999
 30
0.0
 11
122.586
 21
99.005099999999999
 31
0.0
  0
LINE
  5
2B9
  8
_________1
 62
     7
 10
120.818
 20
99.093999999999994
 30
0.0
 11
120.995
 21
99.005099999999999
 31
0.0
  0
LINE
  5
2BA
  8
_________1
 62
     7
 10
105.869
 20
103.074
 30
0.0
 11
106.577
 21
103.074
 31
0.0
  0
LINE
  5
2BB
  8
_________1
 62
     7
 10
109.053
 20
103.074
 30
0.0
 11
109.84999999999999
 21
103.074
 31
0.0
  0
LINE
  5
2BC
  8
_________1
 62
     7
 10
115.864
 20
98.47450000000002
 30
0.0
 11
116.218
 21
98.47450000000002
 31
0.0
  0
LINE
  5
2BD
  8
_________1
 62
     7
 10
119.66800000000001
 20
98.47450000000002
 30
0.0
 11
120.818
 21
98.47450000000002
 31
0.0
  0
LINE
  5
2BE
  8
_________1
 62
     7
 10
122.586
 20
98.209999999999994
 30
0.0
 11
122.586
 21
98.297499999999999
 31
0.0
  0
LINE
  5
2BF
  8
_________1
 62
     7
 10
122.586
 20
98.297499999999999
 30
0.0
 11
122.586
 21
98.47450000000002
 31
0.0
  0
LINE
  5
2C0
  8
_________1
 62
     7
 10
122.586
 20
98.47450000000002
 30
0.0
 11
122.586
 21
98.651600000000016
 31
0.0
  0
LINE
  5
2C1
  8
_________1
 62
     7
 10
122.586
 20
98.651600000000016
 30
0.0
 11
122.586
 21
98.916899999999998
 31
0.0
  0
LINE
  5
2C2
  8
_________1
 62
     7
 10
122.586
 20
98.916899999999998
 30
0.0
 11
122.586
 21
99.270399999999995
 31
0.0
  0
LINE
  5
2C3
  8
_________1
 62
     7
 10
122.586
 20
99.270399999999995
 30
0.0
 11
122.586
 21
99.624499999999998
 31
0.0
  0
LINE
  5
2C4
  8
_________1
 62
     7
 10
122.586
 20
99.624499999999998
 30
0.0
 11
122.586
 21
99.978700000000003
 31
0.0
  0
LINE
  5
2C5
  8
_________1
 62
     7
 10
122.586
 20
99.978700000000003
 30
0.0
 11
122.586
 21
100.509
 31
0.0
  0
LINE
  5
2C6
  8
_________1
 62
     7
 10
122.586
 20
100.509
 30
0.0
 11
122.586
 21
100.952
 31
0.0
  0
LINE
  5
2C7
  8
_________1
 62
     7
 10
122.586
 20
100.952
 30
0.0
 11
122.586
 21
101.56999999999999
 31
0.0
  0
LINE
  5
2C8
  8
_________1
 62
     7
 10
122.586
 20
101.56999999999999
 30
0.0
 11
122.586
 21
102.101
 31
0.0
  0
LINE
  5
2C9
  8
_________1
 62
     7
 10
122.586
 20
102.101
 30
0.0
 11
122.586
 21
102.72
 31
0.0
  0
LINE
  5
2CA
  8
_________1
 62
     7
 10
122.586
 20
102.72
 30
0.0
 11
122.586
 21
103.34
 31
0.0
  0
LINE
  5
2CB
  8
_________1
 62
     7
 10
122.586
 20
103.34
 30
0.0
 11
122.586
 21
103.959
 31
0.0
  0
LINE
  5
2CC
  8
_________1
 62
     7
 10
122.586
 20
103.959
 30
0.0
 11
122.586
 21
104.667
 31
0.0
  0
LINE
  5
2CD
  8
_________1
 62
     7
 10
122.586
 20
104.667
 30
0.0
 11
122.586
 21
105.46299999999999
 31
0.0
  0
LINE
  5
2CE
  8
_________1
 62
     7
 10
120.995
 20
105.46299999999999
 30
0.0
 11
120.995
 21
105.374
 31
0.0
  0
LINE
  5
2CF
  8
_________1
 62
     7
 10
120.995
 20
105.374
 30
0.0
 11
120.995
 21
104.754
 31
0.0
  0
LINE
  5
2D0
  8
_________1
 62
     7
 10
120.995
 20
104.754
 30
0.0
 11
120.995
 21
104.136
 31
0.0
  0
LINE
  5
2D1
  8
_________1
 62
     7
 10
120.995
 20
104.136
 30
0.0
 11
120.995
 21
103.517
 31
0.0
  0
LINE
  5
2D2
  8
_________1
 62
     7
 10
120.995
 20
103.517
 30
0.0
 11
120.995
 21
102.89700000000001
 31
0.0
  0
LINE
  5
2D3
  8
_________1
 62
     7
 10
120.995
 20
102.89700000000001
 30
0.0
 11
120.995
 21
102.27800000000001
 31
0.0
  0
LINE
  5
2D4
  8
_________1
 62
     7
 10
120.995
 20
102.27800000000001
 30
0.0
 11
120.995
 21
101.747
 31
0.0
  0
LINE
  5
2D5
  8
_________1
 62
     7
 10
120.995
 20
101.747
 30
0.0
 11
120.995
 21
101.306
 31
0.0
  0
LINE
  5
2D6
  8
_________1
 62
     7
 10
120.995
 20
101.306
 30
0.0
 11
120.995
 21
100.77500000000001
 31
0.0
  0
LINE
  5
2D7
  8
_________1
 62
     7
 10
120.995
 20
100.77500000000001
 30
0.0
 11
120.995
 21
100.42100000000001
 31
0.0
  0
LINE
  5
2D8
  8
_________1
 62
     7
 10
120.995
 20
100.42100000000001
 30
0.0
 11
120.995
 21
99.978700000000003
 31
0.0
  0
LINE
  5
2D9
  8
_________1
 62
     7
 10
120.995
 20
99.978700000000003
 30
0.0
 11
120.995
 21
99.712699999999998
 31
0.0
  0
LINE
  5
2DA
  8
_________1
 62
     7
 10
120.995
 20
99.712699999999998
 30
0.0
 11
120.995
 21
99.447400000000016
 31
0.0
  0
LINE
  5
2DB
  8
_________1
 62
     7
 10
120.995
 20
99.447400000000016
 30
0.0
 11
120.995
 21
99.182199999999995
 31
0.0
  0
LINE
  5
2DC
  8
_________1
 62
     7
 10
120.995
 20
99.182199999999995
 30
0.0
 11
120.995
 21
99.093999999999994
 31
0.0
  0
LINE
  5
2DD
  8
_________1
 62
     7
 10
120.995
 20
99.093999999999994
 30
0.0
 11
120.995
 21
99.005099999999999
 31
0.0
  0
LINE
  5
2DE
  8
_________1
 62
     7
 10
106.577
 20
103.074
 30
0.0
 11
106.577
 21
103.163
 31
0.0
  0
LINE
  5
2DF
  8
_________1
 62
     7
 10
106.577
 20
103.163
 30
0.0
 11
106.577
 21
103.34
 31
0.0
  0
LINE
  5
2E0
  8
_________1
 62
     7
 10
106.577
 20
103.34
 30
0.0
 11
106.577
 21
103.517
 31
0.0
  0
LINE
  5
2E1
  8
_________1
 62
     7
 10
106.577
 20
103.517
 30
0.0
 11
106.577
 21
103.693
 31
0.0
  0
LINE
  5
2E2
  8
_________1
 62
     7
 10
106.577
 20
103.693
 30
0.0
 11
106.577
 21
104.047
 31
0.0
  0
LINE
  5
2E3
  8
_________1
 62
     7
 10
106.577
 20
104.047
 30
0.0
 11
106.577
 21
104.313
 31
0.0
  0
LINE
  5
2E4
  8
_________1
 62
     7
 10
106.577
 20
104.313
 30
0.0
 11
106.577
 21
104.754
 31
0.0
  0
LINE
  5
2E5
  8
_________1
 62
     7
 10
106.577
 20
104.754
 30
0.0
 11
106.577
 21
105.108
 31
0.0
  0
LINE
  5
2E6
  8
_________1
 62
     7
 10
106.577
 20
105.108
 30
0.0
 11
106.577
 21
105.462
 31
0.0
  0
LINE
  5
2E7
  8
_________1
 62
     7
 10
109.053
 20
103.074
 30
0.0
 11
109.053
 21
103.163
 31
0.0
  0
LINE
  5
2E8
  8
_________1
 62
     7
 10
109.053
 20
103.163
 30
0.0
 11
109.053
 21
103.34
 31
0.0
  0
LINE
  5
2E9
  8
_________1
 62
     7
 10
109.053
 20
103.34
 30
0.0
 11
109.053
 21
103.517
 31
0.0
  0
LINE
  5
2EA
  8
_________1
 62
     7
 10
109.053
 20
103.517
 30
0.0
 11
109.053
 21
103.693
 31
0.0
  0
LINE
  5
2EB
  8
_________1
 62
     7
 10
109.053
 20
103.693
 30
0.0
 11
109.053
 21
104.047
 31
0.0
  0
LINE
  5
2EC
  8
_________1
 62
     7
 10
109.053
 20
104.047
 30
0.0
 11
109.053
 21
104.313
 31
0.0
  0
LINE
  5
2ED
  8
_________1
 62
     7
 10
109.053
 20
104.313
 30
0.0
 11
109.053
 21
104.754
 31
0.0
  0
LINE
  5
2EE
  8
_________1
 62
     7
 10
109.053
 20
104.754
 30
0.0
 11
109.053
 21
105.108
 31
0.0
  0
LINE
  5
2EF
  8
_________1
 62
     7
 10
109.053
 20
105.108
 30
0.0
 11
109.053
 21
105.462
 31
0.0
  0
LINE
  5
2F0
  8
_________1
 62
     7
 10
119.66800000000001
 20
105.46299999999999
 30
0.0
 11
119.66800000000001
 21
105.197
 31
0.0
  0
LINE
  5
2F1
  8
_________1
 62
     7
 10
119.66800000000001
 20
105.197
 30
0.0
 11
119.66800000000001
 21
104.48999999999999
 31
0.0
  0
LINE
  5
2F2
  8
_________1
 62
     7
 10
119.66800000000001
 20
104.48999999999999
 30
0.0
 11
119.66800000000001
 21
103.87
 31
0.0
  0
LINE
  5
2F3
  8
_________1
 62
     7
 10
119.66800000000001
 20
103.87
 30
0.0
 11
119.66800000000001
 21
103.163
 31
0.0
  0
LINE
  5
2F4
  8
_________1
 62
     7
 10
119.66800000000001
 20
103.163
 30
0.0
 11
119.66800000000001
 21
102.54300000000001
 31
0.0
  0
LINE
  5
2F5
  8
_________1
 62
     7
 10
119.66800000000001
 20
102.54300000000001
 30
0.0
 11
119.66800000000001
 21
102.01300000000001
 31
0.0
  0
LINE
  5
2F6
  8
_________1
 62
     7
 10
119.66800000000001
 20
102.01300000000001
 30
0.0
 11
119.66800000000001
 21
101.3929999999999
 31
0.0
  0
LINE
  5
2F7
  8
_________1
 62
     7
 10
119.66800000000001
 20
101.3929999999999
 30
0.0
 11
119.66800000000001
 21
100.863
 31
0.0
  0
LINE
  5
2F8
  8
_________1
 62
     7
 10
119.66800000000001
 20
100.863
 30
0.0
 11
119.66800000000001
 21
100.42100000000001
 31
0.0
  0
LINE
  5
2F9
  8
_________1
 62
     7
 10
119.66800000000001
 20
100.42100000000001
 30
0.0
 11
119.66800000000001
 21
99.978700000000003
 31
0.0
  0
LINE
  5
2FA
  8
_________1
 62
     7
 10
119.66800000000001
 20
99.978700000000003
 30
0.0
 11
119.66800000000001
 21
99.624499999999998
 31
0.0
  0
LINE
  5
2FB
  8
_________1
 62
     7
 10
119.66800000000001
 20
99.624499999999998
 30
0.0
 11
119.66800000000001
 21
99.270399999999995
 31
0.0
  0
LINE
  5
2FC
  8
_________1
 62
     7
 10
119.66800000000001
 20
99.270399999999995
 30
0.0
 11
119.66800000000001
 21
99.005099999999999
 31
0.0
  0
LINE
  5
2FD
  8
_________1
 62
     7
 10
119.66800000000001
 20
99.005099999999999
 30
0.0
 11
119.66800000000001
 21
98.739800000000017
 31
0.0
  0
LINE
  5
2FE
  8
_________1
 62
     7
 10
119.66800000000001
 20
98.739800000000017
 30
0.0
 11
119.66800000000001
 21
98.562700000000021
 31
0.0
  0
LINE
  5
2FF
  8
_________1
 62
     7
 10
119.66800000000001
 20
98.562700000000021
 30
0.0
 11
119.66800000000001
 21
98.47450000000002
 31
0.0
  0
LINE
  5
300
  8
_________1
 62
     7
 10
116.218
 20
105.46299999999999
 30
0.0
 11
116.218
 21
105.197
 31
0.0
  0
LINE
  5
301
  8
_________1
 62
     7
 10
116.218
 20
105.197
 30
0.0
 11
116.218
 21
104.48999999999999
 31
0.0
  0
LINE
  5
302
  8
_________1
 62
     7
 10
116.218
 20
104.48999999999999
 30
0.0
 11
116.218
 21
103.87
 31
0.0
  0
LINE
  5
303
  8
_________1
 62
     7
 10
116.218
 20
103.87
 30
0.0
 11
116.218
 21
103.163
 31
0.0
  0
LINE
  5
304
  8
_________1
 62
     7
 10
116.218
 20
103.163
 30
0.0
 11
116.218
 21
102.54300000000001
 31
0.0
  0
LINE
  5
305
  8
_________1
 62
     7
 10
116.218
 20
102.54300000000001
 30
0.0
 11
116.218
 21
102.01300000000001
 31
0.0
  0
LINE
  5
306
  8
_________1
 62
     7
 10
116.218
 20
102.01300000000001
 30
0.0
 11
116.218
 21
101.3929999999999
 31
0.0
  0
LINE
  5
307
  8
_________1
 62
     7
 10
116.218
 20
101.3929999999999
 30
0.0
 11
116.218
 21
100.863
 31
0.0
  0
LINE
  5
308
  8
_________1
 62
     7
 10
116.218
 20
100.863
 30
0.0
 11
116.218
 21
100.42100000000001
 31
0.0
  0
LINE
  5
309
  8
_________1
 62
     7
 10
116.218
 20
100.42100000000001
 30
0.0
 11
116.218
 21
99.978700000000003
 31
0.0
  0
LINE
  5
30A
  8
_________1
 62
     7
 10
116.218
 20
99.978700000000003
 30
0.0
 11
116.218
 21
99.624499999999998
 31
0.0
  0
LINE
  5
30B
  8
_________1
 62
     7
 10
116.218
 20
99.624499999999998
 30
0.0
 11
116.218
 21
99.270399999999995
 31
0.0
  0
LINE
  5
30C
  8
_________1
 62
     7
 10
116.218
 20
99.270399999999995
 30
0.0
 11
116.218
 21
99.005099999999999
 31
0.0
  0
LINE
  5
30D
  8
_________1
 62
     7
 10
116.218
 20
99.005099999999999
 30
0.0
 11
116.218
 21
98.739800000000017
 31
0.0
  0
LINE
  5
30E
  8
_________1
 62
     7
 10
116.218
 20
98.739800000000017
 30
0.0
 11
116.218
 21
98.562700000000021
 31
0.0
  0
LINE
  5
30F
  8
_________1
 62
     7
 10
116.218
 20
98.562700000000021
 30
0.0
 11
116.218
 21
98.47450000000002
 31
0.0
  0
LINE
  5
310
  8
_________1
 62
     7
 10
119.402
 20
97.50160000000001
 30
0.0
 11
119.313
 21
97.50160000000001
 31
0.0
  0
LINE
  5
311
  8
_________1
 62
     7
 10
119.313
 20
97.50160000000001
 30
0.0
 11
119.22499999999999
 21
97.50160000000001
 31
0.0
  0
LINE
  5
312
  8
_________1
 62
     7
 10
119.22499999999999
 20
97.50160000000001
 30
0.0
 11
119.048
 21
97.50160000000001
 31
0.0
  0
LINE
  5
313
  8
_________1
 62
     7
 10
119.048
 20
97.50160000000001
 30
0.0
 11
118.871
 21
97.50160000000001
 31
0.0
  0
LINE
  5
314
  8
_________1
 62
     7
 10
118.871
 20
97.50160000000001
 30
0.0
 11
118.518
 21
97.50160000000001
 31
0.0
  0
LINE
  5
315
  8
_________1
 62
     7
 10
118.518
 20
97.50160000000001
 30
0.0
 11
118.253
 21
97.50160000000001
 31
0.0
  0
LINE
  5
316
  8
_________1
 62
     7
 10
118.253
 20
97.50160000000001
 30
0.0
 11
117.98699999999999
 21
97.50160000000001
 31
0.0
  0
LINE
  5
317
  8
_________1
 62
     7
 10
117.98699999999999
 20
97.50160000000001
 30
0.0
 11
117.81100000000001
 21
97.50160000000001
 31
0.0
  0
LINE
  5
318
  8
_________1
 62
     7
 10
117.81100000000001
 20
97.50160000000001
 30
0.0
 11
117.456
 21
97.50160000000001
 31
0.0
  0
LINE
  5
319
  8
_________1
 62
     7
 10
117.456
 20
97.50160000000001
 30
0.0
 11
117.279
 21
97.50160000000001
 31
0.0
  0
LINE
  5
31A
  8
_________1
 62
     7
 10
117.279
 20
97.50160000000001
 30
0.0
 11
117.014
 21
97.50160000000001
 31
0.0
  0
LINE
  5
31B
  8
_________1
 62
     7
 10
117.014
 20
97.50160000000001
 30
0.0
 11
116.926
 21
97.50160000000001
 31
0.0
  0
LINE
  5
31C
  8
_________1
 62
     7
 10
116.926
 20
97.50160000000001
 30
0.0
 11
116.66
 21
97.50160000000001
 31
0.0
  0
LINE
  5
31D
  8
_________1
 62
     7
 10
116.66
 20
97.50160000000001
 30
0.0
 11
116.572
 21
97.50160000000001
 31
0.0
  0
LINE
  5
31E
  8
_________1
 62
     7
 10
116.572
 20
97.50160000000001
 30
0.0
 11
116.48399999999999
 21
97.50160000000001
 31
0.0
  0
LINE
  5
31F
  8
_________1
 62
     7
 10
112.857
 20
105.46299999999999
 30
0.0
 11
112.857
 21
105.374
 31
0.0
  0
LINE
  5
320
  8
_________1
 62
     7
 10
112.857
 20
105.374
 30
0.0
 11
112.857
 21
104.754
 31
0.0
  0
LINE
  5
321
  8
_________1
 62
     7
 10
112.857
 20
104.754
 30
0.0
 11
112.857
 21
104.224
 31
0.0
  0
LINE
  5
322
  8
_________1
 62
     7
 10
112.857
 20
104.224
 30
0.0
 11
112.857
 21
103.605
 31
0.0
  0
LINE
  5
323
  8
_________1
 62
     7
 10
112.857
 20
103.605
 30
0.0
 11
112.857
 21
103.074
 31
0.0
  0
LINE
  5
324
  8
_________1
 62
     7
 10
112.857
 20
103.074
 30
0.0
 11
112.857
 21
102.63200000000001
 31
0.0
  0
LINE
  5
325
  8
_________1
 62
     7
 10
112.857
 20
102.63200000000001
 30
0.0
 11
112.857
 21
102.101
 31
0.0
  0
LINE
  5
326
  8
_________1
 62
     7
 10
112.857
 20
102.101
 30
0.0
 11
112.857
 21
101.747
 31
0.0
  0
LINE
  5
327
  8
_________1
 62
     7
 10
112.857
 20
101.747
 30
0.0
 11
112.857
 21
101.306
 31
0.0
  0
LINE
  5
328
  8
_________1
 62
     7
 10
112.857
 20
101.306
 30
0.0
 11
112.857
 21
101.039
 31
0.0
  0
LINE
  5
329
  8
_________1
 62
     7
 10
112.857
 20
101.039
 30
0.0
 11
112.857
 21
100.68600000000001
 31
0.0
  0
LINE
  5
32A
  8
_________1
 62
     7
 10
112.857
 20
100.68600000000001
 30
0.0
 11
112.857
 21
100.509
 31
0.0
  0
LINE
  5
32B
  8
_________1
 62
     7
 10
112.857
 20
100.509
 30
0.0
 11
112.857
 21
100.33199999999999
 31
0.0
  0
LINE
  5
32C
  8
_________1
 62
     7
 10
112.857
 20
100.33199999999999
 30
0.0
 11
112.857
 21
100.244
 31
0.0
  0
LINE
  5
32D
  8
_________1
 62
     7
 10
120.818
 20
105.46299999999999
 30
0.0
 11
120.818
 21
105.197
 31
0.0
  0
LINE
  5
32E
  8
_________1
 62
     7
 10
120.818
 20
105.197
 30
0.0
 11
120.818
 21
104.48999999999999
 31
0.0
  0
LINE
  5
32F
  8
_________1
 62
     7
 10
120.818
 20
104.48999999999999
 30
0.0
 11
120.818
 21
103.87
 31
0.0
  0
LINE
  5
330
  8
_________1
 62
     7
 10
120.818
 20
103.87
 30
0.0
 11
120.818
 21
103.163
 31
0.0
  0
LINE
  5
331
  8
_________1
 62
     7
 10
120.818
 20
103.163
 30
0.0
 11
120.818
 21
102.54300000000001
 31
0.0
  0
LINE
  5
332
  8
_________1
 62
     7
 10
120.818
 20
102.54300000000001
 30
0.0
 11
120.818
 21
102.01300000000001
 31
0.0
  0
LINE
  5
333
  8
_________1
 62
     7
 10
120.818
 20
102.01300000000001
 30
0.0
 11
120.818
 21
101.3929999999999
 31
0.0
  0
LINE
  5
334
  8
_________1
 62
     7
 10
120.818
 20
101.3929999999999
 30
0.0
 11
120.818
 21
100.863
 31
0.0
  0
LINE
  5
335
  8
_________1
 62
     7
 10
120.818
 20
100.863
 30
0.0
 11
120.818
 21
100.42100000000001
 31
0.0
  0
LINE
  5
336
  8
_________1
 62
     7
 10
120.818
 20
100.42100000000001
 30
0.0
 11
120.818
 21
99.978700000000003
 31
0.0
  0
LINE
  5
337
  8
_________1
 62
     7
 10
120.818
 20
99.978700000000003
 30
0.0
 11
120.818
 21
99.624499999999998
 31
0.0
  0
LINE
  5
338
  8
_________1
 62
     7
 10
120.818
 20
99.624499999999998
 30
0.0
 11
120.818
 21
99.270399999999995
 31
0.0
  0
LINE
  5
339
  8
_________1
 62
     7
 10
120.818
 20
99.270399999999995
 30
0.0
 11
120.818
 21
99.005099999999999
 31
0.0
  0
LINE
  5
33A
  8
_________1
 62
     7
 10
120.818
 20
99.005099999999999
 30
0.0
 11
120.818
 21
98.739800000000017
 31
0.0
  0
LINE
  5
33B
  8
_________1
 62
     7
 10
120.818
 20
98.739800000000017
 30
0.0
 11
120.818
 21
98.562700000000021
 31
0.0
  0
LINE
  5
33C
  8
_________1
 62
     7
 10
120.818
 20
98.562700000000021
 30
0.0
 11
120.818
 21
98.47450000000002
 31
0.0
  0
LINE
  5
33D
  8
_________1
 62
     7
 10
109.84999999999999
 20
103.074
 30
0.0
 11
109.84999999999999
 21
103.163
 31
0.0
  0
LINE
  5
33E
  8
_________1
 62
     7
 10
109.84999999999999
 20
103.163
 30
0.0
 11
109.84999999999999
 21
103.34
 31
0.0
  0
LINE
  5
33F
  8
_________1
 62
     7
 10
109.84999999999999
 20
103.34
 30
0.0
 11
109.84999999999999
 21
103.517
 31
0.0
  0
LINE
  5
340
  8
_________1
 62
     7
 10
109.84999999999999
 20
103.517
 30
0.0
 11
109.84999999999999
 21
103.782
 31
0.0
  0
LINE
  5
341
  8
_________1
 62
     7
 10
109.84999999999999
 20
103.782
 30
0.0
 11
109.84999999999999
 21
104.136
 31
0.0
  0
LINE
  5
342
  8
_________1
 62
     7
 10
109.84999999999999
 20
104.136
 30
0.0
 11
109.84999999999999
 21
104.48999999999999
 31
0.0
  0
LINE
  5
343
  8
_________1
 62
     7
 10
109.84999999999999
 20
104.48999999999999
 30
0.0
 11
109.84999999999999
 21
104.84399999999999
 31
0.0
  0
LINE
  5
344
  8
_________1
 62
     7
 10
109.84999999999999
 20
104.84399999999999
 30
0.0
 11
109.84999999999999
 21
105.197
 31
0.0
  0
LINE
  5
345
  8
_________1
 62
     7
 10
109.84999999999999
 20
105.197
 30
0.0
 11
109.84999999999999
 21
105.46299999999999
 31
0.0
  0
LINE
  5
346
  8
_________1
 62
     7
 10
134.44
 20
121.71299999999999
 30
0.0
 11
134.44
 21
105.46299999999999
 31
0.0
  0
ARC
  5
347
  8
_________1
 62
     7
 10
122.79578100000001
 20
109.444103
 30
0.0
 40
6.312231999999999
 50
167.41535300000001
 51
180.00593000000001
  0
ARC
  5
348
  8
_________1
 62
     7
 10
120.978881
 20
109.80933899999999
 30
0.0
 40
4.4595789999999988
 50
157.37173200000001
 51
166.90904699999999
  0
ARC
  5
349
  8
_________1
 62
     7
 10
119.478081
 20
110.414326
 30
0.0
 40
2.8416039999999998
 50
145.313152
 51
156.98827199999999
  0
ARC
  5
34A
  8
_________1
 62
     7
 10
118.48876
 20
111.074049
 30
0.0
 40
1.652795999999999
 50
130.09184400000001
 51
144.60110399999999
  0
ARC
  5
34B
  8
_________1
 62
     7
 10
118.038669
 20
111.583865
 30
0.0
 40
0.9730459999999999
 50
107.951363
 51
129.14988099999999
  0
ARC
  5
34C
  8
_________1
 62
     7
 10
117.94516900000001
 20
111.815489
 30
0.0
 40
0.724093
 50
90.179506000000003
 51
106.5618139999999
  0
ARC
  5
34D
  8
_________1
 62
     7
 10
117.941209
 20
111.80205100000001
 30
0.0
 40
0.7375300000000001
 50
60.206083999999997
 51
89.868555000000001
  0
ARC
  5
34E
  8
_________1
 62
     7
 10
117.766233
 20
111.462768
 30
0.0
 40
1.1190329999999991
 50
41.266308000000002
 51
61.063003000000002
  0
ARC
  5
34F
  8
_________1
 62
     7
 10
117.19215199999999
 20
110.908078
 30
0.0
 40
1.9167759999999989
 50
28.835526999999999
 51
42.411057999999997
  0
ARC
  5
350
  8
_________1
 62
     7
 10
116.112493
 20
110.26869499999999
 30
0.0
 40
3.1711830000000001
 50
18.328479000000002
 51
29.547191999999999
  0
ARC
  5
351
  8
_________1
 62
     7
 10
114.622872
 20
109.727936
 30
0.0
 40
4.7554949999999989
 50
9.0051529999999982
 51
18.86937
  0
ARC
  5
352
  8
_________1
 62
     7
 10
113.225026
 20
109.465836
 30
0.0
 40
6.1772669999999987
 50
359.79238299999997
 51
9.3768570000000011
  0
ARC
  5
353
  8
_________1
 62
     7
 10
113.090001
 20
109.442803
 30
0.0
 40
6.3122519999999991
 50
347.415392
 51
0.00589
  0
ARC
  5
354
  8
_________1
 62
     7
 10
114.90692
 20
109.07756500000001
 30
0.0
 40
4.4595789999999988
 50
337.37175200000001
 51
346.90906699999999
  0
ARC
  5
355
  8
_________1
 62
     7
 10
116.40772
 20
108.472577
 30
0.0
 40
2.8416039999999998
 50
325.31317200000001
 51
336.988292
  0
ARC
  5
356
  8
_________1
 62
     7
 10
117.397041
 20
107.812855
 30
0.0
 40
1.652795999999999
 50
310.09186399999999
 51
324.60112400000003
  0
ARC
  5
357
  8
_________1
 62
     7
 10
117.847132
 20
107.303038
 30
0.0
 40
0.9730459999999999
 50
287.95138200000002
 51
309.149901
  0
ARC
  5
358
  8
_________1
 62
     7
 10
117.94063199999999
 20
107.071415
 30
0.0
 40
0.724093
 50
270.1795259999999
 51
286.56183399999998
  0
ARC
  5
359
  8
_________1
 62
     7
 10
117.944592
 20
107.084853
 30
0.0
 40
0.7375300000000001
 50
240.20610300000001
 51
269.86857500000002
  0
ARC
  5
35A
  8
_________1
 62
     7
 10
118.119568
 20
107.42413500000001
 30
0.0
 40
1.1190329999999991
 50
221.26632799999999
 51
241.06302299999999
  0
ARC
  5
35B
  8
_________1
 62
     7
 10
118.69364899999999
 20
107.978826
 30
0.0
 40
1.9167759999999989
 50
208.83554699999999
 51
222.411078
  0
ARC
  5
35C
  8
_________1
 62
     7
 10
119.773308
 20
108.61820899999999
 30
0.0
 40
3.1711830000000001
 50
198.32849899999999
 51
209.547212
  0
ARC
  5
35D
  8
_________1
 62
     7
 10
121.262929
 20
109.158967
 30
0.0
 40
4.7554949999999989
 50
189.00517300000001
 51
198.86939000000001
  0
ARC
  5
35E
  8
_________1
 62
     7
 10
122.66074999999999
 20
109.421066
 30
0.0
 40
6.1772419999999988
 50
179.79234299999999
 51
189.37689700000001
  0
ARC
  5
35F
  8
_________1
 62
     7
 10
108.60339500000001
 20
108.434012
 30
0.0
 40
0.736491
 50
301.90669400000002
 51
307.63521400000002
  0
ARC
  5
360
  8
_________1
 62
     7
 10
107.866513
 20
109.58375599999999
 30
0.0
 40
2.1020650000000001
 50
261.756552
 51
302.39361100000002
  0
ARC
  5
361
  8
_________1
 62
     7
 10
107.88429499999999
 20
109.947068
 30
0.0
 40
2.4644149999999998
 50
244.915986
 51
262.558536
  0
ARC
  5
362
  8
_________1
 62
     7
 10
108.111178
 20
110.499611
 30
0.0
 40
3.061167999999999
 50
239.917329
 51
245.454373
  0
ARC
  5
363
  8
_________1
 62
     7
 10
113.06332
 20
109.051244
 30
0.0
 40
1.2055530000000001
 50
99.876885000000016
 51
104.41372800000001
  0
ARC
  5
364
  8
_________1
 62
     7
 10
113.611825
 20
106.76564399999999
 30
0.0
 40
3.555944999999999
 50
103.806325
 51
114.221
  0
ARC
  5
365
  8
_________1
 62
     7
 10
114.062473
 20
105.676877
 30
0.0
 40
4.7338839999999989
 50
113.788928
 51
147.517888
  0
ARC
  5
366
  8
_________1
 62
     7
 10
114.584862
 20
105.27841600000001
 30
0.0
 40
5.3888249999999989
 50
146.92689200000001
 51
151.487481
  0
ARC
  5
367
  8
_________1
 62
     7
 10
115.780957
 20
111.36421
 30
0.0
 40
1.0896619999999999
 50
85.623094999999992
 51
90.107380000000006
  0
ARC
  5
368
  8
_________1
 62
     7
 10
115.787432
 20
109.159126
 30
0.0
 40
3.2947549999999999
 50
90.148105000000015
 51
143.981111
  0
ARC
  5
369
  8
_________1
 62
     7
 10
116.20823900000001
 20
108.827307
 30
0.0
 40
3.830298
 50
143.668072
 51
151.05110500000001
  0
ARC
  5
36A
  8
_________1
 62
     7
 10
118.60733500000001
 20
112.441688
 30
0.0
 40
2.3897669999999991
 50
176.65321399999999
 51
179.784043
  0
ARC
  5
36B
  8
_________1
 62
     7
 10
119.558234
 20
112.422849
 30
0.0
 40
3.3403449999999988
 50
170.08417900000001
 51
177.282825
  0
ARC
  5
36C
  8
_________1
 62
     7
 10
117.60194300000001
 20
112.75760099999999
 30
0.0
 40
1.3556520000000001
 50
158.40106399999999
 51
169.78311199999999
  0
ARC
  5
36D
  8
_________1
 62
     7
 10
116.744878
 20
113.088758
 30
0.0
 40
0.4369310000000001
 50
137.80936500000001
 51
157.40600800000001
  0
ARC
  5
36E
  8
_________1
 62
     7
 10
116.55017700000001
 20
113.255432
 30
0.0
 40
0.180882
 50
111.61379100000001
 51
135.50586100000001
  0
ARC
  5
36F
  8
_________1
 62
     7
 10
115.87682100000001
 20
112.261821
 30
0.0
 40
3.7954080000000001
 50
2.852427
 51
5.4176129999999993
  0
ARC
  5
370
  8
_________1
 62
     7
 10
115.481576
 20
112.263842
 30
0.0
 40
4.1888809999999994
 50
4.879662999999999
 51
11.281707000000001
  0
ARC
  5
371
  8
_________1
 62
     7
 10
118.100004
 20
112.76692
 30
0.0
 40
1.522746999999999
 50
11.992637999999999
 51
17.574933000000001
  0
ARC
  5
372
  8
_________1
 62
     7
 10
118.87309999999999
 20
113.013216
 30
0.0
 40
0.711369
 50
17.465340999999999
 51
25.500885
  0
ARC
  5
373
  8
_________1
 62
     7
 10
119.225628
 20
113.183021
 30
0.0
 40
0.320082
 50
25.234145999999999
 51
37.227988000000003
  0
ARC
  5
374
  8
_________1
 62
     7
 10
119.38685099999999
 20
113.309241
 30
0.0
 40
0.115387
 50
35.75665
 51
82.329739000000004
  0
ARC
  5
375
  8
_________1
 62
     7
 10
123.10616899999999
 20
112.65097
 30
0.0
 40
0.5239010000000001
 50
166.16875200000001
 51
172.94904600000001
  0
ARC
  5
376
  8
_________1
 62
     7
 10
123.357073
 20
112.602216
 30
0.0
 40
0.7792880000000001
 50
145.044386
 51
167.098252
  0
ARC
  5
377
  8
_________1
 62
     7
 10
123.112087
 20
112.75587
 30
0.0
 40
0.4906760000000001
 50
89.371835000000004
 51
143.35940099999999
  0
LINE
  5
378
  8
_________1
 62
     7
 10
134.44
 20
121.71299999999999
 30
0.0
 11
134.17400000000001
 21
121.71299999999999
 31
0.0
  0
ARC
  5
379
  8
_________1
 62
     7
 10
134.17203000000001
 20
119.40375400000001
 30
0.0
 40
2.308794999999999
 50
89.945503000000002
 51
104.637297
  0
ARC
  5
37A
  8
_________1
 62
     7
 10
134.020847
 20
120.130876
 30
0.0
 40
1.567515999999999
 50
106.00692100000001
 51
157.99003400000001
  0
ARC
  5
37B
  8
_________1
 62
     7
 10
134.541539
 20
119.89726400000001
 30
0.0
 40
2.137916999999999
 50
157.41522000000001
 51
178.08703399999999
  0
LINE
  5
37C
  8
_________1
 62
     7
 10
132.405
 20
119.96899999999999
 30
0.0
 11
132.31700000000001
 21
119.96899999999999
 31
0.0
  0
ARC
  5
37D
  8
_________1
 62
     7
 10
132.551762
 20
118.126344
 30
0.0
 40
1.8572310000000001
 50
97.273700000000005
 51
134.203677
  0
ARC
  5
37E
  8
_________1
 62
     7
 10
132.94860600000001
 20
117.67673000000001
 30
0.0
 40
2.4563990000000002
 50
133.527422
 51
145.88322199999999
  0
ARC
  5
37F
  8
_________1
 62
     7
 10
133.70354800000001
 20
117.143558
 30
0.0
 40
3.3805070000000002
 50
145.578507
 51
160.52396899999999
  0
ARC
  5
380
  8
_________1
 62
     7
 10
133.83041700000001
 20
117.051548
 30
0.0
 40
3.5310739999999989
 50
159.80277599999999
 51
166.78385900000001
  0
ARC
  5
381
  8
_________1
 62
     7
 10
125.864814
 20
120.0075149999999
 30
0.0
 40
5.0119910000000001
 50
309.03851200000003
 51
334.61446999999998
  0
ARC
  5
382
  8
_________1
 62
     7
 10
126.48204
 20
119.320257
 30
0.0
 40
4.0896919999999994
 50
298.45906000000002
 51
308.38635599999998
  0
ARC
  5
383
  8
_________1
 62
     7
 10
127.48550400000001
 20
117.490917
 30
0.0
 40
2.003258999999999
 50
293.46178100000009
 51
298.15971100000002
  0
ARC
  5
384
  8
_________1
 62
     7
 10
129.55382499999999
 20
112.720805
 30
0.0
 40
3.1959650000000002
 50
113.428887
 51
127.126833
  0
ARC
  5
385
  8
_________1
 62
     7
 10
129.001229
 20
113.500848
 30
0.0
 40
2.2407020000000002
 50
127.899963
 51
153.44145499999999
  0
ARC
  5
386
  8
_________1
 62
     7
 10
128.558111
 20
113.760329
 30
0.0
 40
1.728659999999999
 50
154.56768299999999
 51
176.497083
  0
LINE
  5
387
  8
_________1
 62
     7
 10
126.833
 20
113.866
 30
0.0
 11
126.833
 21
113.777
 31
0.0
  0
LINE
  5
388
  8
_________1
 62
     7
 10
126.833
 20
113.777
 30
0.0
 11
126.833
 21
113.68899999999999
 31
0.0
  0
LINE
  5
389
  8
_________1
 62
     7
 10
126.833
 20
113.68899999999999
 30
0.0
 11
126.833
 21
113.59999999999999
 31
0.0
  0
LINE
  5
38A
  8
_________1
 62
     7
 10
126.833
 20
113.59999999999999
 30
0.0
 11
126.833
 21
113.33499999999999
 31
0.0
  0
LINE
  5
38B
  8
_________1
 62
     7
 10
126.833
 20
113.33499999999999
 30
0.0
 11
126.833
 21
113.069
 31
0.0
  0
LINE
  5
38C
  8
_________1
 62
     7
 10
126.833
 20
113.069
 30
0.0
 11
126.833
 21
112.715
 31
0.0
  0
LINE
  5
38D
  8
_________1
 62
     7
 10
126.833
 20
112.715
 30
0.0
 11
126.833
 21
112.36199999999999
 31
0.0
  0
LINE
  5
38E
  8
_________1
 62
     7
 10
126.833
 20
112.36199999999999
 30
0.0
 11
126.833
 21
111.92
 31
0.0
  0
LINE
  5
38F
  8
_________1
 62
     7
 10
126.833
 20
111.92
 30
0.0
 11
126.833
 21
111.389
 31
0.0
  0
LINE
  5
390
  8
_________1
 62
     7
 10
126.833
 20
111.389
 30
0.0
 11
126.833
 21
110.858
 31
0.0
  0
LINE
  5
391
  8
_________1
 62
     7
 10
126.833
 20
110.858
 30
0.0
 11
126.833
 21
110.239
 31
0.0
  0
LINE
  5
392
  8
_________1
 62
     7
 10
126.833
 20
110.239
 30
0.0
 11
126.833
 21
109.619
 31
0.0
  0
LINE
  5
393
  8
_________1
 62
     7
 10
126.833
 20
109.619
 30
0.0
 11
126.833
 21
109.001
 31
0.0
  0
LINE
  5
394
  8
_________1
 62
     7
 10
126.833
 20
109.001
 30
0.0
 11
126.833
 21
108.29300000000001
 31
0.0
  0
LINE
  5
395
  8
_________1
 62
     7
 10
126.833
 20
108.29300000000001
 30
0.0
 11
126.833
 21
107.58499999999999
 31
0.0
  0
LINE
  5
396
  8
_________1
 62
     7
 10
126.833
 20
107.58499999999999
 30
0.0
 11
126.833
 21
106.878
 31
0.0
  0
LINE
  5
397
  8
_________1
 62
     7
 10
126.833
 20
106.878
 30
0.0
 11
126.833
 21
106.17100000000001
 31
0.0
  0
LINE
  5
398
  8
_________1
 62
     7
 10
126.833
 20
106.17100000000001
 30
0.0
 11
126.833
 21
105.46299999999999
 31
0.0
  0
LINE
  5
399
  8
_________1
 62
     7
 10
132.405
 20
119.96899999999999
 30
0.0
 11
132.405
 21
119.881
 31
0.0
  0
LINE
  5
39A
  8
_________1
 62
     7
 10
132.405
 20
119.881
 30
0.0
 11
132.405
 21
119.70399999999999
 31
0.0
  0
LINE
  5
39B
  8
_________1
 62
     7
 10
132.405
 20
119.70399999999999
 30
0.0
 11
132.405
 21
119.527
 31
0.0
  0
LINE
  5
39C
  8
_________1
 62
     7
 10
132.405
 20
119.527
 30
0.0
 11
132.405
 21
119.173
 31
0.0
  0
LINE
  5
39D
  8
_________1
 62
     7
 10
132.405
 20
119.173
 30
0.0
 11
132.405
 21
118.908
 31
0.0
  0
LINE
  5
39E
  8
_________1
 62
     7
 10
132.405
 20
118.908
 30
0.0
 11
132.405
 21
118.465
 31
0.0
  0
LINE
  5
39F
  8
_________1
 62
     7
 10
132.405
 20
118.465
 30
0.0
 11
132.405
 21
118.023
 31
0.0
  0
LINE
  5
3A0
  8
_________1
 62
     7
 10
132.405
 20
118.023
 30
0.0
 11
132.405
 21
117.492
 31
0.0
  0
LINE
  5
3A1
  8
_________1
 62
     7
 10
132.405
 20
117.492
 30
0.0
 11
132.405
 21
116.962
 31
0.0
  0
LINE
  5
3A2
  8
_________1
 62
     7
 10
132.405
 20
116.962
 30
0.0
 11
132.405
 21
116.343
 31
0.0
  0
LINE
  5
3A3
  8
_________1
 62
     7
 10
132.405
 20
116.343
 30
0.0
 11
132.405
 21
115.724
 31
0.0
  0
LINE
  5
3A4
  8
_________1
 62
     7
 10
132.405
 20
115.724
 30
0.0
 11
132.405
 21
115.01600000000001
 31
0.0
  0
LINE
  5
3A5
  8
_________1
 62
     7
 10
132.405
 20
115.01600000000001
 30
0.0
 11
132.405
 21
114.30800000000001
 31
0.0
  0
LINE
  5
3A6
  8
_________1
 62
     7
 10
132.405
 20
114.30800000000001
 30
0.0
 11
132.405
 21
113.512
 31
0.0
  0
LINE
  5
3A7
  8
_________1
 62
     7
 10
132.405
 20
113.512
 30
0.0
 11
132.405
 21
112.715
 31
0.0
  0
LINE
  5
3A8
  8
_________1
 62
     7
 10
132.405
 20
112.715
 30
0.0
 11
132.405
 21
111.831
 31
0.0
  0
LINE
  5
3A9
  8
_________1
 62
     7
 10
132.405
 20
111.831
 30
0.0
 11
132.405
 21
111.035
 31
0.0
  0
LINE
  5
3AA
  8
_________1
 62
     7
 10
132.405
 20
111.035
 30
0.0
 11
132.405
 21
110.151
 31
0.0
  0
LINE
  5
3AB
  8
_________1
 62
     7
 10
132.405
 20
110.151
 30
0.0
 11
132.405
 21
109.178
 31
0.0
  0
LINE
  5
3AC
  8
_________1
 62
     7
 10
132.405
 20
109.178
 30
0.0
 11
132.405
 21
108.29300000000001
 31
0.0
  0
LINE
  5
3AD
  8
_________1
 62
     7
 10
132.405
 20
108.29300000000001
 30
0.0
 11
132.405
 21
107.31999999999999
 31
0.0
  0
LINE
  5
3AE
  8
_________1
 62
     7
 10
132.405
 20
107.31999999999999
 30
0.0
 11
132.405
 21
106.348
 31
0.0
  0
LINE
  5
3AF
  8
_________1
 62
     7
 10
132.405
 20
106.348
 30
0.0
 11
132.405
 21
105.46299999999999
 31
0.0
  0
LINE
  5
3B0
  8
_________1
  6
AIGENLINE001
 62
     7
 10
137.20099999999999
 20
105.46299999999999
 30
0.0
 11
89.326400000000007
 21
105.46299999999999
 31
0.0
  0
LINE
  5
3B1
  8
_________1
 62
     7
 10
126.833
 20
113.247
 30
0.0
 11
123.117
 21
113.247
 31
0.0
  0
LINE
  5
3B2
  8
_________1
 62
     7
 10
122.586
 20
111.92
 30
0.0
 11
120.995
 21
111.92
 31
0.0
  0
LINE
  5
3B3
  8
_________1
 62
     7
 10
120.995
 20
111.92
 30
0.0
 11
120.818
 21
111.831
 31
0.0
  0
LINE
  5
3B4
  8
_________1
 62
     7
 10
106.577
 20
107.851
 30
0.0
 11
105.869
 21
107.851
 31
0.0
  0
LINE
  5
3B5
  8
_________1
 62
     7
 10
109.84999999999999
 20
107.851
 30
0.0
 11
109.053
 21
107.851
 31
0.0
  0
LINE
  5
3B6
  8
_________1
 62
     7
 10
116.218
 20
112.45099999999999
 30
0.0
 11
115.864
 21
112.45099999999999
 31
0.0
  0
LINE
  5
3B7
  8
_________1
 62
     7
 10
120.818
 20
112.45099999999999
 30
0.0
 11
119.66800000000001
 21
112.45099999999999
 31
0.0
  0
LINE
  5
3B8
  8
_________1
 62
     7
 10
122.586
 20
110.416
 30
0.0
 11
122.586
 21
110.947
 31
0.0
  0
LINE
  5
3B9
  8
_________1
 62
     7
 10
122.586
 20
110.947
 30
0.0
 11
122.586
 21
111.301
 31
0.0
  0
LINE
  5
3BA
  8
_________1
 62
     7
 10
122.586
 20
111.301
 30
0.0
 11
122.586
 21
111.655
 31
0.0
  0
LINE
  5
3BB
  8
_________1
 62
     7
 10
122.586
 20
111.655
 30
0.0
 11
122.586
 21
112.008
 31
0.0
  0
LINE
  5
3BC
  8
_________1
 62
     7
 10
122.586
 20
112.008
 30
0.0
 11
122.586
 21
112.274
 31
0.0
  0
LINE
  5
3BD
  8
_________1
 62
     7
 10
122.586
 20
112.274
 30
0.0
 11
122.586
 21
112.45099999999999
 31
0.0
  0
LINE
  5
3BE
  8
_________1
 62
     7
 10
122.586
 20
112.45099999999999
 30
0.0
 11
122.586
 21
112.628
 31
0.0
  0
LINE
  5
3BF
  8
_________1
 62
     7
 10
122.586
 20
112.628
 30
0.0
 11
122.586
 21
112.715
 31
0.0
  0
LINE
  5
3C0
  8
_________1
 62
     7
 10
122.586
 20
105.46299999999999
 30
0.0
 11
122.586
 21
106.258
 31
0.0
  0
LINE
  5
3C1
  8
_________1
 62
     7
 10
122.586
 20
106.258
 30
0.0
 11
122.586
 21
106.96599999999999
 31
0.0
  0
LINE
  5
3C2
  8
_________1
 62
     7
 10
122.586
 20
106.96599999999999
 30
0.0
 11
122.586
 21
107.58499999999999
 31
0.0
  0
LINE
  5
3C3
  8
_________1
 62
     7
 10
122.586
 20
107.58499999999999
 30
0.0
 11
122.586
 21
108.205
 31
0.0
  0
LINE
  5
3C4
  8
_________1
 62
     7
 10
122.586
 20
108.205
 30
0.0
 11
122.586
 21
108.824
 31
0.0
  0
LINE
  5
3C5
  8
_________1
 62
     7
 10
122.586
 20
108.824
 30
0.0
 11
122.586
 21
109.355
 31
0.0
  0
LINE
  5
3C6
  8
_________1
 62
     7
 10
122.586
 20
109.355
 30
0.0
 11
122.586
 21
109.974
 31
0.0
  0
LINE
  5
3C7
  8
_________1
 62
     7
 10
122.586
 20
109.974
 30
0.0
 11
122.586
 21
110.416
 31
0.0
  0
LINE
  5
3C8
  8
_________1
 62
     7
 10
120.995
 20
111.92
 30
0.0
 11
120.995
 21
111.831
 31
0.0
  0
LINE
  5
3C9
  8
_________1
 62
     7
 10
120.995
 20
111.831
 30
0.0
 11
120.995
 21
111.74299999999999
 31
0.0
  0
LINE
  5
3CA
  8
_________1
 62
     7
 10
120.995
 20
111.74299999999999
 30
0.0
 11
120.995
 21
111.47799999999999
 31
0.0
  0
LINE
  5
3CB
  8
_________1
 62
     7
 10
120.995
 20
111.47799999999999
 30
0.0
 11
120.995
 21
111.21299999999999
 31
0.0
  0
LINE
  5
3CC
  8
_________1
 62
     7
 10
120.995
 20
111.21299999999999
 30
0.0
 11
120.995
 21
110.947
 31
0.0
  0
LINE
  5
3CD
  8
_________1
 62
     7
 10
120.995
 20
110.947
 30
0.0
 11
120.995
 21
110.504
 31
0.0
  0
LINE
  5
3CE
  8
_________1
 62
     7
 10
120.995
 20
110.504
 30
0.0
 11
120.995
 21
110.151
 31
0.0
  0
LINE
  5
3CF
  8
_________1
 62
     7
 10
120.995
 20
110.151
 30
0.0
 11
120.995
 21
109.619
 31
0.0
  0
LINE
  5
3D0
  8
_________1
 62
     7
 10
120.995
 20
109.619
 30
0.0
 11
120.995
 21
109.178
 31
0.0
  0
LINE
  5
3D1
  8
_________1
 62
     7
 10
120.995
 20
109.178
 30
0.0
 11
120.995
 21
108.64700000000001
 31
0.0
  0
LINE
  5
3D2
  8
_________1
 62
     7
 10
120.995
 20
108.64700000000001
 30
0.0
 11
120.995
 21
108.02800000000001
 31
0.0
  0
LINE
  5
3D3
  8
_________1
 62
     7
 10
120.995
 20
108.02800000000001
 30
0.0
 11
120.995
 21
107.408
 31
0.0
  0
LINE
  5
3D4
  8
_________1
 62
     7
 10
120.995
 20
107.408
 30
0.0
 11
120.995
 21
106.79000000000001
 31
0.0
  0
LINE
  5
3D5
  8
_________1
 62
     7
 10
120.995
 20
106.79000000000001
 30
0.0
 11
120.995
 21
106.17100000000001
 31
0.0
  0
LINE
  5
3D6
  8
_________1
 62
     7
 10
120.995
 20
106.17100000000001
 30
0.0
 11
120.995
 21
105.55200000000001
 31
0.0
  0
LINE
  5
3D7
  8
_________1
 62
     7
 10
120.995
 20
105.55200000000001
 30
0.0
 11
120.995
 21
105.46299999999999
 31
0.0
  0
LINE
  5
3D8
  8
_________1
 62
     7
 10
106.577
 20
105.46299999999999
 30
0.0
 11
106.577
 21
105.81699999999999
 31
0.0
  0
LINE
  5
3D9
  8
_________1
 62
     7
 10
106.577
 20
105.81699999999999
 30
0.0
 11
106.577
 21
106.17100000000001
 31
0.0
  0
LINE
  5
3DA
  8
_________1
 62
     7
 10
106.577
 20
106.17100000000001
 30
0.0
 11
106.577
 21
106.613
 31
0.0
  0
LINE
  5
3DB
  8
_________1
 62
     7
 10
106.577
 20
106.613
 30
0.0
 11
106.577
 21
106.878
 31
0.0
  0
LINE
  5
3DC
  8
_________1
 62
     7
 10
106.577
 20
106.878
 30
0.0
 11
106.577
 21
107.232
 31
0.0
  0
LINE
  5
3DD
  8
_________1
 62
     7
 10
106.577
 20
107.232
 30
0.0
 11
106.577
 21
107.408
 31
0.0
  0
LINE
  5
3DE
  8
_________1
 62
     7
 10
106.577
 20
107.408
 30
0.0
 11
106.577
 21
107.58499999999999
 31
0.0
  0
LINE
  5
3DF
  8
_________1
 62
     7
 10
106.577
 20
107.58499999999999
 30
0.0
 11
106.577
 21
107.76300000000001
 31
0.0
  0
LINE
  5
3E0
  8
_________1
 62
     7
 10
106.577
 20
107.76300000000001
 30
0.0
 11
106.577
 21
107.851
 31
0.0
  0
LINE
  5
3E1
  8
_________1
 62
     7
 10
109.053
 20
105.46299999999999
 30
0.0
 11
109.053
 21
105.81699999999999
 31
0.0
  0
LINE
  5
3E2
  8
_________1
 62
     7
 10
109.053
 20
105.81699999999999
 30
0.0
 11
109.053
 21
106.17100000000001
 31
0.0
  0
LINE
  5
3E3
  8
_________1
 62
     7
 10
109.053
 20
106.17100000000001
 30
0.0
 11
109.053
 21
106.613
 31
0.0
  0
LINE
  5
3E4
  8
_________1
 62
     7
 10
109.053
 20
106.613
 30
0.0
 11
109.053
 21
106.878
 31
0.0
  0
LINE
  5
3E5
  8
_________1
 62
     7
 10
109.053
 20
106.878
 30
0.0
 11
109.053
 21
107.232
 31
0.0
  0
LINE
  5
3E6
  8
_________1
 62
     7
 10
109.053
 20
107.232
 30
0.0
 11
109.053
 21
107.408
 31
0.0
  0
LINE
  5
3E7
  8
_________1
 62
     7
 10
109.053
 20
107.408
 30
0.0
 11
109.053
 21
107.58499999999999
 31
0.0
  0
LINE
  5
3E8
  8
_________1
 62
     7
 10
109.053
 20
107.58499999999999
 30
0.0
 11
109.053
 21
107.76300000000001
 31
0.0
  0
LINE
  5
3E9
  8
_________1
 62
     7
 10
109.053
 20
107.76300000000001
 30
0.0
 11
109.053
 21
107.851
 31
0.0
  0
LINE
  5
3EA
  8
_________1
 62
     7
 10
119.66800000000001
 20
112.45099999999999
 30
0.0
 11
119.66800000000001
 21
112.36199999999999
 31
0.0
  0
LINE
  5
3EB
  8
_________1
 62
     7
 10
119.66800000000001
 20
112.36199999999999
 30
0.0
 11
119.66800000000001
 21
112.185
 31
0.0
  0
LINE
  5
3EC
  8
_________1
 62
     7
 10
119.66800000000001
 20
112.185
 30
0.0
 11
119.66800000000001
 21
111.92
 31
0.0
  0
LINE
  5
3ED
  8
_________1
 62
     7
 10
119.66800000000001
 20
111.92
 30
0.0
 11
119.66800000000001
 21
111.655
 31
0.0
  0
LINE
  5
3EE
  8
_________1
 62
     7
 10
119.66800000000001
 20
111.655
 30
0.0
 11
119.66800000000001
 21
111.301
 31
0.0
  0
LINE
  5
3EF
  8
_________1
 62
     7
 10
119.66800000000001
 20
111.301
 30
0.0
 11
119.66800000000001
 21
110.947
 31
0.0
  0
LINE
  5
3F0
  8
_________1
 62
     7
 10
119.66800000000001
 20
110.947
 30
0.0
 11
119.66800000000001
 21
110.504
 31
0.0
  0
LINE
  5
3F1
  8
_________1
 62
     7
 10
119.66800000000001
 20
110.504
 30
0.0
 11
119.66800000000001
 21
110.062
 31
0.0
  0
LINE
  5
3F2
  8
_________1
 62
     7
 10
119.66800000000001
 20
110.062
 30
0.0
 11
119.66800000000001
 21
109.532
 31
0.0
  0
LINE
  5
3F3
  8
_________1
 62
     7
 10
119.66800000000001
 20
109.532
 30
0.0
 11
119.66800000000001
 21
108.913
 31
0.0
  0
LINE
  5
3F4
  8
_________1
 62
     7
 10
119.66800000000001
 20
108.913
 30
0.0
 11
119.66800000000001
 21
108.38200000000001
 31
0.0
  0
LINE
  5
3F5
  8
_________1
 62
     7
 10
119.66800000000001
 20
108.38200000000001
 30
0.0
 11
119.66800000000001
 21
107.76300000000001
 31
0.0
  0
LINE
  5
3F6
  8
_________1
 62
     7
 10
119.66800000000001
 20
107.76300000000001
 30
0.0
 11
119.66800000000001
 21
107.05500000000001
 31
0.0
  0
LINE
  5
3F7
  8
_________1
 62
     7
 10
119.66800000000001
 20
107.05500000000001
 30
0.0
 11
119.66800000000001
 21
106.43600000000001
 31
0.0
  0
LINE
  5
3F8
  8
_________1
 62
     7
 10
119.66800000000001
 20
106.43600000000001
 30
0.0
 11
119.66800000000001
 21
105.729
 31
0.0
  0
LINE
  5
3F9
  8
_________1
 62
     7
 10
119.66800000000001
 20
105.729
 30
0.0
 11
119.66800000000001
 21
105.46299999999999
 31
0.0
  0
LINE
  5
3FA
  8
_________1
 62
     7
 10
116.218
 20
112.45099999999999
 30
0.0
 11
116.218
 21
112.36199999999999
 31
0.0
  0
LINE
  5
3FB
  8
_________1
 62
     7
 10
116.218
 20
112.36199999999999
 30
0.0
 11
116.218
 21
112.185
 31
0.0
  0
LINE
  5
3FC
  8
_________1
 62
     7
 10
116.218
 20
112.185
 30
0.0
 11
116.218
 21
111.92
 31
0.0
  0
LINE
  5
3FD
  8
_________1
 62
     7
 10
116.218
 20
111.92
 30
0.0
 11
116.218
 21
111.655
 31
0.0
  0
LINE
  5
3FE
  8
_________1
 62
     7
 10
116.218
 20
111.655
 30
0.0
 11
116.218
 21
111.301
 31
0.0
  0
LINE
  5
3FF
  8
_________1
 62
     7
 10
116.218
 20
111.301
 30
0.0
 11
116.218
 21
110.947
 31
0.0
  0
LINE
  5
400
  8
_________1
 62
     7
 10
116.218
 20
110.947
 30
0.0
 11
116.218
 21
110.504
 31
0.0
  0
LINE
  5
401
  8
_________1
 62
     7
 10
116.218
 20
110.504
 30
0.0
 11
116.218
 21
110.062
 31
0.0
  0
LINE
  5
402
  8
_________1
 62
     7
 10
116.218
 20
110.062
 30
0.0
 11
116.218
 21
109.532
 31
0.0
  0
LINE
  5
403
  8
_________1
 62
     7
 10
116.218
 20
109.532
 30
0.0
 11
116.218
 21
108.913
 31
0.0
  0
LINE
  5
404
  8
_________1
 62
     7
 10
116.218
 20
108.913
 30
0.0
 11
116.218
 21
108.38200000000001
 31
0.0
  0
LINE
  5
405
  8
_________1
 62
     7
 10
116.218
 20
108.38200000000001
 30
0.0
 11
116.218
 21
107.76300000000001
 31
0.0
  0
LINE
  5
406
  8
_________1
 62
     7
 10
116.218
 20
107.76300000000001
 30
0.0
 11
116.218
 21
107.05500000000001
 31
0.0
  0
LINE
  5
407
  8
_________1
 62
     7
 10
116.218
 20
107.05500000000001
 30
0.0
 11
116.218
 21
106.43600000000001
 31
0.0
  0
LINE
  5
408
  8
_________1
 62
     7
 10
116.218
 20
106.43600000000001
 30
0.0
 11
116.218
 21
105.729
 31
0.0
  0
LINE
  5
409
  8
_________1
 62
     7
 10
116.218
 20
105.729
 30
0.0
 11
116.218
 21
105.46299999999999
 31
0.0
  0
LINE
  5
40A
  8
_________1
 62
     7
 10
116.48399999999999
 20
113.42400000000001
 30
0.0
 11
116.572
 21
113.42400000000001
 31
0.0
  0
LINE
  5
40B
  8
_________1
 62
     7
 10
116.572
 20
113.42400000000001
 30
0.0
 11
116.66
 21
113.42400000000001
 31
0.0
  0
LINE
  5
40C
  8
_________1
 62
     7
 10
116.66
 20
113.42400000000001
 30
0.0
 11
116.926
 21
113.42400000000001
 31
0.0
  0
LINE
  5
40D
  8
_________1
 62
     7
 10
116.926
 20
113.42400000000001
 30
0.0
 11
117.014
 21
113.42400000000001
 31
0.0
  0
LINE
  5
40E
  8
_________1
 62
     7
 10
117.014
 20
113.42400000000001
 30
0.0
 11
117.279
 21
113.42400000000001
 31
0.0
  0
LINE
  5
40F
  8
_________1
 62
     7
 10
117.279
 20
113.42400000000001
 30
0.0
 11
117.456
 21
113.42400000000001
 31
0.0
  0
LINE
  5
410
  8
_________1
 62
     7
 10
117.456
 20
113.42400000000001
 30
0.0
 11
117.81100000000001
 21
113.42400000000001
 31
0.0
  0
LINE
  5
411
  8
_________1
 62
     7
 10
117.81100000000001
 20
113.42400000000001
 30
0.0
 11
117.98699999999999
 21
113.42400000000001
 31
0.0
  0
LINE
  5
412
  8
_________1
 62
     7
 10
117.98699999999999
 20
113.42400000000001
 30
0.0
 11
118.253
 21
113.42400000000001
 31
0.0
  0
LINE
  5
413
  8
_________1
 62
     7
 10
118.253
 20
113.42400000000001
 30
0.0
 11
118.518
 21
113.42400000000001
 31
0.0
  0
LINE
  5
414
  8
_________1
 62
     7
 10
118.518
 20
113.42400000000001
 30
0.0
 11
118.871
 21
113.42400000000001
 31
0.0
  0
LINE
  5
415
  8
_________1
 62
     7
 10
118.871
 20
113.42400000000001
 30
0.0
 11
119.048
 21
113.42400000000001
 31
0.0
  0
LINE
  5
416
  8
_________1
 62
     7
 10
119.048
 20
113.42400000000001
 30
0.0
 11
119.22499999999999
 21
113.42400000000001
 31
0.0
  0
LINE
  5
417
  8
_________1
 62
     7
 10
119.22499999999999
 20
113.42400000000001
 30
0.0
 11
119.313
 21
113.42400000000001
 31
0.0
  0
LINE
  5
418
  8
_________1
 62
     7
 10
119.313
 20
113.42400000000001
 30
0.0
 11
119.402
 21
113.42400000000001
 31
0.0
  0
LINE
  5
419
  8
_________1
 62
     7
 10
112.857
 20
110.681
 30
0.0
 11
112.857
 21
110.593
 31
0.0
  0
LINE
  5
41A
  8
_________1
 62
     7
 10
112.857
 20
110.593
 30
0.0
 11
112.857
 21
110.416
 31
0.0
  0
LINE
  5
41B
  8
_________1
 62
     7
 10
112.857
 20
110.416
 30
0.0
 11
112.857
 21
110.239
 31
0.0
  0
LINE
  5
41C
  8
_________1
 62
     7
 10
112.857
 20
110.239
 30
0.0
 11
112.857
 21
109.886
 31
0.0
  0
LINE
  5
41D
  8
_________1
 62
     7
 10
112.857
 20
109.886
 30
0.0
 11
112.857
 21
109.619
 31
0.0
  0
LINE
  5
41E
  8
_________1
 62
     7
 10
112.857
 20
109.619
 30
0.0
 11
112.857
 21
109.178
 31
0.0
  0
LINE
  5
41F
  8
_________1
 62
     7
 10
112.857
 20
109.178
 30
0.0
 11
112.857
 21
108.824
 31
0.0
  0
LINE
  5
420
  8
_________1
 62
     7
 10
112.857
 20
108.824
 30
0.0
 11
112.857
 21
108.29300000000001
 31
0.0
  0
LINE
  5
421
  8
_________1
 62
     7
 10
112.857
 20
108.29300000000001
 30
0.0
 11
112.857
 21
107.851
 31
0.0
  0
LINE
  5
422
  8
_________1
 62
     7
 10
112.857
 20
107.851
 30
0.0
 11
112.857
 21
107.31999999999999
 31
0.0
  0
LINE
  5
423
  8
_________1
 62
     7
 10
112.857
 20
107.31999999999999
 30
0.0
 11
112.857
 21
106.70099999999999
 31
0.0
  0
LINE
  5
424
  8
_________1
 62
     7
 10
112.857
 20
106.70099999999999
 30
0.0
 11
112.857
 21
106.17100000000001
 31
0.0
  0
LINE
  5
425
  8
_________1
 62
     7
 10
112.857
 20
106.17100000000001
 30
0.0
 11
112.857
 21
105.55200000000001
 31
0.0
  0
LINE
  5
426
  8
_________1
 62
     7
 10
112.857
 20
105.55200000000001
 30
0.0
 11
112.857
 21
105.46299999999999
 31
0.0
  0
LINE
  5
427
  8
_________1
 62
     7
 10
120.818
 20
112.45099999999999
 30
0.0
 11
120.818
 21
112.36199999999999
 31
0.0
  0
LINE
  5
428
  8
_________1
 62
     7
 10
120.818
 20
112.36199999999999
 30
0.0
 11
120.818
 21
112.185
 31
0.0
  0
LINE
  5
429
  8
_________1
 62
     7
 10
120.818
 20
112.185
 30
0.0
 11
120.818
 21
111.92
 31
0.0
  0
LINE
  5
42A
  8
_________1
 62
     7
 10
120.818
 20
111.92
 30
0.0
 11
120.818
 21
111.655
 31
0.0
  0
LINE
  5
42B
  8
_________1
 62
     7
 10
120.818
 20
111.655
 30
0.0
 11
120.818
 21
111.301
 31
0.0
  0
LINE
  5
42C
  8
_________1
 62
     7
 10
120.818
 20
111.301
 30
0.0
 11
120.818
 21
110.947
 31
0.0
  0
LINE
  5
42D
  8
_________1
 62
     7
 10
120.818
 20
110.947
 30
0.0
 11
120.818
 21
110.504
 31
0.0
  0
LINE
  5
42E
  8
_________1
 62
     7
 10
120.818
 20
110.504
 30
0.0
 11
120.818
 21
110.062
 31
0.0
  0
LINE
  5
42F
  8
_________1
 62
     7
 10
120.818
 20
110.062
 30
0.0
 11
120.818
 21
109.532
 31
0.0
  0
LINE
  5
430
  8
_________1
 62
     7
 10
120.818
 20
109.532
 30
0.0
 11
120.818
 21
108.913
 31
0.0
  0
LINE
  5
431
  8
_________1
 62
     7
 10
120.818
 20
108.913
 30
0.0
 11
120.818
 21
108.38200000000001
 31
0.0
  0
LINE
  5
432
  8
_________1
 62
     7
 10
120.818
 20
108.38200000000001
 30
0.0
 11
120.818
 21
107.76300000000001
 31
0.0
  0
LINE
  5
433
  8
_________1
 62
     7
 10
120.818
 20
107.76300000000001
 30
0.0
 11
120.818
 21
107.05500000000001
 31
0.0
  0
LINE
  5
434
  8
_________1
 62
     7
 10
120.818
 20
107.05500000000001
 30
0.0
 11
120.818
 21
106.43600000000001
 31
0.0
  0
LINE
  5
435
  8
_________1
 62
     7
 10
120.818
 20
106.43600000000001
 30
0.0
 11
120.818
 21
105.729
 31
0.0
  0
LINE
  5
436
  8
_________1
 62
     7
 10
120.818
 20
105.729
 30
0.0
 11
120.818
 21
105.46299999999999
 31
0.0
  0
LINE
  5
437
  8
_________1
 62
     7
 10
109.84999999999999
 20
105.46299999999999
 30
0.0
 11
109.84999999999999
 21
105.729
 31
0.0
  0
LINE
  5
438
  8
_________1
 62
     7
 10
109.84999999999999
 20
105.729
 30
0.0
 11
109.84999999999999
 21
106.081
 31
0.0
  0
LINE
  5
439
  8
_________1
 62
     7
 10
109.84999999999999
 20
106.081
 30
0.0
 11
109.84999999999999
 21
106.43600000000001
 31
0.0
  0
LINE
  5
43A
  8
_________1
 62
     7
 10
109.84999999999999
 20
106.43600000000001
 30
0.0
 11
109.84999999999999
 21
106.79000000000001
 31
0.0
  0
LINE
  5
43B
  8
_________1
 62
     7
 10
109.84999999999999
 20
106.79000000000001
 30
0.0
 11
109.84999999999999
 21
107.143
 31
0.0
  0
LINE
  5
43C
  8
_________1
 62
     7
 10
109.84999999999999
 20
107.143
 30
0.0
 11
109.84999999999999
 21
107.408
 31
0.0
  0
LINE
  5
43D
  8
_________1
 62
     7
 10
109.84999999999999
 20
107.408
 30
0.0
 11
109.84999999999999
 21
107.58499999999999
 31
0.0
  0
LINE
  5
43E
  8
_________1
 62
     7
 10
109.84999999999999
 20
107.58499999999999
 30
0.0
 11
109.84999999999999
 21
107.76300000000001
 31
0.0
  0
LINE
  5
43F
  8
_________1
 62
     7
 10
109.84999999999999
 20
107.76300000000001
 30
0.0
 11
109.84999999999999
 21
107.851
 31
0.0
  0
LINE
  5
440
  8
_________1
 62
     7
 10
104.239
 20
203.82900000000001
 30
0.0
 11
67.106099999999984
 21
203.82900000000001
 31
0.0
  0
LINE
  5
441
  8
_________1
 62
     7
 10
60.540999999999997
 20
196.505
 30
0.0
 11
59.630800000000001
 21
194.404
 31
0.0
  0
LINE
  5
442
  8
_________1
 62
     7
 10
59.630800000000001
 20
194.404
 30
0.0
 11
61.469499999999996
 21
195.76900000000001
 31
0.0
  0
LINE
  5
443
  8
_________1
 62
     7
 10
61.469499999999996
 20
195.76900000000001
 30
0.0
 11
60.540999999999997
 21
196.505
 31
0.0
  0
LINE
  5
444
  8
_________1
 62
     7
 10
59.630800000000001
 20
194.404
 30
0.0
 11
67.106099999999984
 21
203.82900000000001
 31
0.0
  0
LINE
  5
445
  8
_________1
 62
     7
 10
150.41
 20
97.377600000000015
 30
0.0
 11
151.27099999999999
 21
94.900599999999983
 31
0.0
  0
LINE
  5
446
  8
_________1
 62
     7
 10
134.828
 20
97.377600000000015
 30
0.0
 11
135.81100000000001
 21
94.549899999999994
 31
0.0
  0
LINE
  5
447
  8
_________1
 62
     7
 10
136.398
 20
97.377600000000015
 30
0.0
 11
137.38
 21
94.549899999999994
 31
0.0
  0
LINE
  5
448
  8
_________1
 62
     7
 10
137.96700000000001
 20
97.377600000000015
 30
0.0
 11
138.94999999999999
 21
94.549899999999994
 31
0.0
  0
LINE
  5
449
  8
_________1
 62
     7
 10
139.536
 20
97.377600000000015
 30
0.0
 11
140.51900000000001
 21
94.549899999999994
 31
0.0
  0
LINE
  5
44A
  8
_________1
 62
     7
 10
141.10599999999999
 20
97.377600000000015
 30
0.0
 11
142.08799999999999
 21
94.549899999999994
 31
0.0
  0
LINE
  5
44B
  8
_________1
 62
     7
 10
142.67500000000001
 20
97.377600000000015
 30
0.0
 11
143.65799999999999
 21
94.549899999999994
 31
0.0
  0
LINE
  5
44C
  8
_________1
 62
     7
 10
144.245
 20
97.377600000000015
 30
0.0
 11
145.22800000000001
 21
94.549899999999994
 31
0.0
  0
LINE
  5
44D
  8
_________1
 62
     7
 10
145.81399999999999
 20
97.377600000000015
 30
0.0
 11
146.797
 21
94.549899999999994
 31
0.0
  0
LINE
  5
44E
  8
_________1
 62
     7
 10
147.3829999999999
 20
97.377600000000015
 30
0.0
 11
148.36600000000001
 21
94.549899999999994
 31
0.0
  0
LINE
  5
44F
  8
_________1
 62
     7
 10
148.953
 20
97.377600000000015
 30
0.0
 11
149.93600000000001
 21
94.549899999999994
 31
0.0
  0
LINE
  5
450
  8
_________1
 62
     7
 10
149.42400000000001
 20
94.988799999999983
 30
0.0
 11
151.94
 21
95.963099999999997
 31
0.0
  0
LINE
  5
451
  8
_________1
 62
     7
 10
151.94
 20
95.963099999999997
 30
0.0
 11
149.42400000000001
 21
96.938699999999997
 31
0.0
  0
LINE
  5
452
  8
_________1
 62
     7
 10
134.44
 20
96.938699999999997
 30
0.0
 11
149.42400000000001
 21
96.938699999999997
 31
0.0
  0
LINE
  5
453
  8
_________1
 62
     7
 10
134.44
 20
94.988799999999983
 30
0.0
 11
149.42400000000001
 21
94.988799999999983
 31
0.0
  0
LINE
  5
454
  8
_________1
 62
     7
 10
150.41
 20
116.381
 30
0.0
 11
151.27099999999999
 21
113.904
 31
0.0
  0
LINE
  5
455
  8
_________1
 62
     7
 10
134.828
 20
116.381
 30
0.0
 11
135.81100000000001
 21
113.553
 31
0.0
  0
LINE
  5
456
  8
_________1
 62
     7
 10
136.398
 20
116.381
 30
0.0
 11
137.38
 21
113.553
 31
0.0
  0
LINE
  5
457
  8
_________1
 62
     7
 10
137.96700000000001
 20
116.381
 30
0.0
 11
138.94999999999999
 21
113.553
 31
0.0
  0
LINE
  5
458
  8
_________1
 62
     7
 10
139.536
 20
116.381
 30
0.0
 11
140.51900000000001
 21
113.553
 31
0.0
  0
LINE
  5
459
  8
_________1
 62
     7
 10
141.10599999999999
 20
116.381
 30
0.0
 11
142.08799999999999
 21
113.553
 31
0.0
  0
LINE
  5
45A
  8
_________1
 62
     7
 10
142.67500000000001
 20
116.381
 30
0.0
 11
143.65799999999999
 21
113.553
 31
0.0
  0
LINE
  5
45B
  8
_________1
 62
     7
 10
144.245
 20
116.381
 30
0.0
 11
145.22800000000001
 21
113.553
 31
0.0
  0
LINE
  5
45C
  8
_________1
 62
     7
 10
145.81399999999999
 20
116.381
 30
0.0
 11
146.797
 21
113.553
 31
0.0
  0
LINE
  5
45D
  8
_________1
 62
     7
 10
147.3829999999999
 20
116.381
 30
0.0
 11
148.36600000000001
 21
113.553
 31
0.0
  0
LINE
  5
45E
  8
_________1
 62
     7
 10
148.953
 20
116.381
 30
0.0
 11
149.93600000000001
 21
113.553
 31
0.0
  0
LINE
  5
45F
  8
_________1
 62
     7
 10
149.42400000000001
 20
113.992
 30
0.0
 11
151.94
 21
114.96599999999999
 31
0.0
  0
LINE
  5
460
  8
_________1
 62
     7
 10
151.94
 20
114.96599999999999
 30
0.0
 11
149.42400000000001
 21
115.94199999999999
 31
0.0
  0
LINE
  5
461
  8
_________1
 62
     7
 10
134.44
 20
115.94199999999999
 30
0.0
 11
149.42400000000001
 21
115.94199999999999
 31
0.0
  0
LINE
  5
462
  8
_________1
 62
     7
 10
134.44
 20
113.992
 30
0.0
 11
149.42400000000001
 21
113.992
 31
0.0
  0
LINE
  5
463
  8
_________1
 62
     7
 10
56.803100000000001
 20
203.07599999999999
 30
0.0
 11
59.280099999999997
 21
203.93600000000001
 31
0.0
  0
LINE
  5
464
  8
_________1
 62
     7
 10
56.803100000000001
 20
187.49299999999999
 30
0.0
 11
59.630800000000001
 21
188.476
 31
0.0
  0
LINE
  5
465
  8
_________1
 62
     7
 10
56.803100000000001
 20
189.0629999999999
 30
0.0
 11
59.630800000000001
 21
190.04499999999999
 31
0.0
  0
LINE
  5
466
  8
_________1
 62
     7
 10
56.803100000000001
 20
190.63200000000001
 30
0.0
 11
59.630800000000001
 21
191.61500000000001
 31
0.0
  0
LINE
  5
467
  8
_________1
 62
     7
 10
56.803100000000001
 20
192.202
 30
0.0
 11
59.630800000000001
 21
193.184
 31
0.0
  0
LINE
  5
468
  8
_________1
 62
     7
 10
56.803100000000001
 20
193.77099999999999
 30
0.0
 11
59.630800000000001
 21
194.75399999999999
 31
0.0
  0
LINE
  5
469
  8
_________1
 62
     7
 10
56.803100000000001
 20
195.34
 30
0.0
 11
59.630800000000001
 21
196.32300000000001
 31
0.0
  0
LINE
  5
46A
  8
_________1
 62
     7
 10
56.803100000000001
 20
196.91
 30
0.0
 11
59.630800000000001
 21
197.893
 31
0.0
  0
LINE
  5
46B
  8
_________1
 62
     7
 10
56.803100000000001
 20
198.47900000000001
 30
0.0
 11
59.630800000000001
 21
199.46199999999999
 31
0.0
  0
LINE
  5
46C
  8
_________1
 62
     7
 10
56.803100000000001
 20
200.04900000000001
 30
0.0
 11
59.630800000000001
 21
201.03100000000001
 31
0.0
  0
LINE
  5
46D
  8
_________1
 62
     7
 10
56.803100000000001
 20
201.61799999999999
 30
0.0
 11
59.630800000000001
 21
202.601
 31
0.0
  0
LINE
  5
46E
  8
_________1
 62
     7
 10
59.191899999999997
 20
202.09100000000001
 30
0.0
 11
58.217300000000002
 21
204.607
 31
0.0
  0
LINE
  5
46F
  8
_________1
 62
     7
 10
58.217300000000002
 20
204.607
 30
0.0
 11
57.24199999999999
 21
202.09100000000001
 31
0.0
  0
LINE
  5
470
  8
_________1
 62
     7
 10
57.24199999999999
 20
187.10599999999999
 30
0.0
 11
57.24199999999999
 21
202.09100000000001
 31
0.0
  0
LINE
  5
471
  8
_________1
 62
     7
 10
59.191899999999997
 20
187.10599999999999
 30
0.0
 11
59.191899999999997
 21
202.09100000000001
 31
0.0
  0
LINE
  5
472
  8
_________1
 62
     7
 10
62.944699999999997
 20
98.236800000000017
 30
0.0
 11
64.924300000000002
 21
101.66500000000001
 31
0.0
  0
LINE
  5
473
  8
_________1
 62
     7
 10
65.449299999999994
 20
102.575
 30
0.0
 11
66.838399999999993
 21
104.98
 31
0.0
  0
ARC
  5
474
  8
_________1
 62
     7
 10
63.655762000000003
 20
102.763419
 30
0.0
 40
1.679065
 50
309.19523400000003
 51
324.012452
  0
ARC
  5
475
  8
_________1
 62
     7
 10
62.689165000000003
 20
103.522959
 30
0.0
 40
2.9078680000000001
 50
323.0943069999999
 51
334.63963899999999
  0
ARC
  5
476
  8
_________1
 62
     7
 10
60.887631999999989
 20
104.44099199999999
 30
0.0
 40
4.929335
 50
333.96605199999999
 51
343.25808599999999
  0
ARC
  5
477
  8
_________1
 62
     7
 10
58.375224000000003
 20
105.26380399999999
 30
0.0
 40
7.572538999999999
 50
342.77227699999997
 51
352.48947900000002
  0
ARC
  5
478
  8
_________1
 62
     7
 10
57.180070999999998
 20
105.486046
 30
0.0
 40
8.786721
 50
352.07137400000011
 51
359.84724
  0
LINE
  5
479
  8
_________1
 62
     7
 10
53.48919999999999
 20
98.236800000000017
 30
0.0
 11
51.509700000000002
 21
101.66500000000001
 31
0.0
  0
LINE
  5
47A
  8
_________1
 62
     7
 10
50.9846
 20
102.575
 30
0.0
 11
49.59559999999999
 21
104.98
 31
0.0
  0
ARC
  5
47B
  8
_________1
 62
     7
 10
52.778498999999989
 20
102.764189
 30
0.0
 40
1.6798649999999999
 50
216.000193
 51
230.81285800000001
  0
ARC
  5
47C
  8
_________1
 62
     7
 10
53.74494399999999
 20
103.523352
 30
0.0
 40
2.9083259999999989
 50
205.36468300000001
 51
216.90863200000001
  0
ARC
  5
47D
  8
_________1
 62
     7
 10
55.544893999999992
 20
104.440395
 30
0.0
 40
4.9279380000000002
 50
196.73956899999999
 51
206.034175
  0
ARC
  5
47E
  8
_________1
 62
     7
 10
58.059351999999997
 20
105.26345600000001
 30
0.0
 40
7.5731719999999996
 50
187.50726
 51
197.22350800000001
  0
ARC
  5
47F
  8
_________1
 62
     7
 10
59.258338999999999
 20
105.486006
 30
0.0
 40
8.7911920000000006
 50
180.152447
 51
187.924331
  0
LINE
  5
480
  8
_________1
 62
     7
 10
62.944699999999997
 20
112.688
 30
0.0
 11
64.924300000000002
 21
109.259
 31
0.0
  0
LINE
  5
481
  8
_________1
 62
     7
 10
65.449299999999994
 20
108.34999999999999
 30
0.0
 11
66.838399999999993
 21
105.944
 31
0.0
  0
ARC
  5
482
  8
_________1
 62
     7
 10
63.660178000000002
 20
108.164665
 30
0.0
 40
1.6735349999999991
 50
35.984093000000001
 51
50.845424000000001
  0
ARC
  5
483
  8
_________1
 62
     7
 10
62.693505000000002
 20
107.40414800000001
 30
0.0
 40
2.902984
 50
25.356983
 51
36.919978
  0
ARC
  5
484
  8
_________1
 62
     7
 10
60.889248000000002
 20
106.48444000000001
 30
0.0
 40
4.927632
 50
16.741325
 51
26.036227
  0
ARC
  5
485
  8
_________1
 62
     7
 10
58.374803
 20
105.660963
 30
0.0
 40
7.5729789999999992
 50
7.5113750000000001
 51
17.227692999999999
  0
ARC
  5
486
  8
_________1
 62
     7
 10
57.181252000000001
 20
105.438968
 30
0.0
 40
8.7855410000000003
 50
0.154241
 51
7.929189
  0
LINE
  5
487
  8
_________1
 62
     7
 10
53.48919999999999
 20
112.688
 30
0.0
 11
51.509700000000002
 21
109.259
 31
0.0
  0
LINE
  5
488
  8
_________1
 62
     7
 10
50.9846
 20
108.34999999999999
 30
0.0
 11
49.59559999999999
 21
105.944
 31
0.0
  0
ARC
  5
489
  8
_________1
 62
     7
 10
58.217142000000003
 20
105.54907
 30
0.0
 40
4.577056999999999
 50
243.22269
 51
296.77732900000001
  0
ARC
  5
48A
  8
_________1
 62
     7
 10
58.217142000000003
 20
105.376858
 30
0.0
 40
4.576439999999999
 50
63.21877700000001
 51
116.781203
  0
ARC
  5
48B
  8
_________1
 62
     7
 10
58.217314000000002
 20
105.46262
 30
0.0
 40
7.000299
 50
214.84605199999999
 51
304.846023
  0
ARC
  5
48C
  8
_________1
 62
     7
 10
58.193432999999992
 20
105.484222
 30
0.0
 40
7.0316759999999991
 50
304.90514899999999
 51
325.11748499999999
  0
ARC
  5
48D
  8
_________1
 62
     7
 10
52.774081000000002
 20
108.163898
 30
0.0
 40
1.674331
 50
129.14648500000001
 51
144.00325900000001
  0
ARC
  5
48E
  8
_________1
 62
     7
 10
53.740602000000003
 20
107.403756
 30
0.0
 40
2.9034409999999991
 50
143.07708299999999
 51
154.63869500000001
  0
ARC
  5
48F
  8
_________1
 62
     7
 10
55.543278000000001
 20
106.48503599999999
 30
0.0
 40
4.9262360000000003
 50
153.96354600000001
 51
163.261019
  0
ARC
  5
490
  8
_________1
 62
     7
 10
58.059772000000002
 20
105.66131
 30
0.0
 40
7.5736119999999989
 50
162.776522
 51
172.49188599999999
  0
ARC
  5
491
  8
_________1
 62
     7
 10
59.257156999999992
 20
105.439007
 30
0.0
 40
8.7900100000000005
 50
172.075107
 51
179.84607299999999
  0
ARC
  5
492
  8
_________1
 62
     7
 10
58.150585
 20
105.089918
 30
0.0
 40
7.2723909999999998
 50
36.959038
 51
122.73944299999999
  0
ARC
  5
493
  8
_________1
 62
     7
 10
58.223787000000002
 20
105.453875
 30
0.0
 40
7.0106060000000001
 50
124.851812
 51
145.12553399999999
  0
ARC
  5
494
  8
_________1
 62
     7
 10
58.217312
 20
105.462616
 30
0.0
 40
14.505668999999999
 50
0.00001
 51
89.999980000000008
  0
ARC
  5
495
  8
_________1
 62
     7
 10
58.216971999999998
 20
105.462272
 30
0.0
 40
14.506012999999999
 50
89.998638999999983
 51
179.99860899999999
  0
ARC
  5
496
  8
_________1
 62
     7
 10
58.217312
 20
105.462616
 30
0.0
 40
14.506353000000001
 50
179.99996999999999
 51
270.00002000000001
  0
ARC
  5
497
  8
_________1
 62
     7
 10
58.216966999999997
 20
105.462277
 30
0.0
 40
14.506012999999999
 50
270.00138099999998
 51
0.001351
  0
ARC
  5
498
  8
_________1
 62
     7
 10
50.453955999999991
 20
105.462619
 30
0.0
 40
0.9842770000000001
 50
150.70403300000001
 51
209.29596699999999
  0
LINE
  5
499
  8
_________1
 62
     7
 10
62.110300000000002
 20
113.169
 30
0.0
 11
54.323599999999999
 21
113.169
 31
0.0
  0
ARC
  5
49A
  8
_________1
 62
     7
 10
54.334761999999998
 20
112.18647300000001
 30
0.0
 40
0.9829360000000001
 50
90.648168999999996
 51
149.33965599999999
  0
ARC
  5
49B
  8
_________1
 62
     7
 10
62.099477
 20
112.186992
 30
0.0
 40
0.9824129999999998
 50
30.64318500000001
 51
89.368950999999996
  0
ARC
  5
49C
  8
_________1
 62
     7
 10
65.999871999999996
 20
105.46396
 30
0.0
 40
0.9673519999999999
 50
330.048337
 51
359.92054000000002
  0
ARC
  5
49D
  8
_________1
 62
     7
 10
65.997095999999999
 20
105.460532
 30
0.0
 40
0.9701290000000001
 50
0.123218
 51
29.90790500000001
  0
LINE
  5
49E
  8
_________1
 62
     7
 10
54.323599999999999
 20
97.755200000000002
 30
0.0
 11
62.110300000000002
 21
97.755200000000002
 31
0.0
  0
ARC
  5
49F
  8
_________1
 62
     7
 10
54.334654
 20
98.737888999999996
 30
0.0
 40
0.982748
 50
210.65418399999999
 51
269.35799100000003
  0
ARC
  5
4A0
  8
_________1
 62
     7
 10
62.099171999999989
 20
98.738084000000015
 30
0.0
 40
0.9829450000000001
 50
270.648484
 51
329.339381
  0
LINE
  5
4A1
  8
_________1
 62
     7
 10
64.717200000000005
 20
101.462
 30
0.0
 11
51.717100000000002
 21
101.462
 31
0.0
  0
LINE
  5
4A2
  8
_________1
 62
     7
 10
62.467199999999991
 20
109.462
 30
0.0
 11
62.467199999999991
 21
101.462
 31
0.0
  0
LINE
  5
4A3
  8
_________1
 62
     7
 10
53.967100000000002
 20
109.462
 30
0.0
 11
53.967100000000002
 21
101.462
 31
0.0
  0
LINE
  5
4A4
  8
_________1
  6
AIGENLINE001
 62
     7
 10
58.217300000000002
 20
124.47199999999999
 30
0.0
 11
58.217300000000002
 21
86.019400000000005
 31
0.0
  0
LINE
  5
4A5
  8
_________1
  6
AIGENLINE001
 62
     7
 10
38.998699999999999
 20
105.46299999999999
 30
0.0
 11
77.096199999999996
 21
105.46299999999999
 31
0.0
  0
LINE
  5
4A6
  8
_________1
 62
     7
 10
64.717200000000005
 20
109.462
 30
0.0
 11
51.717100000000002
 21
109.462
 31
0.0
  0
ARC
  5
4A7
  8
_________1
 62
     7
 10
58.217224999999992
 20
105.46270199999999
 30
0.0
 40
16.249846000000002
 50
359.999706
 51
89.999676000000008
  0
ARC
  5
4A8
  8
_________1
 62
     7
 10
58.217058999999999
 20
105.46235799999999
 30
0.0
 40
16.25019
 50
89.999088999999984
 51
179.99905899999999
  0
ARC
  5
4A9
  8
_________1
 62
     7
 10
58.217224999999992
 20
105.46270199999999
 30
0.0
 40
16.250357000000001
 50
180.000314
 51
270.00032399999998
  0
ARC
  5
4AA
  8
_________1
 62
     7
 10
58.217053
 20
105.462363
 30
0.0
 40
16.250018000000001
 50
270.00093099999998
 51
0.000901
  0
LINE
  5
4AB
  8
_________2
 62
     7
 10
136.547
 20
258.911
 30
0.0
 11
136.547
 21
237.911
 31
0.0
  0
LINE
  5
4AC
  8
_________2
 62
     7
 10
161.7879999999999
 20
258.911
 30
0.0
 11
161.7879999999999
 21
237.911
 31
0.0
  0
TEXT
  5
4AD
  8
_________2
 62
     7
 10
169.51633466666661
 20
240.06100000000001
 30
0.0
 40
3.3734599999999988
  1
クロム
 41
0.5
 72
     1
 11
172.44
 21
240.06100000000001
 31
0.0
  0
TEXT
  5
4AE
  8
_________2
 62
     7
 10
164.5685933333333
 20
247.06100000000001
 30
0.0
 40
3.3734599999999988
  1
ポリッシュブラス
 41
0.5
 72
     1
 11
172.44
 21
247.06100000000001
 31
0.0
  0
TEXT
  5
4AF
  8
_________2
 62
     7
 10
169.6287833333333
 20
254.06100000000001
 30
0.0
 40
3.3734599999999988
  1
仕上色
 41
0.5
 72
     1
 11
172.44
 21
254.06100000000001
 31
0.0
  0
TEXT
  5
4B0
  8
_________2
 62
     7
 10
140.58578916666659
 20
240.06100000000001
 30
0.0
 40
3.3734599999999988
  1
HR01594R-CH
 41
0.5
 72
     1
 11
149.16
 21
240.06100000000001
 31
0.0
  0
TEXT
  5
4B1
  8
_________2
 62
     7
 10
140.58578916666659
 20
247.06100000000001
 30
0.0
 40
3.3734599999999988
  1
HR01594R-PB
 41
0.5
 72
     1
 11
149.16
 21
247.06100000000001
 31
0.0
  0
TEXT
  5
4B2
  8
_________2
 62
     7
 10
147.36082133333329
 20
254.06100000000001
 30
0.0
 40
3.3734599999999988
  1
品番
 41
0.5
 72
     1
 11
149.16
 21
254.06100000000001
 31
0.0
  0
LINE
  5
4B3
  8
_________2
 62
     7
 10
136.547
 20
237.911
 30
0.0
 11
183.55099999999999
 21
237.911
 31
0.0
  0
LINE
  5
4B4
  8
_________2
 62
     7
 10
136.547
 20
244.911
 30
0.0
 11
183.55099999999999
 21
244.911
 31
0.0
  0
LINE
  5
4B5
  8
_________2
 62
     7
 10
136.547
 20
251.911
 30
0.0
 11
183.55099999999999
 21
251.911
 31
0.0
  0
LINE
  5
4B6
  8
_________2
 62
     7
 10
205.30099999999999
 20
127.411
 30
0.0
 11
183.55099999999999
 21
127.411
 31
0.0
  0
LINE
  5
4B7
  8
_________2
 62
     7
 10
100.3
 20
-4.0910799999999998
 30
0.0
 11
100.3
 21
-21.071400000000001
 31
0.0
  0
LINE
  5
4B8
  8
_________2
 62
     7
 10
100.3
 20
275.93099999999998
 30
0.0
 11
100.3
 21
258.911
 31
0.0
  0
LINE
  5
4B9
  8
_________2
 62
     7
 10
17.049499999999998
 20
127.411
 30
0.0
 11
-4.7008599999999987
 21
127.411
 31
0.0
  0
LINE
  5
4BA
  8
_________2
 62
     7
 10
76.741
 20
29.8047
 30
0.0
 11
74.554699999999997
 21
29.8047
 31
0.0
  0
LINE
  5
4BB
  8
_________2
 62
     7
 10
77.233699999999999
 20
29.8047
 30
0.0
 11
76.981499999999997
 21
29.8047
 31
0.0
  0
LINE
  5
4BC
  8
_________2
 62
     7
 10
77.726299999999995
 20
29.8047
 30
0.0
 11
80.651200000000003
 21
29.8047
 31
0.0
  0
LINE
  5
4BD
  8
_________2
 62
     7
 10
77.233699999999999
 20
29.8047
 30
0.0
 11
77.485900000000001
 21
29.8047
 31
0.0
  0
LINE
  5
4BE
  8
_________2
 62
     7
 10
70.837500000000006
 20
29.8047
 30
0.0
 11
68.650499999999994
 21
29.8047
 31
0.0
  0
LINE
  5
4BF
  8
_________2
 62
     7
 10
71.329400000000007
 20
29.8047
 30
0.0
 11
71.0779
 21
29.8047
 31
0.0
  0
LINE
  5
4C0
  8
_________2
 62
     7
 10
71.329400000000007
 20
30.2974
 30
0.0
 11
71.329400000000007
 21
32.484400000000001
 31
0.0
  0
LINE
  5
4C1
  8
_________2
 62
     7
 10
71.329400000000007
 20
29.8047
 30
0.0
 11
71.329400000000007
 21
30.056899999999999
 31
0.0
  0
LINE
  5
4C2
  8
_________2
 62
     7
 10
71.822100000000006
 20
29.8047
 30
0.0
 11
74.009
 21
29.8047
 31
0.0
  0
LINE
  5
4C3
  8
_________2
 62
     7
 10
71.329400000000007
 20
29.8047
 30
0.0
 11
71.581599999999995
 21
29.8047
 31
0.0
  0
LINE
  5
4C4
  8
_________2
 62
     7
 10
71.329400000000007
 20
29.312799999999999
 30
0.0
 11
71.329400000000007
 21
27.125800000000002
 31
0.0
  0
LINE
  5
4C5
  8
_________2
 62
     7
 10
71.329400000000007
 20
29.8047
 30
0.0
 11
71.329400000000007
 21
29.5532
 31
0.0
  0
LINE
  5
4C6
  8
_________2
 62
     7
 10
75.040499999999994
 20
28.5852
 30
0.0
 11
80.218500000000006
 21
27.720400000000001
 31
0.0
  0
LINE
  5
4C7
  8
_________2
 62
     7
 10
75.040499999999994
 20
31.0243
 30
0.0
 11
80.218500000000006
 21
31.889700000000001
 31
0.0
  0
LINE
  5
4C8
  8
_________2
 62
     7
 10
80.218500000000006
 20
27.720400000000001
 30
0.0
 11
80.218500000000006
 21
31.889700000000001
 31
0.0
  0
LINE
  5
4C9
  8
_________2
 62
     7
 10
75.040499999999994
 20
28.5852
 30
0.0
 11
75.040499999999994
 21
31.0243
 31
0.0
  0
ARC
  5
4CA
  8
_________2
 62
     7
 10
71.283190000000005
 20
29.757787
 30
0.0
 40
1.2673709999999989
 50
2.1232950000000002
 51
87.909056000000007
  0
ARC
  5
4CB
  8
_________2
 62
     7
 10
71.375959999999992
 20
29.758213000000001
 30
0.0
 40
1.2669559999999991
 50
92.104701000000006
 51
177.89526900000001
  0
ARC
  5
4CC
  8
_________2
 62
     7
 10
71.376357999999996
 20
29.851671
 30
0.0
 40
1.2673680000000001
 50
182.12203600000001
 51
267.877993
  0
ARC
  5
4CD
  8
_________2
 62
     7
 10
71.282541000000009
 20
29.852347999999999
 30
0.0
 40
1.2680439999999991
 50
272.11916400000001
 51
357.84848499999998
  0
ARC
  5
4CE
  8
_________2
 62
     7
 10
71.329430000000002
 20
29.804742999999998
 30
0.0
 40
2.0849849999999992
 50
0.00001
 51
89.999980000000008
  0
ARC
  5
4CF
  8
_________2
 62
     7
 10
71.409075999999999
 20
29.725812999999999
 30
0.0
 40
2.165379999999999
 50
92.107876000000005
 51
177.91103200000001
  0
ARC
  5
4D0
  8
_________2
 62
     7
 10
71.409439000000006
 20
29.884751999999999
 30
0.0
 40
2.1657829999999998
 50
182.117133
 51
267.88289700000001
  0
ARC
  5
4D1
  8
_________2
 62
     7
 10
71.249459000000002
 20
29.885429999999999
 30
0.0
 40
2.1664590000000001
 50
272.11546800000002
 51
357.86560400000002
  0
TEXT
  5
4D2
  8
_________2
 62
     7
 10
104.605
 20
1.6794899999999999
 30
0.0
 40
3.0923400000000001
  1
図番
 41
0.5
  0
LINE
  5
4D3
  8
_________2
 62
     7
 10
103.55
 20
5.9087199999999989
 30
0.0
 11
183.55099999999999
 21
5.9087199999999989
 31
0.0
  0
TEXT
  5
4D4
  8
_________2
 62
     7
 10
104.605
 20
11.6793
 30
0.0
 40
3.0923400000000001
  1
品番
 41
0.5
  0
TEXT
  5
4D5
  8
_________2
 62
     7
 10
104.605
 20
31.818100000000001
 30
0.0
 40
3.0923400000000001
  1
名称
 41
0.5
  0
TEXT
  5
4D6
  8
_________2
 62
     7
 10
91.845058333333341
 20
26.821999999999999
 30
0.0
 40
3.6545800000000002
  1
mm
 41
0.5
 72
     1
 11
93.367800000000003
 21
26.821999999999999
 31
0.0
  0
TEXT
  5
4D7
  8
_________2
 62
     7
 10
85.643199999999993
 20
31.818100000000001
 30
0.0
 40
3.0923400000000001
  1
単位
 41
0.5
  0
TEXT
  5
4D8
  8
_________2
 62
     7
 10
85.643199999999993
 20
19.410799999999998
 30
0.0
 40
3.0923400000000001
  1
尺度
 41
0.5
  0
TEXT
  5
4D9
  8
_________2
 62
     7
 10
90.548758666666686
 20
13.2179
 30
0.0
 40
3.6545800000000002
  1
1 ： 2
 41
0.5
 72
     1
 11
93.959699999999998
 21
13.2179
 31
0.0
  0
TEXT
  5
4DA
  8
_________2
 62
     7
 10
136.4985375
 20
9.1078600000000005
 30
0.0
 40
3.9357000000000002
  1
HR01594R
 41
0.5
 72
     1
 11
143.55000000000001
 21
9.1078600000000005
 31
0.0
  0
TEXT
  5
4DB
  8
_________2
 62
     7
 10
136.4985375
 20
-0.8926299999999999
 30
0.0
 40
3.9357000000000002
  1
HR01594R
 41
0.5
 72
     1
 11
143.55000000000001
 21
-0.8926299999999999
 31
0.0
  0
TEXT
  5
4DC
  8
_________2
 62
     7
 10
109.179
 20
24.2257
 30
0.0
 40
3.9357000000000002
  1
シャワーホルダー
 41
0.5
  0
TEXT
  5
4DD
  8
_________2
 62
     7
 10
39.303480999999998
 20
13.603
 30
0.0
 40
3.6545800000000002
  1
中村
 41
0.5
 72
     1
 11
41.313499999999998
 21
13.603
 31
0.0
  0
TEXT
  5
4DE
  8
_________2
 62
     7
 10
20.851300333333331
 20
13.603
 30
0.0
 40
3.6545800000000002
  1
福田
 41
0.5
 72
     1
 11
22.7395
 21
13.603
 31
0.0
  0
TEXT
  5
4DF
  8
_________2
 62
     7
 10
67.785799999999995
 20
13.2179
 30
0.0
 40
3.6545800000000002
  1
17.04.21
 41
0.5
  0
TEXT
  5
4E0
  8
_________2
 62
     7
 10
66.593100000000007
 20
19.410799999999998
 30
0.0
 40
3.0923400000000001
  1
日付
 41
0.5
  0
TEXT
  5
4E1
  8
_________2
 62
     7
 10
29.639399999999998
 20
19.410799999999998
 30
0.0
 40
3.0923400000000001
  1
検図
 41
0.5
  0
TEXT
  5
4E2
  8
_________2
 62
     7
 10
18.021100000000001
 20
5.21143
 30
0.0
 40
3.0923400000000001
  1
備考
 41
0.5
  0
TEXT
  5
4E3
  8
_________2
 62
     7
 10
18.021100000000001
 20
19.410799999999998
 30
0.0
 40
3.0923400000000001
  1
製図
 41
0.5
  0
TEXT
  5
4E4
  8
_________2
 62
     7
 10
23.788465333333338
 20
27.936800000000002
 30
0.0
 40
4.4979399999999989
  1
セラトレーディング株式会社
 41
0.5
 72
     1
 11
41.180500000000002
 21
27.936800000000002
 31
0.0
  0
LINE
  5
4E5
  8
_________2
 62
     7
 10
183.55099999999999
 20
-4.0910799999999998
 30
0.0
 11
17.049499999999998
 21
-4.0910799999999998
 31
0.0
  0
LINE
  5
4E6
  8
_________2
 62
     7
 10
17.049499999999998
 20
-4.0910799999999998
 30
0.0
 11
17.049499999999998
 21
258.911
 31
0.0
  0
LINE
  5
4E7
  8
_________2
 62
     7
 10
17.049499999999998
 20
258.911
 30
0.0
 11
183.55099999999999
 21
258.911
 31
0.0
  0
LINE
  5
4E8
  8
_________2
 62
     7
 10
183.55099999999999
 20
258.911
 30
0.0
 11
183.55099999999999
 21
-4.0910799999999998
 31
0.0
  0
LINE
  5
4E9
  8
_________2
 62
     7
 10
65.549899999999994
 20
9.4089600000000004
 30
0.0
 11
65.549899999999994
 21
35.908799999999999
 31
0.0
  0
LINE
  5
4EA
  8
_________2
 62
     7
 10
84.549700000000016
 20
9.4089600000000004
 30
0.0
 11
84.549700000000016
 21
35.908799999999999
 31
0.0
  0
LINE
  5
4EB
  8
_________2
 62
     7
 10
103.55
 20
-4.0910799999999998
 30
0.0
 11
103.55
 21
35.908799999999999
 31
0.0
  0
LINE
  5
4EC
  8
_________2
 62
     7
 10
28.549299999999999
 20
9.4089600000000004
 30
0.0
 11
28.549299999999999
 21
23.409199999999998
 31
0.0
  0
LINE
  5
4ED
  8
_________2
 62
     7
 10
17.049499999999998
 20
9.4089600000000004
 30
0.0
 11
103.55
 21
9.4089600000000004
 31
0.0
  0
LINE
  5
4EE
  8
_________2
 62
     7
 10
17.049499999999998
 20
23.409199999999998
 30
0.0
 11
103.55
 21
23.409199999999998
 31
0.0
  0
LINE
  5
4EF
  8
_________2
 62
     7
 10
103.55
 20
15.9085
 30
0.0
 11
183.55099999999999
 21
15.9085
 31
0.0
  0
LINE
  5
4F0
  8
_________2
 62
     7
 10
17.049499999999998
 20
35.908799999999999
 30
0.0
 11
183.55099999999999
 21
35.908799999999999
 31
0.0
  0
ENDSEC
  0
EOF
