  0
SECTION
  2
HEADER
  9
$ACADVER
  1
AC1009
  9
$INSBASE
 10
0.0
 20
0.0
 30
0.0
  9
$EXTMIN
 10
-4.7008599999999987
 20
-21.070699999999992
 30
0.0
  9
$EXTMAX
 10
205.30099999999999
 20
275.93099999999993
 30
0.0
  9
$LIMMIN
 10
0.0
 20
0.0
  9
$LIMMAX
 10
12.0
 20
9.0
  9
$ORTHOMODE
 70
     0
  9
$REGENMODE
 70
     1
  9
$FILLMODE
 70
     1
  9
$QTEXTMODE
 70
     0
  9
$MIRRTEXT
 70
     1
  9
$DRAGMODE
 70
     2
  9
$LTSCALE
 40
1.0
  9
$OSMODE
 70
    37
  9
$ATTMODE
 70
     1
  9
$TEXTSIZE
 40
0.0
  9
$TRACEWID
 40
0.05
  9
$TEXTSTYLE
  7
STANDARD
  9
$CLAYER
  8
0
  9
$CELTYPE
  6
CONTINUOUS
  9
$CECOLOR
 62
   256
  9
$DIMSCALE
 40
1.0
  9
$DIMASZ
 40
0.18
  9
$DIMEXO
 40
0.0625
  9
$DIMDLI
 40
0.38
  9
$DIMRND
 40
0.0
  9
$DIMDLE
 40
0.0
  9
$DIMEXE
 40
0.18
  9
$DIMTP
 40
0.0
  9
$DIMTM
 40
0.0
  9
$DIMTXT
 40
0.18
  9
$DIMCEN
 40
0.09
  9
$DIMTSZ
 40
0.0
  9
$DIMTOL
 70
     0
  9
$DIMLIM
 70
     0
  9
$DIMTIH
 70
     1
  9
$DIMTOH
 70
     1
  9
$DIMSE1
 70
     0
  9
$DIMSE2
 70
     0
  9
$DIMTAD
 70
     0
  9
$DIMZIN
 70
     0
  9
$DIMBLK
  1

  9
$DIMASO
 70
     1
  9
$DIMSHO
 70
     1
  9
$DIMPOST
  1

  9
$DIMAPOST
  1

  9
$DIMALT
 70
     0
  9
$DIMALTD
 70
     2
  9
$DIMALTF
 40
25.399999999999999
  9
$DIMLFAC
 40
1.0
  9
$DIMTOFL
 70
     0
  9
$DIMTVP
 40
0.0
  9
$DIMTIX
 70
     0
  9
$DIMSOXD
 70
     0
  9
$DIMSAH
 70
     0
  9
$DIMBLK1
  1

  9
$DIMBLK2
  1

  9
$DIMSTYLE
  2
STANDARD
  9
$DIMCLRD
 70
     0
  9
$DIMCLRE
 70
     0
  9
$DIMCLRT
 70
     0
  9
$DIMTFAC
 40
1.0
  9
$DIMGAP
 40
0.09
  9
$LUNITS
 70
     2
  9
$LUPREC
 70
     4
  9
$SKETCHINC
 40
0.1
  9
$FILLETRAD
 40
0.0
  9
$AUNITS
 70
     0
  9
$AUPREC
 70
     0
  9
$MENU
  1
.
  9
$ELEVATION
 40
0.0
  9
$PELEVATION
 40
0.0
  9
$THICKNESS
 40
0.0
  9
$LIMCHECK
 70
     0
  9
$BLIPMODE
 70
     0
  9
$CHAMFERA
 40
0.0
  9
$CHAMFERB
 40
0.0
  9
$SKPOLY
 70
     0
  9
$TDCREATE
 40
2444972.375
  9
$TDUPDATE
 40
2456676.2486768062
  9
$TDINDWG
 40
0.0000096875
  9
$TDUSRTIMER
 40
0.0000096875
  9
$USRTIMER
 70
     1
  9
$ANGBASE
 50
0.0
  9
$ANGDIR
 70
     0
  9
$PDMODE
 70
     0
  9
$PDSIZE
 40
0.0
  9
$PLINEWID
 40
0.0
  9
$COORDS
 70
     1
  9
$SPLFRAME
 70
     0
  9
$SPLINETYPE
 70
     6
  9
$SPLINESEGS
 70
     8
  9
$ATTDIA
 70
     0
  9
$ATTREQ
 70
     1
  9
$HANDLING
 70
     1
  9
$HANDSEED
  5
582
  9
$SURFTAB1
 70
     6
  9
$SURFTAB2
 70
     6
  9
$SURFTYPE
 70
     6
  9
$SURFU
 70
     6
  9
$SURFV
 70
     6
  9
$UCSNAME
  2

  9
$UCSORG
 10
0.0
 20
0.0
 30
0.0
  9
$UCSXDIR
 10
1.0
 20
0.0
 30
0.0
  9
$UCSYDIR
 10
0.0
 20
1.0
 30
0.0
  9
$PUCSNAME
  2

  9
$PUCSORG
 10
0.0
 20
0.0
 30
0.0
  9
$PUCSXDIR
 10
1.0
 20
0.0
 30
0.0
  9
$PUCSYDIR
 10
0.0
 20
1.0
 30
0.0
  9
$USERI1
 70
     0
  9
$USERI2
 70
     0
  9
$USERI3
 70
     0
  9
$USERI4
 70
     0
  9
$USERI5
 70
     0
  9
$USERR1
 40
0.0
  9
$USERR2
 40
0.0
  9
$USERR3
 40
0.0
  9
$USERR4
 40
0.0
  9
$USERR5
 40
0.0
  9
$WORLDVIEW
 70
     1
  9
$SHADEDGE
 70
     3
  9
$SHADEDIF
 70
    70
  9
$TILEMODE
 70
     1
  9
$MAXACTVP
 70
    48
  9
$PLIMCHECK
 70
     0
  9
$PEXTMIN
 10
1.0000000000000000E+020
 20
1.0000000000000000E+020
 30
1.0000000000000000E+020
  9
$PEXTMAX
 10
-1.0000000000000000E+020
 20
-1.0000000000000000E+020
 30
-1.0000000000000000E+020
  9
$PLIMMIN
 10
0.0
 20
0.0
  9
$PLIMMAX
 10
12.0
 20
9.0
  9
$UNITMODE
 70
     0
  9
$VISRETAIN
 70
     1
  9
$PLINEGEN
 70
     0
  9
$PSLTSCALE
 70
     1
  0
ENDSEC
  0
SECTION
  2
TABLES
  0
TABLE
  2
VPORT
 70
     2
  0
VPORT
  2
*ACTIVE
 70
     0
 10
0.0
 20
0.0
 11
1.0
 21
1.0
 12
202.0063740365116
 22
127.4301499999999
 13
0.0
 23
0.0
 14
1.0
 24
1.0
 15
0.0
 25
0.0
 16
0.0
 26
0.0
 36
1.0
 17
0.0
 27
0.0
 37
0.0
 40
299.45288321870692
 41
2.2894736842105261
 42
50.0
 43
0.0
 44
0.0
 50
0.0
 51
0.0
 71
     0
 72
   100
 73
     1
 74
     1
 75
     0
 76
     0
 77
     0
 78
     0
  0
ENDTAB
  0
TABLE
  2
LTYPE
 70
     2
  0
LTYPE
  2
CONTINUOUS
 70
     0
  3
Solid line
 72
    65
 73
     0
 40
0.0
  0
LTYPE
  2
AIGENLINE001
 70
     0
  3
generate AI->DXF Converter
 72
    65
 73
     4
 40
5.8561449999999988
 49
3.5278
 49
-0.776115
 49
0.776115
 49
-0.776115
  0
ENDTAB
  0
TABLE
  2
LAYER
 70
     2
  0
LAYER
  2
0
 70
     0
 62
     7
  6
CONTINUOUS
  0
LAYER
  2
_________2
 70
     0
 62
     7
  6
CONTINUOUS
  0
ENDTAB
  0
TABLE
  2
STYLE
 70
     1
  0
STYLE
  2
STANDARD
 70
     0
 40
0.0
 41
0.0
 50
0.0
 71
     0
 42
0.0
  3
TXT
  4
EXTFONT.SHX
  0
ENDTAB
  0
TABLE
  2
VIEW
 70
     0
  0
ENDTAB
  0
TABLE
  2
UCS
 70
     0
  0
ENDTAB
  0
TABLE
  2
APPID
 70
     1
  0
APPID
  2
ACAD
 70
     0
  0
ENDTAB
  0
TABLE
  2
DIMSTYLE
 70
     1
  0
DIMSTYLE
  2
STANDARD
 70
     0
  3

  4

  5

  6

  7

 40
1.0
 41
0.18
 42
0.0625
 43
0.38
 44
0.18
 45
0.0
 46
0.0
 47
0.0
 48
0.0
140
0.18
141
0.09
142
0.0
143
25.399999999999999
144
1.0
145
0.0
146
1.0
147
0.09
 71
     0
 72
     0
 73
     1
 74
     1
 75
     0
 76
     0
 77
     0
 78
     0
170
     0
171
     2
172
     0
173
     0
174
     0
175
     0
176
     0
177
     0
178
     0
  0
ENDTAB
  0
ENDSEC
  0
SECTION
  2
BLOCKS
  0
BLOCK
  8
0
  2
$MODEL_SPACE
 70
     0
 10
0.0
 20
0.0
 30
0.0
  3
$MODEL_SPACE
  1

  0
ENDBLK
  5
1A
  8
0
  0
BLOCK
 67
     1
  8
0
  2
$PAPER_SPACE
 70
     0
 10
0.0
 20
0.0
 30
0.0
  3
$PAPER_SPACE
  1

  0
ENDBLK
  5
17
 67
     1
  8
0
  0
ENDSEC
  0
SECTION
  2
ENTITIES
  0
TEXT
  5
22
  8
0
 62
     7
 10
77.967500000000001
 20
145.82900000000001
 30
0.0
 40
2.7831000000000001
  1
%%c26
 41
0.5
  0
TEXT
  5
23
  8
0
 62
     7
 10
104.51000000000001
 20
137.95083
 30
0.0
 40
3.0923400000000001
  1
100
 50
90.0
 41
0.5
 72
     1
 11
104.51000000000001
 21
139.49700000000001
 31
0.0
  0
TEXT
  5
24
  8
0
 62
     7
 10
99.251800000000003
 20
134.33000000000001
 30
0.0
 40
3.0923400000000001
  1
max.45
 50
90.0
 41
0.5
  0
TEXT
  5
25
  8
0
 62
     7
 10
112.3609999999999
 20
157.50852499999991
 30
0.0
 40
3.0923400000000001
  1
93
 50
90.0
 41
0.5
 72
     1
 11
112.3609999999999
 21
158.797
 31
0.0
  0
TEXT
  5
26
  8
0
 62
     7
 10
122.9379999999999
 20
153.68252499999991
 30
0.0
 40
3.0923400000000001
  1
55
 50
90.0
 41
0.5
 72
     1
 11
122.9379999999999
 21
154.971
 31
0.0
  0
TEXT
  5
27
  8
0
 62
     7
 10
117.649
 20
154.5423725
 30
0.0
 40
3.0923400000000001
  1
60
 50
90.0
 41
0.5
 72
     1
 11
117.649
 21
155.702
 31
0.0
  0
TEXT
  5
28
  8
0
 62
     7
 10
136.87100000000001
 20
151.167
 30
0.0
 40
2.7831000000000001
  1
26%%d
 41
0.5
  0
TEXT
  5
29
  8
0
 62
     7
 10
145.57552499999991
 20
137.512
 30
0.0
 40
2.7831000000000001
  1
145
 41
0.5
 72
     1
 11
147.1989999999999
 21
137.512
 31
0.0
  0
TEXT
  5
2A
  8
0
 62
     7
 10
34.333199999999998
 20
116.193135
 30
0.0
 40
3.0923400000000001
  1
315
 50
90.0
 41
0.5
 72
     1
 11
34.333199999999998
 21
117.997
 31
0.0
  0
TEXT
  5
2B
  8
0
 62
     7
 10
60.532099999999993
 20
104.61199999999999
 30
0.0
 40
2.7831000000000001
  1
%%c5
 41
0.5
  0
TEXT
  5
2C
  8
0
 62
     7
 10
85.729982500000006
 20
48.6175
 30
0.0
 40
3.0923400000000001
  1
190
 41
0.5
 72
     1
 11
87.405000000000001
 21
48.6175
 31
0.0
  0
TEXT
  5
2D
  8
0
 62
     7
 10
56.494599999999998
 20
66.680922499999994
 30
0.0
 40
3.0923400000000001
  1
max.50
 50
90.0
 41
0.5
 72
     1
 11
56.494599999999998
 21
70.417500000000004
 31
0.0
  0
TEXT
  5
2E
  8
0
 62
     7
 10
52.800699999999999
 20
53.509599999999999
 30
0.0
 40
3.0923400000000001
  1
G1 1/4
 41
0.5
  0
TEXT
  5
2F
  8
0
 62
     7
 10
65.823239999999984
 20
79.528099999999995
 30
0.0
 40
3.0923400000000001
  1
%%c63
 41
0.5
 72
     1
 11
67.884799999999984
 21
79.528099999999995
 31
0.0
  0
TEXT
  5
30
  8
0
 62
     7
 10
91.139200000000002
 20
63.474550000000001
 30
0.0
 40
3.0923400000000001
  1
%%c5
 50
90.0
 41
0.5
 72
     2
 11
91.139200000000002
 21
66.051500000000004
 31
0.0
  0
TEXT
  5
31
  8
0
 62
     7
 10
150.32519999999991
 20
207.739
 30
0.0
 40
2.7831000000000001
  1
%%c35
 41
0.5
 72
     2
 11
154.03599999999989
 21
207.739
 31
0.0
  0
TEXT
  5
32
  8
0
 62
     7
 10
138.00289000000001
 20
201.82199999999989
 30
0.0
 40
2.7831000000000001
  1
水栓取付穴
 41
0.5
 72
     1
 11
141.99199999999999
 21
201.82199999999989
 31
0.0
  0
TEXT
  5
33
  8
0
 62
     7
 10
95.499200000000002
 20
217.31
 30
0.0
 40
2.7831000000000001
  1
水
 41
0.5
  0
TEXT
  5
34
  8
0
 62
     7
 10
40.140320000000003
 20
217.31
 30
0.0
 40
2.7831000000000001
  1
湯
 41
0.5
 72
     2
 11
41.439100000000003
 21
217.31
 31
0.0
  0
TEXT
  5
35
  8
0
 62
     7
 10
76.87445000000001
 20
228.434
 30
0.0
 40
2.7831000000000001
  1
100
 41
0.5
 72
     1
 11
78.266000000000005
 21
228.434
 31
0.0
  0
TEXT
  5
36
  8
0
 62
     7
 10
56.508249999999997
 20
228.434
 30
0.0
 40
2.7831000000000001
  1
100
 41
0.5
 72
     1
 11
57.899799999999992
 21
228.434
 31
0.0
  0
TEXT
  5
37
  8
0
 62
     7
 10
150.4614499999999
 20
225.41
 30
0.0
 40
2.7831000000000001
  1
100
 41
0.5
 72
     1
 11
151.85299999999989
 21
225.41
 31
0.0
  0
TEXT
  5
38
  8
0
 62
     7
 10
93.555569999999989
 20
121.8089999999999
 30
0.0
 40
2.7831000000000001
  1
G 1/2
 41
0.5
 72
     2
 11
99.028999999999996
 21
121.8089999999999
 31
0.0
  0
TEXT
  5
39
  8
0
 62
     7
 10
86.550299999999993
 20
173.73199999999991
 30
0.0
 40
2.7831000000000001
  1
%%c62
 41
0.5
 72
     1
 11
88.405699999999996
 21
173.73199999999991
 31
0.0
  0
TEXT
  5
3A
  8
0
 62
     7
 10
66.665962500000006
 20
173.73199999999991
 30
0.0
 40
2.7831000000000001
  1
%%c70
 41
0.5
 72
     1
 11
68.4054
 21
173.73199999999991
 31
0.0
  0
TEXT
  5
3B
  8
0
 62
     7
 10
130.09545
 20
225.41
 30
0.0
 40
2.7831000000000001
  1
100
 41
0.5
 72
     1
 11
131.48699999999991
 21
225.41
 31
0.0
  0
LINE
  5
3C
  8
0
 62
     7
 10
92.7744
 20
145.60299999999989
 30
0.0
 11
91.005700000000004
 21
145.12899999999999
 31
0.0
  0
LINE
  5
3D
  8
0
 62
     7
 10
91.005700000000004
 20
145.12899999999999
 30
0.0
 11
92.7744
 21
144.655
 31
0.0
  0
LINE
  5
3E
  8
0
 62
     7
 10
92.7744
 20
144.655
 30
0.0
 11
92.7744
 21
145.60299999999989
 31
0.0
  0
LINE
  5
3F
  8
0
 62
     7
 10
83.928600000000003
 20
144.66099999999989
 30
0.0
 11
85.696600000000004
 21
145.1339999999999
 31
0.0
  0
LINE
  5
40
  8
0
 62
     7
 10
85.696600000000004
 20
145.1339999999999
 30
0.0
 11
83.928600000000003
 21
145.608
 31
0.0
  0
LINE
  5
41
  8
0
 62
     7
 10
83.928600000000003
 20
145.608
 30
0.0
 11
83.928600000000003
 21
144.66099999999989
 31
0.0
  0
LINE
  5
42
  8
0
 62
     7
 10
77.967500000000001
 20
145.12899999999999
 30
0.0
 11
94.201000000000008
 21
145.12899999999999
 31
0.0
  0
ARC
  5
43
  8
0
  6
AIGENLINE001
 62
     7
 10
57.875729
 20
127.8496939999999
 30
0.0
 40
9.0298269999999992
 50
338.32894099999999
 51
359.98132599999991
  0
ARC
  5
44
  8
0
  6
AIGENLINE001
 62
     7
 10
59.326619999999998
 20
127.35494199999989
 30
0.0
 40
7.4991709999999996
 50
320.77598599999988
 51
337.74828100000002
  0
ARC
  5
45
  8
0
  6
AIGENLINE001
 62
     7
 10
60.547792999999999
 20
126.43434999999999
 30
0.0
 40
5.9713039999999991
 50
303.25057599999991
 51
320.20937700000002
  0
ARC
  5
46
  8
0
  6
AIGENLINE001
 62
     7
 10
61.240380999999999
 20
125.47083000000001
 30
0.0
 40
4.7860550000000002
 50
279.04076299999991
 51
302.64124500000003
  0
ARC
  5
47
  8
0
  6
AIGENLINE001
 62
     7
 10
61.355728999999997
 20
125.0692439999999
 30
0.0
 40
4.3716269999999993
 50
269.992118
 51
278.374798
  0
ARC
  5
48
  8
0
  6
AIGENLINE001
 62
     7
 10
61.363227999999999
 20
125.178883
 30
0.0
 40
4.4812739999999991
 50
238.31946400000001
 51
269.89643699999999
  0
ARC
  5
49
  8
0
  6
AIGENLINE001
 62
     7
 10
61.852895999999987
 20
126.07848199999999
 30
0.0
 40
5.5042710000000001
 50
220.58662699999999
 51
238.8998069999999
  0
ARC
  5
4A
  8
0
  6
AIGENLINE001
 62
     7
 10
62.904024
 20
127.06268300000001
 30
0.0
 40
6.9431310000000002
 50
202.879527
 51
221.1111809999999
  0
ARC
  5
4B
  8
0
  6
AIGENLINE001
 62
     7
 10
64.301978000000005
 20
127.73534099999991
 30
0.0
 40
8.4929679999999994
 50
182.34667999999999
 51
203.39373399999999
  0
ARC
  5
4C
  8
0
  6
AIGENLINE001
 62
     7
 10
65.141129000000006
 20
127.8460129999999
 30
0.0
 40
9.3362580000000008
 50
179.99544800000001
 51
182.81443599999989
  0
ARC
  5
4D
  8
0
  6
AIGENLINE001
 62
     7
 10
64.835763999999998
 20
127.8438169999999
 30
0.0
 40
9.0308939999999982
 50
158.33086499999999
 51
179.98136599999989
  0
ARC
  5
4E
  8
0
  6
AIGENLINE001
 62
     7
 10
63.384996999999991
 20
128.33819299999999
 30
0.0
 40
7.5004919999999986
 50
140.7790949999999
 51
157.74838099999991
  0
ARC
  5
4F
  8
0
  6
AIGENLINE001
 62
     7
 10
62.162606999999987
 20
129.259457
 30
0.0
 40
5.9712569999999987
 50
123.2521659999999
 51
140.210892
  0
ARC
  5
50
  8
0
  6
AIGENLINE001
 62
     7
 10
61.469933999999988
 20
130.22280000000001
 30
0.0
 40
4.7861079999999996
 50
99.04131000000001
 51
122.64121900000001
  0
ARC
  5
51
  8
0
  6
AIGENLINE001
 62
     7
 10
61.354506000000008
 20
130.624763
 30
0.0
 40
4.3712960000000001
 50
89.991849999999999
 51
98.375096999999997
  0
ARC
  5
52
  8
0
  6
AIGENLINE001
 62
     7
 10
78.936990000000009
 20
127.84969699999991
 30
0.0
 40
9.0312549999999998
 50
180.01870500000001
 51
201.667495
  0
ARC
  5
53
  8
0
  6
AIGENLINE001
 62
     7
 10
77.484313
 20
127.354349
 30
0.0
 40
7.4987139999999988
 50
202.2482709999999
 51
219.22103399999989
  0
ARC
  5
54
  8
0
  6
AIGENLINE001
 62
     7
 10
76.262691000000004
 20
126.433458
 30
0.0
 40
5.9703080000000002
 50
219.7874689999999
 51
236.7484199999999
  0
ARC
  5
55
  8
0
  6
AIGENLINE001
 62
     7
 10
75.570410999999993
 20
125.47041399999991
 30
0.0
 40
4.7856239999999994
 50
237.357595
 51
260.95998800000001
  0
ARC
  5
56
  8
0
  6
AIGENLINE001
 62
     7
 10
75.455214999999995
 20
125.0695759999999
 30
0.0
 40
4.3719589999999986
 50
261.62554
 51
270.00793599999992
  0
ARC
  5
57
  8
0
  6
AIGENLINE001
 62
     7
 10
75.447721999999999
 20
125.179253
 30
0.0
 40
4.4816440000000002
 50
270.10354000000001
 51
301.679214
  0
ARC
  5
58
  8
0
  6
AIGENLINE001
 62
     7
 10
74.957836
 20
126.07900100000001
 30
0.0
 40
5.5048820000000003
 50
301.10028999999992
 51
319.41172299999988
  0
ARC
  5
59
  8
0
  6
AIGENLINE001
 62
     7
 10
73.907826999999983
 20
127.06228299999999
 30
0.0
 40
6.9422959999999998
 50
318.88720999999993
 51
337.12116999999989
  0
ARC
  5
5A
  8
0
  6
AIGENLINE001
 62
     7
 10
72.509057999999996
 20
127.73537399999989
 30
0.0
 40
8.4930520000000005
 50
336.60629
 51
357.65314100000001
  0
ARC
  5
5B
  8
0
  6
AIGENLINE001
 62
     7
 10
71.669859000000002
 20
127.84601599999991
 30
0.0
 40
9.3363899999999997
 50
357.18560400000001
 51
0.004512
  0
ARC
  5
5C
  8
0
  6
AIGENLINE001
 62
     7
 10
71.975409999999997
 20
127.84381499999991
 30
0.0
 40
9.030838000000001
 50
0.018632
 51
21.669276
  0
ARC
  5
5D
  8
0
  6
AIGENLINE001
 62
     7
 10
73.426400000000001
 20
128.338313
 30
0.0
 40
7.5001829999999989
 50
22.251574999999988
 51
39.221626999999998
  0
ARC
  5
5E
  8
0
  6
AIGENLINE001
 62
     7
 10
74.648156999999983
 20
129.25896299999991
 30
0.0
 40
5.9718289999999996
 50
39.790683000000001
 51
56.748084999999989
  0
ARC
  5
5F
  8
0
  6
AIGENLINE001
 62
     7
 10
75.341193999999973
 20
130.22291699999991
 30
0.0
 40
4.7859699999999989
 50
57.358743999999987
 51
80.960144999999997
  0
ARC
  5
60
  8
0
  6
AIGENLINE001
 62
     7
 10
75.456430000000012
 20
130.624099
 30
0.0
 40
4.3719599999999987
 50
81.625519999999995
 51
90.007985999999988
  0
ARC
  5
61
  8
0
 62
     7
 10
83.180509999999998
 20
133.06443400000001
 30
0.0
 40
1.1748359999999991
 50
151.71289299999989
 51
179.88494800000001
  0
ARC
  5
62
  8
0
 62
     7
 10
82.631356999999994
 20
133.3416409999999
 30
0.0
 40
0.5601270000000002
 50
125.586401
 51
150.0622459999999
  0
ARC
  5
63
  8
0
 62
     7
 10
83.029314999999997
 20
133.06756299999989
 30
0.0
 40
1.0236389999999991
 50
180.04309599999991
 51
203.84749500000001
  0
ARC
  5
64
  8
0
 62
     7
 10
82.702099000000004
 20
132.941429
 30
0.0
 40
0.6735760000000001
 50
205.28771800000001
 51
233.9179959999999
  0
ARC
  5
65
  8
0
 62
     7
 10
86.328209000000001
 20
134.99464800000001
 30
0.0
 40
4.3225329999999991
 50
179.98127600000001
 51
185.304641
  0
ARC
  5
66
  8
0
 62
     7
 10
84.469122999999996
 20
134.83330399999991
 30
0.0
 40
2.4565179999999991
 50
185.56636299999991
 51
194.11034599999991
  0
ARC
  5
67
  8
0
 62
     7
 10
83.416888
 20
134.57902899999991
 30
0.0
 40
1.3740769999999991
 50
194.52407400000001
 51
205.821506
  0
ARC
  5
68
  8
0
 62
     7
 10
82.895482000000001
 20
134.33524999999989
 30
0.0
 40
0.7985850000000001
 50
206.371736
 51
222.36160599999991
  0
LINE
  5
69
  8
0
 62
     7
 10
82.005700000000004
 20
133.06700000000001
 30
0.0
 11
82.005700000000004
 21
134.99600000000001
 31
0.0
  0
ARC
  5
6A
  8
0
 62
     7
 10
83.034023000000005
 20
133.064435
 30
0.0
 40
1.1717070000000001
 50
0.115309
 51
28.369406000000001
  0
ARC
  5
6B
  8
0
 62
     7
 10
83.578648999999999
 20
133.34090800000001
 30
0.0
 40
0.561337
 50
29.952895000000002
 51
54.369534999999999
  0
ARC
  5
6C
  8
0
 62
     7
 10
83.185843000000006
 20
133.06755799999999
 30
0.0
 40
1.019884999999999
 50
336.05954800000001
 51
359.95701400000002
  0
ARC
  5
6D
  8
0
 62
     7
 10
83.507214000000005
 20
132.94286199999999
 30
0.0
 40
0.675763
 50
306.130199
 51
334.66555299999999
  0
ARC
  5
6E
  8
0
 62
     7
 10
79.903367000000003
 20
134.99463700000001
 30
0.0
 40
4.3023619999999996
 50
354.67058600000001
 51
0.01894
  0
ARC
  5
6F
  8
0
 62
     7
 10
81.742276000000004
 20
134.83417900000001
 30
0.0
 40
2.4565229999999989
 50
345.86865599999987
 51
354.41316099999989
  0
ARC
  5
70
  8
0
 62
     7
 10
82.792232999999996
 20
134.58023399999999
 30
0.0
 40
1.3763769999999991
 50
334.16912999999988
 51
345.44894499999998
  0
ARC
  5
71
  8
0
 62
     7
 10
83.314795999999987
 20
134.33591100000001
 30
0.0
 40
0.7996090000000001
 50
317.64118300000001
 51
333.61176399999988
  0
LINE
  5
72
  8
0
 62
     7
 10
82.305400000000006
 20
133.797
 30
0.0
 11
83.905699999999996
 21
133.797
 31
0.0
  0
LINE
  5
73
  8
0
 62
     7
 10
82.305400000000006
 20
132.39699999999999
 30
0.0
 11
83.905699999999996
 21
132.39699999999999
 31
0.0
  0
LINE
  5
74
  8
0
 62
     7
 10
84.205699999999993
 20
133.06700000000001
 30
0.0
 11
84.205699999999993
 21
134.99600000000001
 31
0.0
  0
ARC
  5
75
  8
0
 62
     7
 10
83.181718000000004
 20
136.9290639999999
 30
0.0
 40
1.1760440000000001
 50
180.11507299999991
 51
208.27227400000001
  0
ARC
  5
76
  8
0
 62
     7
 10
82.629048999999995
 20
136.65023999999991
 30
0.0
 40
0.5574720000000001
 50
209.93917899999991
 51
234.50993399999999
  0
ARC
  5
77
  8
0
 62
     7
 10
83.028181000000004
 20
136.92592500000001
 30
0.0
 40
1.0225049999999991
 50
156.13908499999999
 51
179.95640800000001
  0
ARC
  5
78
  8
0
 62
     7
 10
82.703804000000005
 20
137.05093500000001
 30
0.0
 40
0.675494
 50
126.142315
 51
154.70624399999991
  0
ARC
  5
79
  8
0
 62
     7
 10
86.339095999999998
 20
134.9974719999999
 30
0.0
 40
4.3334190000000001
 50
174.70203100000001
 51
180.01870400000001
  0
ARC
  5
7A
  8
0
 62
     7
 10
84.472768000000002
 20
135.1591709999999
 30
0.0
 40
2.4601609999999998
 50
165.90041599999989
 51
174.43841399999999
  0
ARC
  5
7B
  8
0
 62
     7
 10
83.419667999999987
 20
135.41347300000001
 30
0.0
 40
1.376871999999999
 50
154.20378099999999
 51
165.48835299999999
  0
ARC
  5
7C
  8
0
 62
     7
 10
82.897879999999986
 20
135.65723199999991
 30
0.0
 40
0.80104
 50
137.7003949999999
 51
153.66019900000001
  0
LINE
  5
7D
  8
0
 62
     7
 10
82.005700000000004
 20
136.92699999999999
 30
0.0
 11
82.005700000000004
 21
134.99600000000001
 31
0.0
  0
ARC
  5
7E
  8
0
 62
     7
 10
83.032818999999989
 20
136.9290629999999
 30
0.0
 40
1.172912
 50
331.645465
 51
359.88467099999991
  0
ARC
  5
7F
  8
0
 62
     7
 10
83.580967000000001
 20
136.6509659999999
 30
0.0
 40
0.5586700000000001
 50
305.534131
 51
330.04568299999988
  0
ARC
  5
80
  8
0
 62
     7
 10
81.303632999999991
 20
134.9944999999999
 30
0.0
 40
4.9347149999999989
 50
354.961682
 51
0.0181
  0
ARC
  5
81
  8
0
 62
     7
 10
83.764583999999999
 20
134.79393200000001
 30
0.0
 40
2.465711999999999
 50
342.04236099999991
 51
354.58215200000001
  0
ARC
  5
82
  8
0
 62
     7
 10
84.525588999999997
 20
134.57755099999989
 30
0.0
 40
1.675314
 50
319.82405499999987
 51
341.05775899999992
  0
ARC
  5
83
  8
0
 62
     7
 10
83.186972999999995
 20
136.925929
 30
0.0
 40
1.0187559999999991
 50
0.043484
 51
23.953921999999991
  0
ARC
  5
84
  8
0
 62
     7
 10
83.505499999999998
 20
137.049496
 30
0.0
 40
0.6776930000000001
 50
25.340488000000001
 51
53.809486999999997
  0
ARC
  5
85
  8
0
 62
     7
 10
79.892531000000005
 20
134.99748299999999
 30
0.0
 40
4.3131979999999999
 50
359.98108100000002
 51
5.3227109999999991
  0
ARC
  5
86
  8
0
 62
     7
 10
81.738631999999996
 20
135.1582949999999
 30
0.0
 40
2.4601639999999989
 50
5.582044999999999
 51
14.120568
  0
ARC
  5
87
  8
0
 62
     7
 10
82.789447999999993
 20
135.4122669999999
 30
0.0
 40
1.3791770000000001
 50
14.53860699999999
 51
25.805575999999999
  0
ARC
  5
88
  8
0
 62
     7
 10
83.312394999999995
 20
135.65656899999991
 30
0.0
 40
0.802068
 50
26.356287999999999
 51
42.296821000000001
  0
ARC
  5
89
  8
0
 62
     7
 10
81.296346999999997
 20
134.99760900000001
 30
0.0
 40
4.9420010000000003
 50
359.98202099999992
 51
5.0346000000000002
  0
ARC
  5
8A
  8
0
 62
     7
 10
83.759349
 20
135.19817499999991
 30
0.0
 40
2.470955
 50
5.4138199999999994
 51
17.938950999999999
  0
ARC
  5
8B
  8
0
 62
     7
 10
84.523159000000007
 20
135.41511199999999
 30
0.0
 40
1.677708
 50
18.924800999999999
 51
40.144128000000002
  0
LINE
  5
8C
  8
0
 62
     7
 10
79.705399999999983
 20
133.69699999999989
 30
0.0
 11
78.6053
 21
133.69699999999989
 31
0.0
  0
ARC
  5
8D
  8
0
 62
     7
 10
79.909343000000007
 20
133.79265899999999
 30
0.0
 40
0.103788
 50
92.103763999999984
 51
177.89620600000001
  0
ARC
  5
8E
  8
0
 62
     7
 10
79.701893999999996
 20
133.80030300000001
 30
0.0
 40
0.103801
 50
271.91978499999999
 51
357.88299399999988
  0
ARC
  5
8F
  8
0
 62
     7
 10
81.101798000000002
 20
133.79244199999999
 30
0.0
 40
0.104
 50
2.2190279999999989
 51
87.978193000000005
  0
LINE
  5
90
  8
0
 62
     7
 10
81.805499999999995
 20
133.69699999999989
 30
0.0
 11
81.305599999999998
 21
133.69699999999989
 31
0.0
  0
ARC
  5
91
  8
0
 62
     7
 10
81.309424000000007
 20
133.800264
 30
0.0
 40
0.103773
 50
182.0957919999999
 51
267.90423700000002
  0
LINE
  5
92
  8
0
 62
     7
 10
79.905500000000004
 20
133.89599999999999
 30
0.0
 11
81.105500000000006
 21
133.89599999999999
 31
0.0
  0
LINE
  5
93
  8
0
 62
     7
 10
79.705399999999983
 20
136.297
 30
0.0
 11
78.6053
 21
136.297
 31
0.0
  0
ARC
  5
94
  8
0
 62
     7
 10
79.909338000000005
 20
136.200143
 30
0.0
 40
0.103783
 50
182.10112099999989
 51
267.89890800000001
  0
ARC
  5
95
  8
0
 62
     7
 10
79.701654000000005
 20
136.1929759999999
 30
0.0
 40
0.104025
 50
1.8517380000000001
 51
87.951696999999996
  0
ARC
  5
96
  8
0
 62
     7
 10
81.101989999999986
 20
136.20017200000001
 30
0.0
 40
0.103801
 50
271.91978499999999
 51
357.88299399999988
  0
LINE
  5
97
  8
0
 62
     7
 10
81.805499999999995
 20
136.297
 30
0.0
 11
81.305599999999998
 21
136.297
 31
0.0
  0
ARC
  5
98
  8
0
 62
     7
 10
81.310112000000004
 20
136.1925719999999
 30
0.0
 40
0.10446
 50
92.459861000000004
 51
177.9338939999999
  0
LINE
  5
99
  8
0
 62
     7
 10
82.005700000000004
 20
133.79599999999999
 30
0.0
 11
81.805499999999995
 21
133.79599999999999
 31
0.0
  0
LINE
  5
9A
  8
0
 62
     7
 10
82.005700000000004
 20
136.196
 30
0.0
 11
81.805499999999995
 21
136.196
 31
0.0
  0
LINE
  5
9B
  8
0
 62
     7
 10
78.6053
 20
133.79599999999999
 30
0.0
 11
75.240499999999983
 21
133.79599999999999
 31
0.0
  0
LINE
  5
9C
  8
0
 62
     7
 10
78.6053
 20
136.196
 30
0.0
 11
75.240499999999983
 21
136.196
 31
0.0
  0
LINE
  5
9D
  8
0
 62
     7
 10
79.905500000000004
 20
136.096
 30
0.0
 11
81.105500000000006
 21
136.096
 31
0.0
  0
LINE
  5
9E
  8
0
 62
     7
 10
78.6053
 20
136.297
 30
0.0
 11
78.6053
 21
133.69699999999989
 31
0.0
  0
LINE
  5
9F
  8
0
 62
     7
 10
81.805499999999995
 20
136.297
 30
0.0
 11
81.805499999999995
 21
133.69699999999989
 31
0.0
  0
LINE
  5
A0
  8
0
 62
     7
 10
82.305400000000006
 20
136.196
 30
0.0
 11
83.905699999999996
 21
136.196
 31
0.0
  0
LINE
  5
A1
  8
0
 62
     7
 10
82.305400000000006
 20
137.596
 30
0.0
 11
83.905699999999996
 21
137.596
 31
0.0
  0
LINE
  5
A2
  8
0
 62
     7
 10
84.205699999999993
 20
133.49700000000001
 30
0.0
 11
85.805599999999998
 21
133.49700000000001
 31
0.0
  0
LINE
  5
A3
  8
0
 62
     7
 10
84.205699999999993
 20
136.49700000000001
 30
0.0
 11
85.805599999999998
 21
136.49700000000001
 31
0.0
  0
LINE
  5
A4
  8
0
 62
     7
 10
84.205699999999993
 20
136.92699999999999
 30
0.0
 11
84.205699999999993
 21
134.99600000000001
 31
0.0
  0
LINE
  5
A5
  8
0
  6
AIGENLINE001
 62
     7
 10
48.405299999999997
 20
134.99600000000001
 30
0.0
 11
88.405299999999997
 21
134.99600000000001
 31
0.0
  0
ARC
  5
A6
  8
0
 62
     7
 10
53.630819999999993
 20
133.06443400000001
 30
0.0
 40
1.1742799999999991
 50
0.115081
 51
28.301677999999999
  0
ARC
  5
A7
  8
0
 62
     7
 10
54.17903299999999
 20
133.3415
 30
0.0
 40
0.560466
 50
29.93440399999999
 51
54.389952000000001
  0
ARC
  5
A8
  8
0
 62
     7
 10
53.78226999999999
 20
133.06756200000001
 30
0.0
 40
1.0228280000000001
 50
336.132496
 51
359.95694400000002
  0
ARC
  5
A9
  8
0
 62
     7
 10
54.108224
 20
132.94162299999991
 30
0.0
 40
0.673998
 50
306.10327799999999
 51
334.71102699999989
  0
ARC
  5
AA
  8
0
 62
     7
 10
50.482532999999997
 20
134.99464900000001
 30
0.0
 40
4.3225649999999991
 50
354.69539900000001
 51
0.018685
  0
ARC
  5
AB
  8
0
 62
     7
 10
52.341650999999999
 20
134.83330399999991
 30
0.0
 40
2.4565179999999991
 50
345.88967400000001
 51
354.43365699999998
  0
ARC
  5
AC
  8
0
 62
     7
 10
53.393886000000002
 20
134.57902899999991
 30
0.0
 40
1.3740769999999991
 50
334.17851400000001
 51
345.47594600000002
  0
ARC
  5
AD
  8
0
 62
     7
 10
53.915293000000013
 20
134.33524999999989
 30
0.0
 40
0.7985850000000001
 50
317.63841400000001
 51
333.62828399999989
  0
LINE
  5
AE
  8
0
 62
     7
 10
54.805100000000003
 20
133.06700000000001
 30
0.0
 11
54.805100000000003
 21
134.99600000000001
 31
0.0
  0
ARC
  5
AF
  8
0
 62
     7
 10
53.778503999999998
 20
133.064435
 30
0.0
 40
1.173289
 50
151.67224999999999
 51
179.88481200000001
  0
ARC
  5
B0
  8
0
 62
     7
 10
53.231785000000002
 20
133.3410979999999
 30
0.0
 40
0.5609850000000001
 50
125.613455
 51
150.0486689999999
  0
ARC
  5
B1
  8
0
 62
     7
 10
53.626944999999992
 20
133.06755999999999
 30
0.0
 40
1.0217279999999991
 50
180.04302999999999
 51
203.894723
  0
ARC
  5
B2
  8
0
 62
     7
 10
53.302486999999999
 20
132.9419739999999
 30
0.0
 40
0.6744130000000002
 50
205.305308
 51
233.898979
  0
ARC
  5
B3
  8
0
 62
     7
 10
56.917625999999998
 20
134.994641
 30
0.0
 40
4.3124079999999996
 50
179.98114799999991
 51
185.317047
  0
ARC
  5
B4
  8
0
 62
     7
 10
55.067835000000002
 20
134.83357899999999
 30
0.0
 40
2.4556759999999991
 50
185.5747309999999
 51
194.121906
  0
ARC
  5
B5
  8
0
 62
     7
 10
54.018675999999999
 20
134.58005099999991
 30
0.0
 40
1.376404
 50
194.54293499999989
 51
205.82190800000001
  0
ARC
  5
B6
  8
0
 62
     7
 10
53.495330000000003
 20
134.33540500000001
 30
0.0
 40
0.7987880000000001
 50
206.37689499999999
 51
222.36332300000001
  0
LINE
  5
B7
  8
0
 62
     7
 10
54.505400000000002
 20
133.797
 30
0.0
 11
52.905099999999997
 21
133.797
 31
0.0
  0
LINE
  5
B8
  8
0
 62
     7
 10
54.505400000000002
 20
132.39699999999999
 30
0.0
 11
52.905099999999997
 21
132.39699999999999
 31
0.0
  0
LINE
  5
B9
  8
0
 62
     7
 10
52.605200000000004
 20
133.06700000000001
 30
0.0
 11
52.605200000000004
 21
134.99600000000001
 31
0.0
  0
ARC
  5
BA
  8
0
 62
     7
 10
53.629612999999999
 20
136.9290639999999
 30
0.0
 40
1.1754869999999999
 50
331.71316200000001
 51
359.88489800000002
  0
ARC
  5
BB
  8
0
 62
     7
 10
54.181343999999989
 20
136.65037899999999
 30
0.0
 40
0.5578070000000001
 50
305.51371299999988
 51
330.06417499999998
  0
ARC
  5
BC
  8
0
 62
     7
 10
53.783403999999997
 20
136.92592599999989
 30
0.0
 40
1.0216940000000001
 50
0.043553
 51
23.880935000000001
  0
ARC
  5
BD
  8
0
 62
     7
 10
54.106518000000008
 20
137.05073999999991
 30
0.0
 40
0.6759190000000001
 50
25.295013999999998
 51
53.836413
  0
ARC
  5
BE
  8
0
 62
     7
 10
50.471646
 20
134.99746999999991
 30
0.0
 40
4.3334519999999994
 50
359.981336
 51
5.297928999999999
  0
ARC
  5
BF
  8
0
 62
     7
 10
52.338006
 20
135.1591709999999
 30
0.0
 40
2.4601609999999998
 50
5.561566
 51
14.09956399999999
  0
ARC
  5
C0
  8
0
 62
     7
 10
53.391106000000008
 20
135.41347300000001
 30
0.0
 40
1.376871999999999
 50
14.511627000000001
 51
25.796198999999991
  0
ARC
  5
C1
  8
0
 62
     7
 10
53.912894999999992
 20
135.65723199999991
 30
0.0
 40
0.80104
 50
26.339780999999991
 51
42.299585999999991
  0
LINE
  5
C2
  8
0
 62
     7
 10
54.805100000000003
 20
136.92699999999999
 30
0.0
 11
54.805100000000003
 21
134.99600000000001
 31
0.0
  0
ARC
  5
C3
  8
0
 62
     7
 10
53.779710999999992
 20
136.9290639999999
 30
0.0
 40
1.1744950000000001
 50
180.11520899999999
 51
208.31289799999999
  0
ARC
  5
C4
  8
0
 62
     7
 10
53.229469999999992
 20
136.65077899999989
 30
0.0
 40
0.558322
 50
209.95275599999999
 51
234.48287899999991
  0
ARC
  5
C5
  8
0
 62
     7
 10
55.512977999999997
 20
134.99450400000001
 30
0.0
 40
4.9403790000000001
 50
179.981955
 51
185.032601
  0
ARC
  5
C6
  8
0
 62
     7
 10
53.045865999999997
 20
134.79361900000001
 30
0.0
 40
2.465209999999999
 50
185.41165399999991
 51
197.953779
  0
ARC
  5
C7
  8
0
 62
     7
 10
52.283352000000001
 20
134.57661999999991
 30
0.0
 40
1.673181
 50
198.93361399999989
 51
220.19590999999991
  0
ARC
  5
C8
  8
0
 62
     7
 10
53.62581500000001
 20
136.925927
 30
0.0
 40
1.0205969999999991
 50
156.09185099999999
 51
179.95645300000001
  0
ARC
  5
C9
  8
0
 62
     7
 10
53.304194999999993
 20
137.050387
 30
0.0
 40
0.6763360000000001
 50
126.161333
 51
154.68865199999991
  0
ARC
  5
CA
  8
0
 62
     7
 10
56.928485999999999
 20
134.99747799999989
 30
0.0
 40
4.3232689999999989
 50
174.68963999999991
 51
180.01883100000001
  0
ARC
  5
CB
  8
0
 62
     7
 10
55.071478999999997
 20
135.158895
 30
0.0
 40
2.4593169999999991
 50
165.88886400000001
 51
174.43005400000001
  0
ARC
  5
CC
  8
0
 62
     7
 10
54.021460999999988
 20
135.41245000000001
 30
0.0
 40
1.3792040000000001
 50
154.20337900000001
 51
165.46950699999999
  0
ARC
  5
CD
  8
0
 62
     7
 10
53.497728000000002
 20
135.65707699999999
 30
0.0
 40
0.8012439999999999
 50
137.698677
 51
153.655044
  0
ARC
  5
CE
  8
0
 62
     7
 10
55.520271999999999
 20
134.99760499999991
 30
0.0
 40
4.9476729999999991
 50
174.971113
 51
180.01792399999999
  0
ARC
  5
CF
  8
0
 62
     7
 10
53.051101000000003
 20
135.19848899999991
 30
0.0
 40
2.470451999999999
 50
162.06490600000001
 51
174.59236899999991
  0
ARC
  5
D0
  8
0
 62
     7
 10
52.285778000000001
 20
135.416044
 30
0.0
 40
1.675570999999999
 50
139.8359189999999
 51
161.08382
  0
LINE
  5
D1
  8
0
 62
     7
 10
71.205600000000004
 20
145.59700000000001
 30
0.0
 11
71.205600000000004
 21
144.49700000000001
 31
0.0
  0
ARC
  5
D2
  8
0
 62
     7
 10
71.109135999999992
 20
145.800828
 30
0.0
 40
0.103788
 50
182.10379399999999
 51
267.89623599999987
  0
ARC
  5
D3
  8
0
 62
     7
 10
71.101497999999992
 20
145.59302899999989
 30
0.0
 40
0.104151
 50
2.106017
 51
87.893973000000003
  0
ARC
  5
D4
  8
0
 62
     7
 10
71.109118000000009
 20
146.99298099999999
 30
0.0
 40
0.103777
 50
92.094504999999998
 51
177.8065939999999
  0
LINE
  5
D5
  8
0
 62
     7
 10
71.205600000000004
 20
147.697
 30
0.0
 11
71.205600000000004
 21
147.19699999999989
 31
0.0
  0
ARC
  5
D6
  8
0
 62
     7
 10
71.101618999999999
 20
147.2006419999999
 30
0.0
 40
0.104019
 50
272.04208599999993
 51
358.056285
  0
LINE
  5
D7
  8
0
 62
     7
 10
71.005399999999995
 20
144.49700000000001
 30
0.0
 11
71.205600000000004
 21
144.49700000000001
 31
0.0
  0
LINE
  5
D8
  8
0
 62
     7
 10
68.905600000000007
 20
144.49700000000001
 30
0.0
 11
69.805499999999995
 21
144.49700000000001
 31
0.0
  0
LINE
  5
D9
  8
0
 62
     7
 10
71.005399999999995
 20
147.697
 30
0.0
 11
71.205600000000004
 21
147.697
 31
0.0
  0
LINE
  5
DA
  8
0
 62
     7
 10
68.905600000000007
 20
147.697
 30
0.0
 11
69.805499999999995
 21
147.697
 31
0.0
  0
LINE
  5
DB
  8
0
 62
     7
 10
71.1053
 20
143.49700000000001
 30
0.0
 11
71.1053
 21
144.49700000000001
 31
0.0
  0
LINE
  5
DC
  8
0
 62
     7
 10
65.605500000000006
 20
145.59700000000001
 30
0.0
 11
65.605500000000006
 21
144.49700000000001
 31
0.0
  0
ARC
  5
DD
  8
0
 62
     7
 10
65.701647999999992
 20
145.80099699999991
 30
0.0
 40
0.103957
 50
272.09504900000002
 51
357.8062599999999
  0
ARC
  5
DE
  8
0
 62
     7
 10
65.709272999999996
 20
145.593389
 30
0.0
 40
0.103791
 50
92.111643000000001
 51
178.08555899999999
  0
ARC
  5
DF
  8
0
 62
     7
 10
65.701584999999994
 20
146.99272999999991
 30
0.0
 40
0.10403
 50
2.3262399999999999
 51
87.871320999999995
  0
LINE
  5
E0
  8
0
 62
     7
 10
65.605500000000006
 20
147.697
 30
0.0
 11
65.605500000000006
 21
147.19699999999989
 31
0.0
  0
ARC
  5
E1
  8
0
 62
     7
 10
65.709785999999994
 20
147.2009129999999
 30
0.0
 40
0.104315
 50
182.087433
 51
267.61700500000001
  0
LINE
  5
E2
  8
0
 62
     7
 10
65.805499999999995
 20
144.49700000000001
 30
0.0
 11
65.605500000000006
 21
144.49700000000001
 31
0.0
  0
LINE
  5
E3
  8
0
 62
     7
 10
67.905500000000004
 20
144.49700000000001
 30
0.0
 11
67.005600000000001
 21
144.49700000000001
 31
0.0
  0
LINE
  5
E4
  8
0
 62
     7
 10
65.805499999999995
 20
147.697
 30
0.0
 11
65.605500000000006
 21
147.697
 31
0.0
  0
LINE
  5
E5
  8
0
 62
     7
 10
67.905500000000004
 20
147.697
 30
0.0
 11
67.005600000000001
 21
147.697
 31
0.0
  0
LINE
  5
E6
  8
0
 62
     7
 10
65.705399999999997
 20
143.49700000000001
 30
0.0
 11
65.705399999999997
 21
144.49700000000001
 31
0.0
  0
LINE
  5
E7
  8
0
 62
     7
 10
70.905500000000004
 20
138.09700000000001
 30
0.0
 11
70.905500000000004
 21
142.49700000000001
 31
0.0
  0
LINE
  5
E8
  8
0
 62
     7
 10
69.905699999999996
 20
138.09700000000001
 30
0.0
 11
69.905699999999996
 21
142.49700000000001
 31
0.0
  0
LINE
  5
E9
  8
0
 62
     7
 10
69.405500000000004
 20
138.09700000000001
 30
0.0
 11
71.4054
 21
138.09700000000001
 31
0.0
  0
LINE
  5
EA
  8
0
 62
     7
 10
71.4054
 20
142.49700000000001
 30
0.0
 11
71.4054
 21
138.09700000000001
 31
0.0
  0
LINE
  5
EB
  8
0
 62
     7
 10
69.405500000000004
 20
142.49700000000001
 30
0.0
 11
69.405500000000004
 21
138.09700000000001
 31
0.0
  0
LINE
  5
EC
  8
0
 62
     7
 10
69.805499999999995
 20
133.49700000000001
 30
0.0
 11
69.805499999999995
 21
138.09700000000001
 31
0.0
  0
LINE
  5
ED
  8
0
 62
     7
 10
69.805499999999995
 20
133.49700000000001
 30
0.0
 11
71.005399999999995
 21
133.49700000000001
 31
0.0
  0
LINE
  5
EE
  8
0
 62
     7
 10
71.005399999999995
 20
133.49700000000001
 30
0.0
 11
71.005399999999995
 21
138.09700000000001
 31
0.0
  0
LINE
  5
EF
  8
0
 62
     7
 10
71.005399999999995
 20
143.49700000000001
 30
0.0
 11
71.005399999999995
 21
149.49700000000001
 31
0.0
  0
LINE
  5
F0
  8
0
 62
     7
 10
69.805499999999995
 20
143.49700000000001
 30
0.0
 11
69.805499999999995
 21
149.49700000000001
 31
0.0
  0
LINE
  5
F1
  8
0
  6
AIGENLINE001
 62
     7
 10
70.405299999999997
 20
150.3539999999999
 30
0.0
 11
70.405299999999997
 21
132.55699999999999
 31
0.0
  0
LINE
  5
F2
  8
0
 62
     7
 10
66.905600000000007
 20
138.09700000000001
 30
0.0
 11
66.905600000000007
 21
142.49700000000001
 31
0.0
  0
LINE
  5
F3
  8
0
 62
     7
 10
65.905299999999997
 20
138.09700000000001
 30
0.0
 11
65.905299999999997
 21
142.49700000000001
 31
0.0
  0
LINE
  5
F4
  8
0
 62
     7
 10
65.4054
 20
138.09700000000001
 30
0.0
 11
67.4054
 21
138.09700000000001
 31
0.0
  0
LINE
  5
F5
  8
0
 62
     7
 10
67.4054
 20
142.49700000000001
 30
0.0
 11
67.4054
 21
138.09700000000001
 31
0.0
  0
LINE
  5
F6
  8
0
 62
     7
 10
65.4054
 20
142.49700000000001
 30
0.0
 11
65.4054
 21
138.09700000000001
 31
0.0
  0
LINE
  5
F7
  8
0
 62
     7
 10
65.805400000000006
 20
133.49700000000001
 30
0.0
 11
65.805400000000006
 21
138.09700000000001
 31
0.0
  0
LINE
  5
F8
  8
0
 62
     7
 10
65.805400000000006
 20
133.49700000000001
 30
0.0
 11
67.005300000000005
 21
133.49700000000001
 31
0.0
  0
LINE
  5
F9
  8
0
 62
     7
 10
67.005300000000005
 20
133.49700000000001
 30
0.0
 11
67.005300000000005
 21
138.09700000000001
 31
0.0
  0
LINE
  5
FA
  8
0
 62
     7
 10
67.005600000000001
 20
143.49700000000001
 30
0.0
 11
67.005600000000001
 21
149.49700000000001
 31
0.0
  0
LINE
  5
FB
  8
0
 62
     7
 10
65.805499999999995
 20
143.49700000000001
 30
0.0
 11
65.805499999999995
 21
149.49700000000001
 31
0.0
  0
LINE
  5
FC
  8
0
  6
AIGENLINE001
 62
     7
 10
66.405299999999997
 20
150.3539999999999
 30
0.0
 11
66.405299999999997
 21
132.55699999999999
 31
0.0
  0
LINE
  5
FD
  8
0
 62
     7
 10
68.905600000000007
 20
143.49700000000001
 30
0.0
 11
68.905600000000007
 21
149.49700000000001
 31
0.0
  0
LINE
  5
FE
  8
0
 62
     7
 10
67.905500000000004
 20
143.49700000000001
 30
0.0
 11
67.905500000000004
 21
149.49700000000001
 31
0.0
  0
LINE
  5
FF
  8
0
 62
     7
 10
73.405299999999997
 20
143.49700000000001
 30
0.0
 11
73.405299999999997
 21
142.49700000000001
 31
0.0
  0
LINE
  5
100
  8
0
 62
     7
 10
63.405299999999997
 20
143.49700000000001
 30
0.0
 11
63.405299999999997
 21
142.49700000000001
 31
0.0
  0
LINE
  5
101
  8
0
 62
     7
 10
63.405299999999997
 20
142.49700000000001
 30
0.0
 11
73.405299999999997
 21
142.49700000000001
 31
0.0
  0
LINE
  5
102
  8
0
 62
     7
 10
63.405299999999997
 20
143.09700000000001
 30
0.0
 11
73.405299999999997
 21
143.09700000000001
 31
0.0
  0
LINE
  5
103
  8
0
 62
     7
 10
63.405299999999997
 20
143.49700000000001
 30
0.0
 11
73.405299999999997
 21
143.49700000000001
 31
0.0
  0
LINE
  5
104
  8
0
 62
     7
 10
57.105400000000003
 20
133.69699999999989
 30
0.0
 11
58.205399999999997
 21
133.69699999999989
 31
0.0
  0
ARC
  5
105
  8
0
 62
     7
 10
56.901597999999993
 20
133.7926469999999
 30
0.0
 40
0.103795
 50
2.1103969999999999
 51
87.988292999999985
  0
ARC
  5
106
  8
0
 62
     7
 10
57.109045999999999
 20
133.8002909999999
 30
0.0
 40
0.103795
 50
182.1104
 51
267.98833100000002
  0
ARC
  5
107
  8
0
 62
     7
 10
55.70909799999999
 20
133.79249799999991
 30
0.0
 40
0.103948
 50
92.090307999999979
 51
177.81096099999999
  0
LINE
  5
108
  8
0
 62
     7
 10
55.005299999999998
 20
133.69699999999989
 30
0.0
 11
55.505099999999999
 21
133.69699999999989
 31
0.0
  0
ARC
  5
109
  8
0
 62
     7
 10
55.501483999999998
 20
133.80030899999991
 30
0.0
 40
0.103813
 50
272.02133900000001
 51
357.87997000000001
  0
LINE
  5
10A
  8
0
 62
     7
 10
56.905200000000001
 20
133.89599999999999
 30
0.0
 11
55.705300000000001
 21
133.89599999999999
 31
0.0
  0
LINE
  5
10B
  8
0
 62
     7
 10
57.105400000000003
 20
136.297
 30
0.0
 11
58.205399999999997
 21
136.297
 31
0.0
  0
ARC
  5
10C
  8
0
 62
     7
 10
56.901451999999992
 20
136.20030499999999
 30
0.0
 40
0.103945
 50
272.08889599999992
 51
357.81241399999988
  0
ARC
  5
10D
  8
0
 62
     7
 10
57.109243000000014
 20
136.19303300000001
 30
0.0
 40
0.103973
 50
92.116683999999978
 51
178.178371
  0
ARC
  5
10E
  8
0
 62
     7
 10
55.708950000000002
 20
136.20016000000001
 30
0.0
 40
0.103795
 50
182.1104
 51
267.98833100000002
  0
LINE
  5
10F
  8
0
 62
     7
 10
55.005299999999998
 20
136.297
 30
0.0
 11
55.505099999999999
 21
136.297
 31
0.0
  0
ARC
  5
110
  8
0
 62
     7
 10
55.500830000000001
 20
136.19255899999999
 30
0.0
 40
0.104465
 50
2.0726559999999998
 51
87.632249999999999
  0
LINE
  5
111
  8
0
 62
     7
 10
54.805100000000003
 20
133.79599999999999
 30
0.0
 11
55.005299999999998
 21
133.79599999999999
 31
0.0
  0
LINE
  5
112
  8
0
 62
     7
 10
54.805100000000003
 20
136.196
 30
0.0
 11
55.005299999999998
 21
136.196
 31
0.0
  0
LINE
  5
113
  8
0
 62
     7
 10
58.205399999999997
 20
133.79599999999999
 30
0.0
 11
61.570300000000003
 21
133.79599999999999
 31
0.0
  0
LINE
  5
114
  8
0
 62
     7
 10
58.205399999999997
 20
136.196
 30
0.0
 11
61.570300000000003
 21
136.196
 31
0.0
  0
LINE
  5
115
  8
0
 62
     7
 10
56.905200000000001
 20
136.096
 30
0.0
 11
55.705300000000001
 21
136.096
 31
0.0
  0
LINE
  5
116
  8
0
 62
     7
 10
58.205399999999997
 20
136.297
 30
0.0
 11
58.205399999999997
 21
133.69699999999989
 31
0.0
  0
LINE
  5
117
  8
0
 62
     7
 10
55.005299999999998
 20
136.297
 30
0.0
 11
55.005299999999998
 21
133.69699999999989
 31
0.0
  0
LINE
  5
118
  8
0
 62
     7
 10
54.505400000000002
 20
136.196
 30
0.0
 11
52.905099999999997
 21
136.196
 31
0.0
  0
LINE
  5
119
  8
0
 62
     7
 10
54.505400000000002
 20
137.596
 30
0.0
 11
52.905099999999997
 21
137.596
 31
0.0
  0
LINE
  5
11A
  8
0
 62
     7
 10
52.605200000000004
 20
133.49700000000001
 30
0.0
 11
51.005299999999998
 21
133.49700000000001
 31
0.0
  0
LINE
  5
11B
  8
0
 62
     7
 10
52.605200000000004
 20
136.49700000000001
 30
0.0
 11
51.005299999999998
 21
136.49700000000001
 31
0.0
  0
LINE
  5
11C
  8
0
 62
     7
 10
52.605200000000004
 20
136.92699999999999
 30
0.0
 11
52.605200000000004
 21
134.99600000000001
 31
0.0
  0
LINE
  5
11D
  8
0
  6
AIGENLINE001
 62
     7
 10
69.905699999999996
 20
127.84699999999999
 30
0.0
 11
69.905699999999996
 21
150.34700000000001
 31
0.0
  0
LINE
  5
11E
  8
0
  6
AIGENLINE001
 62
     7
 10
66.905600000000007
 20
127.84699999999999
 30
0.0
 11
66.905600000000007
 21
150.34700000000001
 31
0.0
  0
LINE
  5
11F
  8
0
 62
     7
 10
93.472399999999993
 20
143.696
 30
0.0
 11
100.48699999999999
 21
143.696
 31
0.0
  0
LINE
  5
120
  8
0
 62
     7
 10
91.371700000000004
 20
129.49700000000001
 30
0.0
 11
105.92099999999991
 21
129.49700000000001
 31
0.0
  0
LINE
  5
121
  8
0
 62
     7
 10
95.449600000000004
 20
149.49700000000001
 30
0.0
 11
105.92099999999991
 21
149.49700000000001
 31
0.0
  0
LINE
  5
122
  8
0
 62
     7
 10
72.205699999999993
 20
163.107
 30
0.0
 11
72.205699999999993
 21
162.75999999999991
 31
0.0
  0
LINE
  5
123
  8
0
 62
     7
 10
64.605800000000002
 20
163.107
 30
0.0
 11
64.605800000000002
 21
162.75999999999991
 31
0.0
  0
ARC
  5
124
  8
0
 62
     7
 10
71.383239000000003
 20
162.76162899999991
 30
0.0
 40
0.8224579999999999
 50
333.36804699999999
 51
359.91656499999988
  0
ARC
  5
125
  8
0
 62
     7
 10
71.064503000000002
 20
162.90718100000001
 30
0.0
 40
1.1726920000000001
 50
314.76082000000002
 51
333.99177700000001
  0
ARC
  5
126
  8
0
 62
     7
 10
70.472797
 20
163.45459199999991
 30
0.0
 40
1.9783349999999991
 50
301.48218799999989
 51
315.76536900000002
  0
ARC
  5
127
  8
0
 62
     7
 10
69.665199999999999
 20
164.68462500000001
 30
0.0
 40
3.4493759999999991
 50
289.20279599999992
 51
302.252207
  0
ARC
  5
128
  8
0
 62
     7
 10
67.447817999999998
 20
165.34406899999999
 30
0.0
 40
4.1719970000000002
 50
241.08677700000001
 51
249.88073499999999
  0
ARC
  5
129
  8
0
 62
     7
 10
66.681731999999997
 20
163.90974399999999
 30
0.0
 40
2.5461680000000002
 50
228.62787299999991
 51
240.57194799999999
  0
ARC
  5
12A
  8
0
 62
     7
 10
65.988487000000006
 20
163.093219
 30
0.0
 40
1.4753510000000001
 50
211.505347
 51
227.87266199999999
  0
ARC
  5
12B
  8
0
 62
     7
 10
65.513692000000006
 20
162.78222600000001
 30
0.0
 40
0.9081860000000001
 50
181.37514899999991
 51
210.43069499999999
  0
ARC
  5
12C
  8
0
 62
     7
 10
65.597020999999984
 20
162.79628799999989
 30
0.0
 40
0.71134
 50
148.73110399999999
 51
179.8634429999999
  0
ARC
  5
12D
  8
0
 62
     7
 10
65.911527000000007
 20
162.63452899999999
 30
0.0
 40
1.064414999999999
 50
136.70580199999989
 51
150.076077
  0
ARC
  5
12E
  8
0
 62
     7
 10
66.311205000000001
 20
162.2755699999999
 30
0.0
 40
1.601523
 50
126.2587529999999
 51
137.1641469999999
  0
ARC
  5
12F
  8
0
 62
     7
 10
66.884031999999991
 20
161.52033599999999
 30
0.0
 40
2.5493440000000001
 50
114.683083
 51
126.601072
  0
ARC
  5
130
  8
0
 62
     7
 10
67.632450000000006
 20
160.00835599999991
 30
0.0
 40
4.2359939999999989
 50
105.54516199999991
 51
115.3409349999999
  0
ARC
  5
131
  8
0
 62
     7
 10
68.240106999999995
 20
158.0008949999999
 30
0.0
 40
6.3330500000000001
 50
94.397823000000002
 51
105.97429699999989
  0
ARC
  5
132
  8
0
 62
     7
 10
68.403019999999998
 20
156.722599
 30
0.0
 40
7.6203469999999989
 50
89.979602999999997
 51
94.882126
  0
ARC
  5
133
  8
0
 62
     7
 10
68.405343999999999
 20
156.872568
 30
0.0
 40
7.4703780000000002
 50
78.098119999999994
 51
89.997017000000014
  0
ARC
  5
134
  8
0
 62
     7
 10
68.783529999999999
 20
158.832617
 30
0.0
 40
5.474577
 50
68.941473999999999
 51
77.740425000000002
  0
ARC
  5
135
  8
0
 62
     7
 10
69.456610999999995
 20
160.64993000000001
 30
0.0
 40
3.5368699999999991
 50
58.85819399999999
 51
68.538585999999995
  0
ARC
  5
136
  8
0
 62
     7
 10
70.215749000000002
 20
161.94392300000001
 30
0.0
 40
2.0368529999999989
 50
44.910370999999998
 51
58.310765000000011
  0
ARC
  5
137
  8
0
 62
     7
 10
70.854562999999999
 20
162.607484
 30
0.0
 40
1.116123999999999
 50
25.639016999999999
 51
43.938127999999999
  0
ARC
  5
138
  8
0
 62
     7
 10
71.197990000000004
 20
162.78969499999999
 30
0.0
 40
0.7278380000000001
 50
0.6524450000000001
 51
24.405391000000002
  0
ARC
  5
139
  8
0
 62
     7
 10
65.432777000000002
 20
163.10551599999999
 30
0.0
 40
0.8270110000000001
 50
151.926962
 51
179.8964639999999
  0
ARC
  5
13A
  8
0
 62
     7
 10
65.763258999999991
 20
162.94825700000001
 30
0.0
 40
1.1927339999999991
 50
134.81144900000001
 51
152.73243299999999
  0
ARC
  5
13B
  8
0
 62
     7
 10
66.272276000000005
 20
162.47936000000001
 30
0.0
 40
1.8843759999999989
 50
125.429287
 51
135.74325300000001
  0
ARC
  5
13C
  8
0
 62
     7
 10
66.864796999999996
 20
161.67133200000001
 30
0.0
 40
2.8863020000000001
 50
114.09040899999999
 51
125.715006
  0
ARC
  5
13D
  8
0
 62
     7
 10
67.585579999999993
 20
160.183493
 30
0.0
 40
4.5390449999999989
 50
105.6969449999999
 51
114.7304199999999
  0
ARC
  5
13E
  8
0
 62
     7
 10
68.173434999999984
 20
158.25202300000001
 30
0.0
 40
6.557671
 50
95.477033000000006
 51
106.0759139999999
  0
ARC
  5
13F
  8
0
 62
     7
 10
68.395632999999989
 20
156.62129999999991
 30
0.0
 40
8.2024179999999998
 50
89.929449000000005
 51
95.934819000000005
  0
ARC
  5
140
  8
0
 62
     7
 10
68.406520999999984
 20
156.69243899999989
 30
0.0
 40
8.1312730000000002
 50
78.917011000000002
 51
90.005553000000006
  0
ARC
  5
141
  8
0
 62
     7
 10
68.812381999999999
 20
158.96781899999991
 30
0.0
 40
5.820441999999999
 50
67.983202000000006
 51
78.532050999999996
  0
ARC
  5
142
  8
0
 62
     7
 10
69.613878999999997
 20
161.06328099999999
 30
0.0
 40
3.577582
 50
57.598514000000009
 51
67.302606999999995
  0
ARC
  5
143
  8
0
 62
     7
 10
70.370195999999993
 20
162.28911299999999
 30
0.0
 40
2.1374019999999998
 50
43.334127000000002
 51
57.108184000000001
  0
ARC
  5
144
  8
0
 62
     7
 10
71.008477999999997
 20
162.91998100000001
 30
0.0
 40
1.2403789999999999
 50
25.44922399999999
 51
42.371026000000001
  0
ARC
  5
145
  8
0
 62
     7
 10
71.349885
 20
163.09765300000001
 30
0.0
 40
0.8558620000000001
 50
0.6263850000000001
 51
24.530317999999991
  0
LINE
  5
146
  8
0
 62
     7
 10
159.0449999999999
 20
152.49600000000001
 30
0.0
 11
162.0449999999999
 21
152.49600000000001
 31
0.0
  0
ARC
  5
147
  8
0
 62
     7
 10
159.05985000000001
 20
152.91168099999999
 30
0.0
 40
0.41557
 50
182.06369900000001
 51
267.887002
  0
ARC
  5
148
  8
0
 62
     7
 10
159.05982499999999
 20
152.88141799999991
 30
0.0
 40
0.415558
 50
92.109700000000004
 51
177.8902709999999
  0
LINE
  5
149
  8
0
 62
     7
 10
160.34399999999991
 20
157.59700000000001
 30
0.0
 11
160.34399999999991
 21
157.352
 31
0.0
  0
LINE
  5
14A
  8
0
 62
     7
 10
160.21000000000001
 20
156.852
 30
0.0
 11
159.3129999999999
 21
155.297
 31
0.0
  0
ARC
  5
14B
  8
0
 62
     7
 10
159.335159
 20
157.35399099999989
 30
0.0
 40
1.0092139999999989
 50
330.174915
 51
359.88362199999989
  0
LINE
  5
14C
  8
0
 62
     7
 10
159.0449999999999
 20
154.285
 30
0.0
 11
159.0449999999999
 21
153.29699999999991
 31
0.0
  0
ARC
  5
14D
  8
0
 62
     7
 10
161.05976299999989
 20
154.292361
 30
0.0
 40
2.0152389999999989
 50
150.11142599999999
 51
179.883253
  0
LINE
  5
14E
  8
0
 62
     7
 10
159.0449999999999
 20
153.29599999999991
 30
0.0
 11
162.0449999999999
 21
153.29599999999991
 31
0.0
  0
LINE
  5
14F
  8
0
 62
     7
 10
160.34399999999991
 20
157.59700000000001
 30
0.0
 11
160.18299999999991
 21
158.67500000000001
 31
0.0
  0
LINE
  5
150
  8
0
 62
     7
 10
158.65600000000001
 20
159.69699999999989
 30
0.0
 11
158.99600000000001
 21
159.69699999999989
 31
0.0
  0
ARC
  5
151
  8
0
 62
     7
 10
158.962152
 20
158.4571379999999
 30
0.0
 40
1.2398480000000001
 50
10.097913999999991
 51
88.421941999999987
  0
LINE
  5
152
  8
0
 62
     7
 10
160.19499999999991
 20
158.596
 30
0.0
 11
162.0449999999999
 21
158.596
 31
0.0
  0
LINE
  5
153
  8
0
 62
     7
 10
156.1989999999999
 20
159.31700000000001
 30
0.0
 11
158.465
 21
159.68100000000001
 31
0.0
  0
ARC
  5
154
  8
0
 62
     7
 10
158.654946
 20
158.5039459999999
 30
0.0
 40
1.1925709999999989
 50
89.953267000000011
 51
99.145137000000005
  0
ARC
  5
155
  8
0
 62
     7
 10
155.99530300000001
 20
160.966984
 30
0.0
 40
1.6625859999999999
 50
191.25298599999999
 51
277.02066200000002
  0
ARC
  5
156
  8
0
 62
     7
 10
155.98195000000001
 20
160.89977799999991
 30
0.0
 40
1.6375989999999989
 50
180.1104379999999
 51
189.03744299999991
  0
LINE
  5
157
  8
0
 62
     7
 10
158.65600000000001
 20
162.09699999999989
 30
0.0
 11
158.97
 21
162.09699999999989
 31
0.0
  0
LINE
  5
158
  8
0
 62
     7
 10
156.1989999999999
 20
162.476
 30
0.0
 11
158.465
 21
162.11199999999991
 31
0.0
  0
ARC
  5
159
  8
0
 62
     7
 10
158.65447800000001
 20
163.28325299999989
 30
0.0
 40
1.186696999999999
 50
260.83206699999988
 51
270.06952899999999
  0
ARC
  5
15A
  8
0
 62
     7
 10
158.97063700000001
 20
163.29494299999999
 30
0.0
 40
1.1983859999999991
 50
269.991422
 51
293.29231099999993
  0
ARC
  5
15B
  8
0
 62
     7
 10
155.9444389999999
 20
160.8964499999999
 30
0.0
 40
1.6000849999999991
 50
89.993831999999998
 51
179.9938019999999
  0
ARC
  5
15C
  8
0
 62
     7
 10
155.94553799999991
 20
160.91212400000001
 30
0.0
 40
1.5844119999999999
 50
80.812436000000019
 51
90.033522000000005
  0
LINE
  5
15D
  8
0
 62
     7
 10
159.44499999999991
 20
162.197
 30
0.0
 11
161.11199999999991
 21
162.197
 31
0.0
  0
LINE
  5
15E
  8
0
 62
     7
 10
159.84399999999999
 20
163.197
 30
0.0
 11
162.0449999999999
 21
163.197
 31
0.0
  0
LINE
  5
15F
  8
0
 62
     7
 10
159.44499999999991
 20
162.79699999999991
 30
0.0
 11
159.44499999999991
 21
162.197
 31
0.0
  0
ARC
  5
160
  8
0
 62
     7
 10
159.85978199999991
 20
162.781307
 30
0.0
 40
0.415558
 50
92.109700000000004
 51
177.8902709999999
  0
LINE
  5
161
  8
0
 62
     7
 10
165.04499999999999
 20
152.49600000000001
 30
0.0
 11
162.0449999999999
 21
152.49600000000001
 31
0.0
  0
ARC
  5
162
  8
0
 62
     7
 10
165.029246
 20
152.88141799999991
 30
0.0
 40
0.415558
 50
2.109726999999999
 51
87.890263000000004
  0
ARC
  5
163
  8
0
 62
     7
 10
165.028908
 20
152.91198
 30
0.0
 40
0.415894
 50
272.20212500000002
 51
357.89658500000002
  0
LINE
  5
164
  8
0
 62
     7
 10
165.04499999999999
 20
152.49600000000001
 30
0.0
 11
165.04499999999999
 21
152.49600000000001
 31
0.0
  0
LINE
  5
165
  8
0
 62
     7
 10
163.745
 20
157.59700000000001
 30
0.0
 11
163.745
 21
157.352
 31
0.0
  0
LINE
  5
166
  8
0
 62
     7
 10
163.87899999999999
 20
156.852
 30
0.0
 11
164.77699999999999
 21
155.297
 31
0.0
  0
ARC
  5
167
  8
0
 62
     7
 10
164.74377799999991
 20
157.351878
 30
0.0
 40
0.9990769999999999
 50
179.99631599999989
 51
210.01883799999999
  0
LINE
  5
168
  8
0
 62
     7
 10
165.04499999999999
 20
154.285
 30
0.0
 11
165.04499999999999
 21
153.29699999999991
 31
0.0
  0
ARC
  5
169
  8
0
 62
     7
 10
163.0331139999999
 20
154.29338100000001
 30
0.0
 40
2.0114320000000001
 50
0.087901
 51
29.917380999999988
  0
LINE
  5
16A
  8
0
 62
     7
 10
165.04499999999999
 20
153.29599999999991
 30
0.0
 11
162.0449999999999
 21
153.29599999999991
 31
0.0
  0
LINE
  5
16B
  8
0
 62
     7
 10
163.745
 20
157.59700000000001
 30
0.0
 11
163.90599999999989
 21
158.67500000000001
 31
0.0
  0
LINE
  5
16C
  8
0
 62
     7
 10
165.43299999999991
 20
159.69699999999989
 30
0.0
 11
165.0929999999999
 21
159.69699999999989
 31
0.0
  0
ARC
  5
16D
  8
0
 62
     7
 10
165.12672399999991
 20
158.45735300000001
 30
0.0
 40
1.2396180000000001
 50
91.553382999999997
 51
169.91027099999999
  0
LINE
  5
16E
  8
0
 62
     7
 10
163.89500000000001
 20
158.596
 30
0.0
 11
162.0449999999999
 21
158.596
 31
0.0
  0
LINE
  5
16F
  8
0
 62
     7
 10
167.89099999999991
 20
159.31700000000001
 30
0.0
 11
165.624
 21
159.68100000000001
 31
0.0
  0
ARC
  5
170
  8
0
 62
     7
 10
165.4336439999999
 20
158.49789499999989
 30
0.0
 40
1.198620999999999
 50
80.878090999999984
 51
90.023464999999987
  0
ARC
  5
171
  8
0
 62
     7
 10
168.14454599999991
 20
160.89670899999999
 30
0.0
 40
1.600171
 50
269.99693600000001
 51
359.99690600000002
  0
ARC
  5
172
  8
0
 62
     7
 10
168.14353299999999
 20
160.8809489999999
 30
0.0
 40
1.5844119999999999
 50
260.81245599999988
 51
270.03354200000001
  0
LINE
  5
173
  8
0
  6
AIGENLINE001
 62
     7
 10
171.06700000000001
 20
160.89699999999999
 30
0.0
 11
153.6689999999999
 21
160.89699999999999
 31
0.0
  0
LINE
  5
174
  8
0
 62
     7
 10
165.43299999999991
 20
162.09699999999989
 30
0.0
 11
165.119
 21
162.09699999999989
 31
0.0
  0
LINE
  5
175
  8
0
 62
     7
 10
167.89099999999991
 20
162.476
 30
0.0
 11
165.624
 21
162.11199999999991
 31
0.0
  0
ARC
  5
176
  8
0
 62
     7
 10
165.430014
 20
163.34080499999999
 30
0.0
 40
1.2442519999999999
 50
270.14457199999998
 51
278.95387199999999
  0
ARC
  5
177
  8
0
 62
     7
 10
165.12093200000001
 20
163.3070689999999
 30
0.0
 40
1.210513999999999
 50
246.82603999999989
 51
269.89026599999988
  0
ARC
  5
178
  8
0
 62
     7
 10
168.0937679999999
 20
160.82608899999991
 30
0.0
 40
1.6625859999999999
 50
11.252966000000001
 51
97.020643000000007
  0
ARC
  5
179
  8
0
 62
     7
 10
168.1070949999999
 20
160.89328999999989
 30
0.0
 40
1.637626
 50
0.116594
 51
9.0374269999999992
  0
LINE
  5
17A
  8
0
 62
     7
 10
164.64500000000001
 20
162.197
 30
0.0
 11
162.977
 21
162.197
 31
0.0
  0
LINE
  5
17B
  8
0
 62
     7
 10
164.245
 20
163.197
 30
0.0
 11
162.0449999999999
 21
163.197
 31
0.0
  0
LINE
  5
17C
  8
0
 62
     7
 10
164.64500000000001
 20
162.79699999999991
 30
0.0
 11
164.64500000000001
 21
162.197
 31
0.0
  0
ARC
  5
17D
  8
0
 62
     7
 10
164.22928899999999
 20
162.781307
 30
0.0
 40
0.415558
 50
2.109726999999999
 51
87.890263000000004
  0
ARC
  5
17E
  8
0
 62
     7
 10
162.04453599999999
 20
160.89662200000001
 30
0.0
 40
1.599912999999999
 50
90.0
 51
179.99996999999991
  0
ARC
  5
17F
  8
0
 62
     7
 10
162.04453499999991
 20
160.89662200000001
 30
0.0
 40
1.599912999999999
 50
0.00001
 51
89.999980000000008
  0
ARC
  5
180
  8
0
 62
     7
 10
162.0444489999999
 20
160.896537
 30
0.0
 40
1.5999989999999991
 50
270.00310400000001
 51
0.003074
  0
ARC
  5
181
  8
0
 62
     7
 10
162.044622
 20
160.896536
 30
0.0
 40
1.599998
 50
179.99688599999999
 51
269.99693600000001
  0
LINE
  5
182
  8
0
 62
     7
 10
167.18899999999999
 20
150.67699999999999
 30
0.0
 11
167.541
 21
150.60599999999991
 31
0.0
  0
LINE
  5
183
  8
0
 62
     7
 10
168.172
 20
149.9489999999999
 30
0.0
 11
168.245
 21
149.49700000000001
 31
0.0
  0
ARC
  5
184
  8
0
 62
     7
 10
167.36341599999989
 20
149.80390299999991
 30
0.0
 40
0.8218110000000001
 50
10.150099000000001
 51
77.554081000000011
  0
ARC
  5
185
  8
0
 62
     7
 10
167.54190700000001
 20
152.28130400000001
 30
0.0
 40
1.6423449999999999
 50
190.120386
 51
257.58383399999991
  0
LINE
  5
186
  8
0
 62
     7
 10
165.33299999999991
 20
152.49600000000001
 30
0.0
 11
162.0449999999999
 21
152.49600000000001
 31
0.0
  0
ARC
  5
187
  8
0
 62
     7
 10
165.3162529999999
 20
151.876721
 30
0.0
 40
0.619895
 50
10.65521199999999
 51
88.461168999999998
  0
LINE
  5
188
  8
0
 62
     7
 10
168.245
 20
149.49700000000001
 30
0.0
 11
162.0449999999999
 21
149.49700000000001
 31
0.0
  0
LINE
  5
189
  8
0
 62
     7
 10
156.90000000000001
 20
150.67699999999999
 30
0.0
 11
156.54900000000001
 21
150.60599999999991
 31
0.0
  0
LINE
  5
18A
  8
0
 62
     7
 10
155.91699999999989
 20
149.9489999999999
 30
0.0
 11
155.84399999999999
 21
149.49700000000001
 31
0.0
  0
ARC
  5
18B
  8
0
 62
     7
 10
156.72501
 20
149.8045229999999
 30
0.0
 40
0.821067
 50
102.411235
 51
169.884545
  0
ARC
  5
18C
  8
0
 62
     7
 10
156.5486709999999
 20
152.279856
 30
0.0
 40
1.640606999999999
 50
282.37565099999989
 51
349.92016899999999
  0
LINE
  5
18D
  8
0
 62
     7
 10
158.756
 20
152.49600000000001
 30
0.0
 11
162.0449999999999
 21
152.49600000000001
 31
0.0
  0
ARC
  5
18E
  8
0
 62
     7
 10
158.77337900000001
 20
151.8760629999999
 30
0.0
 40
0.620568
 50
91.588921999999997
 51
169.294657
  0
LINE
  5
18F
  8
0
 62
     7
 10
155.84399999999999
 20
149.49700000000001
 30
0.0
 11
162.0449999999999
 21
149.49700000000001
 31
0.0
  0
ARC
  5
190
  8
0
 62
     7
 10
163.9134249999999
 20
162.7798139999999
 30
0.0
 40
0.476628
 50
60.97522399999999
 51
68.137268000000006
  0
ARC
  5
191
  8
0
 62
     7
 10
163.46120500000001
 20
161.7418679999999
 30
0.0
 40
1.608665999999999
 50
66.955382999999983
 51
71.705062999999996
  0
ARC
  5
192
  8
0
 62
     7
 10
163.00390999999999
 20
160.35583700000001
 30
0.0
 40
3.068185999999999
 50
71.721985000000004
 51
79.345911000000001
  0
ARC
  5
193
  8
0
 62
     7
 10
162.48930599999991
 20
157.88221299999989
 30
0.0
 40
5.5945169999999989
 50
78.850098000000003
 51
84.372422999999984
  0
ARC
  5
194
  8
0
 62
     7
 10
162.11143599999991
 20
154.3672259999999
 30
0.0
 40
9.1296719999999993
 50
84.175601000000015
 51
90.419847999999988
  0
ARC
  5
195
  8
0
 62
     7
 10
160.2080729999999
 20
162.71378100000001
 30
0.0
 40
0.550114
 50
111.878608
 51
118.6409949999999
  0
ARC
  5
196
  8
0
 62
     7
 10
160.649226
 20
161.6851979999999
 30
0.0
 40
1.6692089999999991
 50
108.0454899999999
 51
112.7740559999999
  0
ARC
  5
197
  8
0
 62
     7
 10
161.1040689999999
 20
160.28648899999999
 30
0.0
 40
3.140015
 50
100.43222299999989
 51
108.030691
  0
ARC
  5
198
  8
0
 62
     7
 10
161.61597399999999
 20
157.777717
 30
0.0
 40
5.700219999999999
 50
95.428458000000006
 51
100.92649399999991
  0
ARC
  5
199
  8
0
 62
     7
 10
161.98129399999991
 20
154.2801629999999
 30
0.0
 40
9.2167070000000013
 50
89.606843000000026
 51
95.632376000000022
  0
LINE
  5
19A
  8
0
 62
     7
 10
162.5439999999999
 20
86.497900000000016
 30
0.0
 11
161.5439999999999
 21
86.497900000000016
 31
0.0
  0
LINE
  5
19B
  8
0
 62
     7
 10
105.1839999999999
 20
149.49700000000001
 30
0.0
 11
105.1839999999999
 21
129.49700000000001
 31
0.0
  0
LINE
  5
19C
  8
0
 62
     7
 10
104.70999999999989
 20
147.7289999999999
 30
0.0
 11
105.1839999999999
 21
149.49700000000001
 31
0.0
  0
LINE
  5
19D
  8
0
 62
     7
 10
105.1839999999999
 20
149.49700000000001
 30
0.0
 11
105.6579999999999
 21
147.7289999999999
 31
0.0
  0
LINE
  5
19E
  8
0
 62
     7
 10
105.6579999999999
 20
147.7289999999999
 30
0.0
 11
104.70999999999989
 21
147.7289999999999
 31
0.0
  0
LINE
  5
19F
  8
0
 62
     7
 10
104.70999999999989
 20
131.2649999999999
 30
0.0
 11
105.1839999999999
 21
129.49700000000001
 31
0.0
  0
LINE
  5
1A0
  8
0
 62
     7
 10
105.1839999999999
 20
129.49700000000001
 30
0.0
 11
105.6579999999999
 21
131.2649999999999
 31
0.0
  0
LINE
  5
1A1
  8
0
 62
     7
 10
105.6579999999999
 20
131.2649999999999
 30
0.0
 11
104.70999999999989
 21
131.2649999999999
 31
0.0
  0
LINE
  5
1A2
  8
0
 62
     7
 10
99.925299999999993
 20
149.49700000000001
 30
0.0
 11
99.925299999999993
 21
134.24700000000001
 31
0.0
  0
LINE
  5
1A3
  8
0
 62
     7
 10
99.451600000000013
 20
147.7289999999999
 30
0.0
 11
99.925299999999993
 21
149.49700000000001
 31
0.0
  0
LINE
  5
1A4
  8
0
 62
     7
 10
99.925299999999993
 20
149.49700000000001
 30
0.0
 11
100.3989999999999
 21
147.7289999999999
 31
0.0
  0
LINE
  5
1A5
  8
0
 62
     7
 10
100.3989999999999
 20
147.7289999999999
 30
0.0
 11
99.451600000000013
 21
147.7289999999999
 31
0.0
  0
LINE
  5
1A6
  8
0
 62
     7
 10
99.451600000000013
 20
145.46399999999991
 30
0.0
 11
99.925299999999993
 21
143.696
 31
0.0
  0
LINE
  5
1A7
  8
0
 62
     7
 10
99.925299999999993
 20
143.696
 30
0.0
 11
100.3989999999999
 21
145.46399999999991
 31
0.0
  0
LINE
  5
1A8
  8
0
 62
     7
 10
100.3989999999999
 20
145.46399999999991
 30
0.0
 11
99.451600000000013
 21
145.46399999999991
 31
0.0
  0
LINE
  5
1A9
  8
0
 62
     7
 10
61.4056
 20
173.702
 30
0.0
 11
61.4056
 21
151.17199999999991
 31
0.0
  0
LINE
  5
1AA
  8
0
 62
     7
 10
94.605800000000002
 20
173.702
 30
0.0
 11
94.605800000000002
 21
151.17199999999991
 31
0.0
  0
LINE
  5
1AB
  8
0
 62
     7
 10
82.205500000000015
 20
173.702
 30
0.0
 11
82.205500000000015
 21
151.17199999999991
 31
0.0
  0
LINE
  5
1AC
  8
0
 62
     7
 10
75.405199999999994
 20
173.702
 30
0.0
 11
75.405199999999994
 21
151.17199999999991
 31
0.0
  0
LINE
  5
1AD
  8
0
 62
     7
 10
113.0349999999999
 20
168.09700000000001
 30
0.0
 11
113.0349999999999
 21
149.49700000000001
 31
0.0
  0
LINE
  5
1AE
  8
0
 62
     7
 10
112.56099999999989
 20
166.32900000000001
 30
0.0
 11
113.0349999999999
 21
168.09700000000001
 31
0.0
  0
LINE
  5
1AF
  8
0
 62
     7
 10
113.0349999999999
 20
168.09700000000001
 30
0.0
 11
113.5089999999999
 21
166.32900000000001
 31
0.0
  0
LINE
  5
1B0
  8
0
 62
     7
 10
113.5089999999999
 20
166.32900000000001
 30
0.0
 11
112.56099999999989
 21
166.32900000000001
 31
0.0
  0
LINE
  5
1B1
  8
0
 62
     7
 10
112.56099999999989
 20
151.2649999999999
 30
0.0
 11
113.0349999999999
 21
149.49700000000001
 31
0.0
  0
LINE
  5
1B2
  8
0
 62
     7
 10
113.0349999999999
 20
149.49700000000001
 30
0.0
 11
113.5089999999999
 21
151.2649999999999
 31
0.0
  0
LINE
  5
1B3
  8
0
 62
     7
 10
113.5089999999999
 20
151.2649999999999
 30
0.0
 11
112.56099999999989
 21
151.2649999999999
 31
0.0
  0
LINE
  5
1B4
  8
0
 62
     7
 10
123.611
 20
160.44499999999991
 30
0.0
 11
123.611
 21
149.49700000000001
 31
0.0
  0
LINE
  5
1B5
  8
0
 62
     7
 10
123.137
 20
158.67699999999999
 30
0.0
 11
123.611
 21
160.44499999999991
 31
0.0
  0
LINE
  5
1B6
  8
0
 62
     7
 10
123.611
 20
160.44499999999991
 30
0.0
 11
124.08499999999999
 21
158.67699999999999
 31
0.0
  0
LINE
  5
1B7
  8
0
 62
     7
 10
124.08499999999999
 20
158.67699999999999
 30
0.0
 11
123.137
 21
158.67699999999999
 31
0.0
  0
LINE
  5
1B8
  8
0
 62
     7
 10
123.137
 20
151.2649999999999
 30
0.0
 11
123.611
 21
149.49700000000001
 31
0.0
  0
LINE
  5
1B9
  8
0
 62
     7
 10
123.611
 20
149.49700000000001
 30
0.0
 11
124.08499999999999
 21
151.2649999999999
 31
0.0
  0
LINE
  5
1BA
  8
0
 62
     7
 10
124.08499999999999
 20
151.2649999999999
 30
0.0
 11
123.137
 21
151.2649999999999
 31
0.0
  0
LINE
  5
1BB
  8
0
 62
     7
 10
118.32299999999999
 20
161.49700000000001
 30
0.0
 11
118.32299999999999
 21
149.49700000000001
 31
0.0
  0
LINE
  5
1BC
  8
0
 62
     7
 10
134.501
 20
160.44499999999991
 30
0.0
 11
122.911
 21
160.44499999999991
 31
0.0
  0
LINE
  5
1BD
  8
0
 62
     7
 10
131.62599999999989
 20
161.49700000000001
 30
0.0
 11
117.29899999999989
 21
161.49700000000001
 31
0.0
  0
LINE
  5
1BE
  8
0
 62
     7
 10
131.82900000000001
 20
168.09700000000001
 30
0.0
 11
112.04600000000001
 21
168.09700000000001
 31
0.0
  0
LINE
  5
1BF
  8
0
 62
     7
 10
154.49399999999989
 20
149.49700000000001
 30
0.0
 11
112.04600000000001
 21
149.49700000000001
 31
0.0
  0
LINE
  5
1C0
  8
0
 62
     7
 10
128.27199999999999
 20
151.71199999999999
 30
0.0
 11
132.54799999999989
 21
160.48099999999999
 31
0.0
  0
ARC
  5
1C1
  8
0
 62
     7
 10
133.04372699999999
 20
161.50004300000001
 30
0.0
 40
10.289023
 50
270.00279899999998
 51
286.51438899999999
  0
ARC
  5
1C2
  8
0
 62
     7
 10
133.05656999999991
 20
161.5158659999999
 30
0.0
 40
10.308040999999999
 50
227.39688000000001
 51
243.982024
  0
LINE
  5
1C3
  8
0
  6
AIGENLINE001
 62
     7
 10
135.023
 20
165.55500000000001
 30
0.0
 11
132.68600000000001
 21
160.762
 31
0.0
  0
ARC
  5
1C4
  8
0
 62
     7
 10
133.05388199999999
 20
161.535776
 30
0.0
 40
10.324759999999999
 50
244.04389499999999
 51
269.94643400000001
  0
LINE
  5
1C5
  8
0
 62
     7
 10
138.45799999999991
 20
163.00700000000001
 30
0.0
 11
156.37399999999991
 21
154.17699999999999
 31
0.0
  0
LINE
  5
1C6
  8
0
 62
     7
 10
136.977
 20
161.804
 30
0.0
 11
137.38499999999999
 21
162.64099999999991
 31
0.0
  0
ARC
  5
1C7
  8
0
 62
     7
 10
138.10389900000001
 20
162.28999999999999
 30
0.0
 40
0.7998690000000001
 50
63.760523999999997
 51
153.76049399999999
  0
LINE
  5
1C8
  8
0
 62
     7
 10
137.386
 20
162.64400000000001
 30
0.0
 11
137.38499999999999
 21
162.64099999999991
 31
0.0
  0
ARC
  5
1C9
  8
0
 62
     7
 10
156.05385000000001
 20
153.443331
 30
0.0
 40
0.806478
 50
315.19520899999992
 51
359.81305600000002
  0
ARC
  5
1CA
  8
0
 62
     7
 10
156.04158699999999
 20
153.42804199999989
 30
0.0
 40
0.818834
 50
0.8857450000000001
 51
66.084862999999999
  0
LINE
  5
1CB
  8
0
 62
     7
 10
158.565
 20
159.33000000000001
 30
0.0
 11
157.8899999999999
 21
159.58899999999991
 31
0.0
  0
LINE
  5
1CC
  8
0
 62
     7
 10
154.34700000000001
 20
160.9489999999999
 30
0.0
 11
136.4129999999999
 21
167.8309999999999
 31
0.0
  0
LINE
  5
1CD
  8
0
 62
     7
 10
130.86500000000001
 20
164.785
 30
0.0
 11
131.38499999999991
 21
165.84999999999999
 31
0.0
  0
ARC
  5
1CE
  8
0
 62
     7
 10
135.05043000000001
 20
163.918003
 30
0.0
 40
4.143845999999999
 50
70.804957000000002
 51
152.204374
  0
ARC
  5
1CF
  8
0
 62
     7
 10
158.73295200000001
 20
159.822576
 30
0.0
 40
0.520311
 50
251.16433499999999
 51
336.82298500000002
  0
ARC
  5
1D0
  8
0
 62
     7
 10
158.6875399999999
 20
159.81334499999991
 30
0.0
 40
0.559048
 50
339.52550200000002
 51
345.52495299999993
  0
LINE
  5
1D1
  8
0
 62
     7
 10
130.86500000000001
 20
164.785
 30
0.0
 11
136.977
 21
161.804
 31
0.0
  0
ARC
  5
1D2
  8
0
 62
     7
 10
136.7945409999999
 20
161.4648709999999
 30
0.0
 40
0.415628
 50
246.0943639999999
 51
331.88976700000001
  0
ARC
  5
1D3
  8
0
 62
     7
 10
136.80130500000001
 20
161.44406399999991
 30
0.0
 40
0.400146
 50
334.06185799999997
 51
0.047584
  0
ARC
  5
1D4
  8
0
 62
     7
 10
136.79302200000001
 20
161.43929999999989
 30
0.0
 40
0.40846
 50
0.714931
 51
63.256355000000013
  0
ARC
  5
1D5
  8
0
 62
     7
 10
130.696765
 20
164.40498199999999
 30
0.0
 40
0.415628
 50
66.094344000000007
 51
151.88974699999989
  0
ARC
  5
1D6
  8
0
 62
     7
 10
130.6896669999999
 20
164.42540099999999
 30
0.0
 40
0.400015
 50
153.99100300000001
 51
243.97146699999999
  0
LINE
  5
1D7
  8
0
 62
     7
 10
130.51400000000001
 20
164.06599999999989
 30
0.0
 11
136.626
 21
161.08500000000001
 31
0.0
  0
LINE
  5
1D8
  8
0
 62
     7
 10
130.88699999999989
 20
162.54900000000001
 30
0.0
 11
131.4129999999999
 21
163.62799999999999
 31
0.0
  0
LINE
  5
1D9
  8
0
 62
     7
 10
135.20099999999991
 20
160.44499999999991
 30
0.0
 11
135.72699999999989
 21
161.52299999999991
 31
0.0
  0
LINE
  5
1DA
  8
0
 62
     7
 10
130.88699999999989
 20
162.54900000000001
 30
0.0
 11
135.20099999999991
 21
160.44499999999991
 31
0.0
  0
LINE
  5
1DB
  8
0
 62
     7
 10
156.0449999999999
 20
151.465
 30
0.0
 11
156.0449999999999
 21
150.49700000000001
 31
0.0
  0
ARC
  5
1DC
  8
0
 62
     7
 10
158.06800799999999
 20
151.455321
 30
0.0
 40
2.0235110000000001
 50
135.28017299999991
 51
179.72805299999999
  0
LINE
  5
1DD
  8
0
 62
     7
 10
168.04400000000001
 20
151.465
 30
0.0
 11
168.04400000000001
 21
150.49700000000001
 31
0.0
  0
ARC
  5
1DE
  8
0
 62
     7
 10
166.017551
 20
151.45335800000001
 30
0.0
 40
2.0266889999999989
 50
0.327017
 51
46.831434999999992
  0
ARC
  5
1DF
  8
0
 62
     7
 10
172.949941
 20
158.84312700000001
 30
0.0
 40
8.1056910000000002
 50
180.3273199999999
 51
226.86475799999999
  0
LINE
  5
1E0
  8
0
 62
     7
 10
164.84399999999999
 20
159.66999999999999
 30
0.0
 11
164.84399999999999
 21
158.797
 31
0.0
  0
ARC
  5
1E1
  8
0
 62
     7
 10
168.005573
 20
149.45810900000001
 30
0.0
 40
1.0394699999999999
 50
2.1292810000000002
 51
87.850968999999992
  0
ARC
  5
1E2
  8
0
 62
     7
 10
156.082829
 20
149.45843400000001
 30
0.0
 40
1.0391330000000001
 50
92.131778999999995
 51
177.88793200000001
  0
LINE
  5
1E3
  8
0
 62
     7
 10
156.0439999999999
 20
150.49700000000001
 30
0.0
 11
156.28099999999989
 21
150.49700000000001
 31
0.0
  0
LINE
  5
1E4
  8
0
 62
     7
 10
167.80799999999999
 20
150.49700000000001
 30
0.0
 11
168.04400000000001
 21
150.49700000000001
 31
0.0
  0
ARC
  5
1E5
  8
0
 62
     7
 10
162.0565639999999
 20
163.59630899999999
 30
0.0
 40
2.2879320000000001
 50
349.79795999999988
 51
0.014944
  0
ARC
  5
1E6
  8
0
 62
     7
 10
162.04453499999991
 20
163.59690499999991
 30
0.0
 40
2.2999610000000001
 50
0.00001
 51
89.999980000000008
  0
ARC
  5
1E7
  8
0
 62
     7
 10
162.04436399999989
 20
163.59673299999989
 30
0.0
 40
2.3001330000000002
 50
89.995709000000005
 51
179.99567899999991
  0
ARC
  5
1E8
  8
0
 62
     7
 10
162.02327
 20
163.5955229999999
 30
0.0
 40
2.2790400000000002
 50
179.96522699999991
 51
189.51452800000001
  0
LINE
  5
1E9
  8
0
 62
     7
 10
155.0439999999999
 20
149.49700000000001
 30
0.0
 11
169.04400000000001
 21
149.49700000000001
 31
0.0
  0
LINE
  5
1EA
  8
0
 62
     7
 10
66.137500000000003
 20
104.47799999999999
 30
0.0
 11
67.905500000000004
 21
104.00399999999991
 31
0.0
  0
LINE
  5
1EB
  8
0
 62
     7
 10
67.905500000000004
 20
104.00399999999991
 30
0.0
 11
66.137500000000003
 21
103.53
 31
0.0
  0
LINE
  5
1EC
  8
0
 62
     7
 10
66.137500000000003
 20
103.53
 30
0.0
 11
66.137500000000003
 21
104.47799999999999
 31
0.0
  0
LINE
  5
1ED
  8
0
 62
     7
 10
70.673299999999998
 20
104.4729999999999
 30
0.0
 11
68.905299999999997
 21
103.9989999999999
 31
0.0
  0
LINE
  5
1EE
  8
0
 62
     7
 10
68.905299999999997
 20
103.9989999999999
 30
0.0
 11
70.673299999999998
 21
103.52500000000001
 31
0.0
  0
LINE
  5
1EF
  8
0
 62
     7
 10
70.673299999999998
 20
103.52500000000001
 30
0.0
 11
70.673299999999998
 21
104.4729999999999
 31
0.0
  0
LINE
  5
1F0
  8
0
 62
     7
 10
160.27699999999999
 20
137.37200000000001
 30
0.0
 11
162.0449999999999
 21
136.898
 31
0.0
  0
LINE
  5
1F1
  8
0
 62
     7
 10
162.0449999999999
 20
136.898
 30
0.0
 11
160.27699999999999
 21
136.42400000000001
 31
0.0
  0
LINE
  5
1F2
  8
0
 62
     7
 10
160.27699999999999
 20
136.42400000000001
 30
0.0
 11
160.27699999999999
 21
137.37200000000001
 31
0.0
  0
LINE
  5
1F3
  8
0
 62
     7
 10
126.782
 20
152.7829999999999
 30
0.0
 11
128.535
 21
152.2529999999999
 31
0.0
  0
LINE
  5
1F4
  8
0
 62
     7
 10
128.535
 20
152.2529999999999
 30
0.0
 11
127.2829999999999
 21
153.58799999999991
 31
0.0
  0
LINE
  5
1F5
  8
0
 62
     7
 10
127.2829999999999
 20
153.58799999999991
 30
0.0
 11
126.782
 21
152.7829999999999
 31
0.0
  0
LINE
  5
1F6
  8
0
 62
     7
 10
134.74299999999991
 20
151.89500000000001
 30
0.0
 11
133.0439999999999
 21
151.21100000000001
 31
0.0
  0
LINE
  5
1F7
  8
0
 62
     7
 10
133.0439999999999
 20
151.21100000000001
 30
0.0
 11
134.857
 21
150.95400000000001
 31
0.0
  0
LINE
  5
1F8
  8
0
 62
     7
 10
134.857
 20
150.95400000000001
 30
0.0
 11
134.74299999999991
 21
151.89500000000001
 31
0.0
  0
LINE
  5
1F9
  8
0
  6
AIGENLINE001
 62
     7
 10
162.0439999999999
 20
85.611199999999997
 30
0.0
 11
162.0439999999999
 21
167.47200000000001
 31
0.0
  0
LINE
  5
1FA
  8
0
 62
     7
 10
160.1449999999999
 20
131.89599999999999
 30
0.0
 11
159.9439999999999
 21
132.096
 31
0.0
  0
LINE
  5
1FB
  8
0
 62
     7
 10
163.94499999999999
 20
131.89699999999999
 30
0.0
 11
164.14400000000001
 21
132.096
 31
0.0
  0
LINE
  5
1FC
  8
0
 62
     7
 10
164.14400000000001
 20
129.696
 30
0.0
 11
163.94499999999999
 21
129.49700000000001
 31
0.0
  0
LINE
  5
1FD
  8
0
 62
     7
 10
159.9439999999999
 20
129.696
 30
0.0
 11
160.1449999999999
 21
129.49700000000001
 31
0.0
  0
LINE
  5
1FE
  8
0
 62
     7
 10
164.14400000000001
 20
129.696
 30
0.0
 11
159.9439999999999
 21
129.696
 31
0.0
  0
LINE
  5
1FF
  8
0
 62
     7
 10
160.1449999999999
 20
131.89599999999999
 30
0.0
 11
160.1449999999999
 21
129.49700000000001
 31
0.0
  0
LINE
  5
200
  8
0
 62
     7
 10
163.94499999999999
 20
129.49700000000001
 30
0.0
 11
163.94499999999999
 21
131.89699999999999
 31
0.0
  0
LINE
  5
201
  8
0
 62
     7
 10
164.14400000000001
 20
129.696
 30
0.0
 11
164.14400000000001
 21
132.89699999999999
 31
0.0
  0
LINE
  5
202
  8
0
 62
     7
 10
159.9439999999999
 20
132.89699999999999
 30
0.0
 11
159.9439999999999
 21
129.696
 31
0.0
  0
LINE
  5
203
  8
0
 62
     7
 10
163.94499999999999
 20
129.49700000000001
 30
0.0
 11
160.1449999999999
 21
129.49700000000001
 31
0.0
  0
LINE
  5
204
  8
0
 62
     7
 10
164.14400000000001
 20
131.89699999999999
 30
0.0
 11
159.9439999999999
 21
131.89699999999999
 31
0.0
  0
LINE
  5
205
  8
0
 62
     7
 10
164.64500000000001
 20
132.89699999999999
 30
0.0
 11
159.44499999999991
 21
132.89699999999999
 31
0.0
  0
LINE
  5
206
  8
0
 62
     7
 10
164.64500000000001
 20
138.69599999999991
 30
0.0
 11
164.44499999999991
 21
138.89699999999999
 31
0.0
  0
LINE
  5
207
  8
0
 62
     7
 10
159.44499999999991
 20
138.69599999999991
 30
0.0
 11
159.64400000000001
 21
138.89699999999999
 31
0.0
  0
LINE
  5
208
  8
0
 62
     7
 10
164.44499999999991
 20
138.89699999999999
 30
0.0
 11
164.44499999999991
 21
142.297
 31
0.0
  0
LINE
  5
209
  8
0
 62
     7
 10
164.64500000000001
 20
132.89699999999999
 30
0.0
 11
164.64500000000001
 21
142.297
 31
0.0
  0
LINE
  5
20A
  8
0
 62
     7
 10
159.64400000000001
 20
138.89699999999999
 30
0.0
 11
159.64400000000001
 21
142.297
 31
0.0
  0
LINE
  5
20B
  8
0
 62
     7
 10
159.44499999999991
 20
132.89699999999999
 30
0.0
 11
159.44499999999991
 21
142.297
 31
0.0
  0
LINE
  5
20C
  8
0
 62
     7
 10
164.64500000000001
 20
138.89699999999999
 30
0.0
 11
159.44499999999991
 21
138.89699999999999
 31
0.0
  0
LINE
  5
20D
  8
0
 62
     7
 10
165.04400000000001
 20
142.297
 30
0.0
 11
159.0439999999999
 21
142.297
 31
0.0
  0
LINE
  5
20E
  8
0
 62
     7
 10
165.04400000000001
 20
143.29599999999999
 30
0.0
 11
165.04400000000001
 21
142.297
 31
0.0
  0
LINE
  5
20F
  8
0
 62
     7
 10
162.0439999999999
 20
143.29599999999999
 30
0.0
 11
162.0439999999999
 21
142.297
 31
0.0
  0
LINE
  5
210
  8
0
 62
     7
 10
159.0439999999999
 20
143.29599999999999
 30
0.0
 11
159.0439999999999
 21
142.297
 31
0.0
  0
LINE
  5
211
  8
0
 62
     7
 10
157.5439999999999
 20
143.29599999999999
 30
0.0
 11
157.5439999999999
 21
143.49700000000001
 31
0.0
  0
LINE
  5
212
  8
0
 62
     7
 10
166.5449999999999
 20
143.29599999999999
 30
0.0
 11
166.5449999999999
 21
143.49700000000001
 31
0.0
  0
LINE
  5
213
  8
0
 62
     7
 10
166.5449999999999
 20
143.29599999999999
 30
0.0
 11
157.5439999999999
 21
143.29599999999999
 31
0.0
  0
LINE
  5
214
  8
0
 62
     7
 10
164.44499999999991
 20
143.697
 30
0.0
 11
164.44499999999991
 21
149.49700000000001
 31
0.0
  0
LINE
  5
215
  8
0
 62
     7
 10
164.64500000000001
 20
143.697
 30
0.0
 11
164.64500000000001
 21
149.49700000000001
 31
0.0
  0
LINE
  5
216
  8
0
 62
     7
 10
159.64400000000001
 20
143.697
 30
0.0
 11
159.64400000000001
 21
149.49700000000001
 31
0.0
  0
LINE
  5
217
  8
0
 62
     7
 10
159.44499999999991
 20
143.697
 30
0.0
 11
159.44499999999991
 21
149.49700000000001
 31
0.0
  0
LINE
  5
218
  8
0
 62
     7
 10
166.244
 20
143.49700000000001
 30
0.0
 11
166.244
 21
143.697
 31
0.0
  0
LINE
  5
219
  8
0
 62
     7
 10
157.845
 20
143.49700000000001
 30
0.0
 11
157.845
 21
143.697
 31
0.0
  0
LINE
  5
21A
  8
0
 62
     7
 10
166.5449999999999
 20
143.49700000000001
 30
0.0
 11
157.5439999999999
 21
143.49700000000001
 31
0.0
  0
LINE
  5
21B
  8
0
 62
     7
 10
166.244
 20
143.697
 30
0.0
 11
157.845
 21
143.697
 31
0.0
  0
LINE
  5
21C
  8
0
 62
     7
 10
162.5439999999999
 20
86.497900000000016
 30
0.0
 11
162.5439999999999
 21
129.49700000000001
 31
0.0
  0
LINE
  5
21D
  8
0
 62
     7
 10
161.5439999999999
 20
86.497900000000016
 30
0.0
 11
161.5439999999999
 21
129.49700000000001
 31
0.0
  0
LINE
  5
21E
  8
0
 62
     7
 10
157.64400000000001
 20
143.49700000000001
 30
0.0
 11
157.64400000000001
 21
143.697
 31
0.0
  0
LINE
  5
21F
  8
0
 62
     7
 10
157.64400000000001
 20
143.29599999999999
 30
0.0
 11
162.0439999999999
 21
143.29599999999999
 31
0.0
  0
LINE
  5
220
  8
0
 62
     7
 10
162.0439999999999
 20
143.29599999999999
 30
0.0
 11
165.244
 21
143.29599999999999
 31
0.0
  0
LINE
  5
221
  8
0
 62
     7
 10
157.64400000000001
 20
143.697
 30
0.0
 11
162.0439999999999
 21
143.697
 31
0.0
  0
LINE
  5
222
  8
0
 62
     7
 10
162.0439999999999
 20
143.697
 30
0.0
 11
165.244
 21
143.697
 31
0.0
  0
LINE
  5
223
  8
0
 62
     7
 10
117.8489999999999
 20
159.7289999999999
 30
0.0
 11
118.32299999999999
 21
161.49700000000001
 31
0.0
  0
LINE
  5
224
  8
0
 62
     7
 10
118.32299999999999
 20
161.49700000000001
 30
0.0
 11
118.797
 21
159.7289999999999
 31
0.0
  0
LINE
  5
225
  8
0
 62
     7
 10
118.797
 20
159.7289999999999
 30
0.0
 11
117.8489999999999
 21
159.7289999999999
 31
0.0
  0
LINE
  5
226
  8
0
 62
     7
 10
117.8489999999999
 20
151.2649999999999
 30
0.0
 11
118.32299999999999
 21
149.49700000000001
 31
0.0
  0
LINE
  5
227
  8
0
 62
     7
 10
118.32299999999999
 20
149.49700000000001
 30
0.0
 11
118.797
 21
151.2649999999999
 31
0.0
  0
LINE
  5
228
  8
0
 62
     7
 10
118.797
 20
151.2649999999999
 30
0.0
 11
117.8489999999999
 21
151.2649999999999
 31
0.0
  0
LINE
  5
229
  8
0
 62
     7
 10
134.8129999999999
 20
137.36600000000001
 30
0.0
 11
133.0449999999999
 21
136.89199999999991
 31
0.0
  0
LINE
  5
22A
  8
0
 62
     7
 10
133.0449999999999
 20
136.89199999999991
 30
0.0
 11
134.8129999999999
 21
136.41800000000001
 31
0.0
  0
LINE
  5
22B
  8
0
 62
     7
 10
134.8129999999999
 20
136.41800000000001
 30
0.0
 11
134.8129999999999
 21
137.36600000000001
 31
0.0
  0
LINE
  5
22C
  8
0
 62
     7
 10
133.0449999999999
 20
136.898
 30
0.0
 11
162.0449999999999
 21
136.898
 31
0.0
  0
LINE
  5
22D
  8
0
 62
     7
 10
133.0439999999999
 20
136.27299999999991
 30
0.0
 11
133.0439999999999
 21
160.09399999999999
 31
0.0
  0
LINE
  5
22E
  8
0
 62
     7
 10
45.405099999999997
 20
152.49600000000001
 30
0.0
 11
48.405099999999997
 21
152.49600000000001
 31
0.0
  0
ARC
  5
22F
  8
0
 62
     7
 10
45.420417999999991
 20
152.91168099999999
 30
0.0
 40
0.41557
 50
182.06369900000001
 51
267.887002
  0
ARC
  5
230
  8
0
 62
     7
 10
45.42039299999999
 20
152.88141799999991
 30
0.0
 40
0.415558
 50
92.109700000000004
 51
177.8902709999999
  0
LINE
  5
231
  8
0
 62
     7
 10
46.704900000000002
 20
157.59700000000001
 30
0.0
 11
46.704900000000002
 21
157.352
 31
0.0
  0
LINE
  5
232
  8
0
 62
     7
 10
46.570900000000002
 20
156.852
 30
0.0
 11
45.673099999999991
 21
155.297
 31
0.0
  0
ARC
  5
233
  8
0
 62
     7
 10
45.695725999999993
 20
157.35399099999989
 30
0.0
 40
1.0092139999999989
 50
330.174915
 51
359.88362199999989
  0
LINE
  5
234
  8
0
 62
     7
 10
45.405099999999997
 20
154.285
 30
0.0
 11
45.405099999999997
 21
153.29699999999991
 31
0.0
  0
ARC
  5
235
  8
0
 62
     7
 10
47.415427000000001
 20
154.293676
 30
0.0
 40
2.0103330000000001
 50
150.07425499999999
 51
179.92042399999991
  0
LINE
  5
236
  8
0
 62
     7
 10
45.405099999999997
 20
153.29599999999991
 30
0.0
 11
48.405099999999997
 21
153.29599999999991
 31
0.0
  0
LINE
  5
237
  8
0
 62
     7
 10
46.704900000000002
 20
157.59700000000001
 30
0.0
 11
46.543399999999998
 21
158.67500000000001
 31
0.0
  0
LINE
  5
238
  8
0
 62
     7
 10
45.016500000000001
 20
159.69699999999989
 30
0.0
 11
45.356900000000003
 21
159.69699999999989
 31
0.0
  0
ARC
  5
239
  8
0
 62
     7
 10
45.322724999999998
 20
158.45714399999989
 30
0.0
 40
1.2398420000000001
 50
10.097692
 51
88.422165000000007
  0
LINE
  5
23A
  8
0
 62
     7
 10
46.555100000000003
 20
158.596
 30
0.0
 11
48.405099999999997
 21
158.596
 31
0.0
  0
LINE
  5
23B
  8
0
 62
     7
 10
42.559100000000001
 20
159.31700000000001
 30
0.0
 11
44.826000000000001
 21
159.68100000000001
 31
0.0
  0
ARC
  5
23C
  8
0
 62
     7
 10
45.015557999999999
 20
158.50338099999999
 30
0.0
 40
1.1931359999999991
 50
89.955448000000004
 51
99.142956000000027
  0
ARC
  5
23D
  8
0
 62
     7
 10
42.355822999999987
 20
160.96691799999999
 30
0.0
 40
1.6625259999999991
 50
191.25108599999999
 51
277.02256199999999
  0
ARC
  5
23E
  8
0
 62
     7
 10
42.342517999999998
 20
160.89977799999991
 30
0.0
 40
1.6375989999999989
 50
180.1104379999999
 51
189.03744299999991
  0
LINE
  5
23F
  8
0
 62
     7
 10
45.016500000000001
 20
162.09699999999989
 30
0.0
 11
45.331000000000003
 21
162.09699999999989
 31
0.0
  0
LINE
  5
240
  8
0
 62
     7
 10
42.559100000000001
 20
162.476
 30
0.0
 11
44.826000000000001
 21
162.11199999999991
 31
0.0
  0
ARC
  5
241
  8
0
 62
     7
 10
45.015042999999991
 20
163.283219
 30
0.0
 40
1.186663
 50
260.83193599999993
 51
270.069661
  0
ARC
  5
242
  8
0
 62
     7
 10
45.330542000000001
 20
163.29815999999991
 30
0.0
 40
1.2016029999999991
 50
270.02304399999991
 51
293.26069000000001
  0
ARC
  5
243
  8
0
 62
     7
 10
42.305007000000003
 20
160.8964499999999
 30
0.0
 40
1.6000849999999991
 50
89.993831999999998
 51
179.9938019999999
  0
ARC
  5
244
  8
0
 62
     7
 10
42.306108999999999
 20
160.91215700000001
 30
0.0
 40
1.5843780000000001
 50
80.812337999999997
 51
90.033619999999999
  0
LINE
  5
245
  8
0
 62
     7
 10
45.805100000000003
 20
162.197
 30
0.0
 11
47.472499999999997
 21
162.197
 31
0.0
  0
LINE
  5
246
  8
0
 62
     7
 10
46.205100000000002
 20
163.197
 30
0.0
 11
48.405099999999997
 21
163.197
 31
0.0
  0
LINE
  5
247
  8
0
 62
     7
 10
45.805100000000003
 20
162.79699999999991
 30
0.0
 11
45.805100000000003
 21
162.197
 31
0.0
  0
ARC
  5
248
  8
0
 62
     7
 10
46.220348999999999
 20
162.781307
 30
0.0
 40
0.415558
 50
92.109700000000004
 51
177.8902709999999
  0
LINE
  5
249
  8
0
 62
     7
 10
51.40509999999999
 20
152.49600000000001
 30
0.0
 11
48.405099999999997
 21
152.49600000000001
 31
0.0
  0
ARC
  5
24A
  8
0
 62
     7
 10
51.389813000000011
 20
152.88141799999991
 30
0.0
 40
0.415558
 50
2.109726999999999
 51
87.890263000000004
  0
ARC
  5
24B
  8
0
 62
     7
 10
51.389474999999997
 20
152.91198
 30
0.0
 40
0.415894
 50
272.20212500000002
 51
357.89658500000002
  0
LINE
  5
24C
  8
0
 62
     7
 10
51.405500000000011
 20
152.49600000000001
 30
0.0
 11
51.40509999999999
 21
152.49600000000001
 31
0.0
  0
LINE
  5
24D
  8
0
 62
     7
 10
50.1053
 20
157.59700000000001
 30
0.0
 11
50.1053
 21
157.352
 31
0.0
  0
LINE
  5
24E
  8
0
 62
     7
 10
50.2393
 20
156.852
 30
0.0
 11
51.137099999999997
 21
155.297
 31
0.0
  0
ARC
  5
24F
  8
0
 62
     7
 10
51.108553000000001
 20
157.35300599999991
 30
0.0
 40
1.0032849999999991
 50
180.0607949999999
 51
209.95439999999991
  0
LINE
  5
250
  8
0
 62
     7
 10
51.40509999999999
 20
154.285
 30
0.0
 11
51.40509999999999
 21
153.29699999999991
 31
0.0
  0
ARC
  5
251
  8
0
 62
     7
 10
49.393681000000001
 20
154.29338100000001
 30
0.0
 40
2.0114320000000001
 50
0.087901
 51
29.917380999999988
  0
LINE
  5
252
  8
0
 62
     7
 10
51.40509999999999
 20
153.29599999999991
 30
0.0
 11
48.405099999999997
 21
153.29599999999991
 31
0.0
  0
LINE
  5
253
  8
0
 62
     7
 10
50.1053
 20
157.59700000000001
 30
0.0
 11
50.266800000000003
 21
158.67500000000001
 31
0.0
  0
LINE
  5
254
  8
0
 62
     7
 10
51.793700000000001
 20
159.69699999999989
 30
0.0
 11
51.453699999999991
 21
159.69699999999989
 31
0.0
  0
ARC
  5
255
  8
0
 62
     7
 10
51.487728999999987
 20
158.4568449999999
 30
0.0
 40
1.2401379999999991
 50
91.572956000000019
 51
169.8906979999999
  0
LINE
  5
256
  8
0
 62
     7
 10
50.255099999999999
 20
158.596
 30
0.0
 11
48.405099999999997
 21
158.596
 31
0.0
  0
LINE
  5
257
  8
0
 62
     7
 10
54.251100000000001
 20
159.31700000000001
 30
0.0
 11
51.984200000000001
 21
159.68100000000001
 31
0.0
  0
ARC
  5
258
  8
0
 62
     7
 10
51.794212000000002
 20
158.49789499999989
 30
0.0
 40
1.198620999999999
 50
80.878090999999984
 51
90.023464999999987
  0
ARC
  5
259
  8
0
 62
     7
 10
54.505113999999992
 20
160.89670899999999
 30
0.0
 40
1.600171
 50
269.99693600000001
 51
359.99690600000002
  0
ARC
  5
25A
  8
0
 62
     7
 10
54.504103000000001
 20
160.88098299999999
 30
0.0
 40
1.5844450000000001
 50
260.81255399999992
 51
270.03344399999992
  0
LINE
  5
25B
  8
0
  6
AIGENLINE001
 62
     7
 10
58.2087
 20
160.89699999999999
 30
0.0
 11
38.629399999999997
 21
160.89699999999999
 31
0.0
  0
LINE
  5
25C
  8
0
 62
     7
 10
51.793700000000001
 20
162.09699999999989
 30
0.0
 11
51.479199999999999
 21
162.09699999999989
 31
0.0
  0
LINE
  5
25D
  8
0
 62
     7
 10
54.251100000000001
 20
162.476
 30
0.0
 11
51.984200000000001
 21
162.11199999999991
 31
0.0
  0
ARC
  5
25E
  8
0
 62
     7
 10
51.790939999999999
 20
163.33630299999999
 30
0.0
 40
1.2397489999999991
 50
270.12853899999988
 51
278.96990499999993
  0
ARC
  5
25F
  8
0
 62
     7
 10
51.481507999999998
 20
163.30710500000001
 30
0.0
 40
1.210550999999999
 50
246.82639499999999
 51
269.88991199999998
  0
ARC
  5
260
  8
0
 62
     7
 10
54.454335999999998
 20
160.82608899999991
 30
0.0
 40
1.6625859999999999
 50
11.252966000000001
 51
97.020643000000007
  0
ARC
  5
261
  8
0
 62
     7
 10
54.467663000000002
 20
160.89328999999989
 30
0.0
 40
1.637626
 50
0.116594
 51
9.0374269999999992
  0
LINE
  5
262
  8
0
 62
     7
 10
51.005099999999992
 20
162.197
 30
0.0
 11
49.337699999999991
 21
162.197
 31
0.0
  0
LINE
  5
263
  8
0
 62
     7
 10
50.605200000000004
 20
163.197
 30
0.0
 11
48.405099999999997
 21
163.197
 31
0.0
  0
LINE
  5
264
  8
0
 62
     7
 10
51.005099999999992
 20
162.79699999999991
 30
0.0
 11
51.005099999999992
 21
162.197
 31
0.0
  0
ARC
  5
265
  8
0
 62
     7
 10
50.589857000000002
 20
162.781307
 30
0.0
 40
0.415558
 50
2.109726999999999
 51
87.890263000000004
  0
LINE
  5
266
  8
0
  6
AIGENLINE001
 62
     7
 10
48.405099999999997
 20
165.3829999999999
 30
0.0
 11
48.405099999999997
 21
127.977
 31
0.0
  0
ARC
  5
267
  8
0
 62
     7
 10
48.405103999999987
 20
160.89662200000001
 30
0.0
 40
1.599912999999999
 50
90.0
 51
179.99996999999991
  0
ARC
  5
268
  8
0
 62
     7
 10
48.405102999999997
 20
160.89662200000001
 30
0.0
 40
1.599912999999999
 50
0.00001
 51
89.999980000000008
  0
ARC
  5
269
  8
0
 62
     7
 10
48.405017000000001
 20
160.896537
 30
0.0
 40
1.5999989999999991
 50
270.00310400000001
 51
0.003074
  0
ARC
  5
26A
  8
0
 62
     7
 10
48.405189
 20
160.896536
 30
0.0
 40
1.599998
 50
179.99688599999999
 51
269.99693600000001
  0
LINE
  5
26B
  8
0
 62
     7
 10
46.505099999999992
 20
131.89599999999999
 30
0.0
 11
46.305
 21
132.096
 31
0.0
  0
LINE
  5
26C
  8
0
 62
     7
 10
50.305100000000003
 20
131.89599999999999
 30
0.0
 11
50.504899999999992
 21
132.096
 31
0.0
  0
LINE
  5
26D
  8
0
 62
     7
 10
50.504899999999992
 20
129.696
 30
0.0
 11
50.305100000000003
 21
129.49700000000001
 31
0.0
  0
LINE
  5
26E
  8
0
 62
     7
 10
46.305
 20
129.696
 30
0.0
 11
46.505099999999992
 21
129.49700000000001
 31
0.0
  0
LINE
  5
26F
  8
0
 62
     7
 10
50.504899999999992
 20
129.696
 30
0.0
 11
46.305
 21
129.696
 31
0.0
  0
LINE
  5
270
  8
0
 62
     7
 10
46.505099999999992
 20
131.89599999999999
 30
0.0
 11
46.505099999999992
 21
129.49700000000001
 31
0.0
  0
LINE
  5
271
  8
0
 62
     7
 10
50.305100000000003
 20
129.49700000000001
 30
0.0
 11
50.305100000000003
 21
131.89599999999999
 31
0.0
  0
LINE
  5
272
  8
0
 62
     7
 10
50.504899999999992
 20
129.696
 30
0.0
 11
50.504899999999992
 21
132.89599999999999
 31
0.0
  0
LINE
  5
273
  8
0
 62
     7
 10
46.305
 20
132.89599999999999
 30
0.0
 11
46.305
 21
129.696
 31
0.0
  0
LINE
  5
274
  8
0
 62
     7
 10
50.305100000000003
 20
129.49700000000001
 30
0.0
 11
46.505099999999992
 21
129.49700000000001
 31
0.0
  0
LINE
  5
275
  8
0
 62
     7
 10
50.504899999999992
 20
131.89599999999999
 30
0.0
 11
46.305
 21
131.89599999999999
 31
0.0
  0
LINE
  5
276
  8
0
 62
     7
 10
51.005099999999992
 20
132.89599999999999
 30
0.0
 11
45.805100000000003
 21
132.89599999999999
 31
0.0
  0
LINE
  5
277
  8
0
 62
     7
 10
51.005099999999992
 20
138.69599999999991
 30
0.0
 11
50.805300000000003
 21
138.89599999999999
 31
0.0
  0
LINE
  5
278
  8
0
 62
     7
 10
45.805100000000003
 20
138.69599999999991
 30
0.0
 11
46.004899999999992
 21
138.89599999999999
 31
0.0
  0
LINE
  5
279
  8
0
 62
     7
 10
50.805300000000003
 20
138.89599999999999
 30
0.0
 11
50.805300000000003
 21
142.29599999999991
 31
0.0
  0
LINE
  5
27A
  8
0
 62
     7
 10
51.005099999999992
 20
136.49700000000001
 30
0.0
 11
51.005099999999992
 21
142.29599999999991
 31
0.0
  0
LINE
  5
27B
  8
0
 62
     7
 10
51.005099999999992
 20
132.89599999999999
 30
0.0
 11
51.005099999999992
 21
133.49700000000001
 31
0.0
  0
LINE
  5
27C
  8
0
 62
     7
 10
46.004899999999992
 20
138.89599999999999
 30
0.0
 11
46.004899999999992
 21
142.29599999999991
 31
0.0
  0
LINE
  5
27D
  8
0
 62
     7
 10
45.805100000000003
 20
132.89599999999999
 30
0.0
 11
45.805100000000003
 21
142.29599999999991
 31
0.0
  0
LINE
  5
27E
  8
0
 62
     7
 10
51.005099999999992
 20
138.89599999999999
 30
0.0
 11
45.805100000000003
 21
138.89599999999999
 31
0.0
  0
LINE
  5
27F
  8
0
 62
     7
 10
51.869199999999999
 20
142.29599999999991
 30
0.0
 11
44.941000000000003
 21
142.29599999999991
 31
0.0
  0
LINE
  5
280
  8
0
 62
     7
 10
51.869199999999999
 20
143.29599999999999
 30
0.0
 11
51.869199999999999
 21
142.29599999999991
 31
0.0
  0
LINE
  5
281
  8
0
 62
     7
 10
50.137300000000003
 20
143.29599999999999
 30
0.0
 11
50.137300000000003
 21
142.29599999999991
 31
0.0
  0
LINE
  5
282
  8
0
 62
     7
 10
46.672899999999998
 20
143.29599999999999
 30
0.0
 11
46.672899999999998
 21
142.29599999999991
 31
0.0
  0
LINE
  5
283
  8
0
 62
     7
 10
44.941000000000003
 20
143.29599999999999
 30
0.0
 11
44.941000000000003
 21
142.29599999999991
 31
0.0
  0
LINE
  5
284
  8
0
 62
     7
 10
43.904699999999991
 20
143.29599999999999
 30
0.0
 11
43.904699999999991
 21
143.49600000000001
 31
0.0
  0
LINE
  5
285
  8
0
 62
     7
 10
52.905500000000004
 20
143.29599999999999
 30
0.0
 11
52.905500000000004
 21
143.49600000000001
 31
0.0
  0
LINE
  5
286
  8
0
 62
     7
 10
52.905500000000004
 20
143.29599999999999
 30
0.0
 11
43.904699999999991
 21
143.29599999999999
 31
0.0
  0
LINE
  5
287
  8
0
 62
     7
 10
50.805300000000003
 20
143.696
 30
0.0
 11
50.805300000000003
 21
149.49700000000001
 31
0.0
  0
LINE
  5
288
  8
0
 62
     7
 10
51.005099999999992
 20
143.696
 30
0.0
 11
51.005099999999992
 21
149.49700000000001
 31
0.0
  0
LINE
  5
289
  8
0
 62
     7
 10
46.004899999999992
 20
143.696
 30
0.0
 11
46.004899999999992
 21
149.49700000000001
 31
0.0
  0
LINE
  5
28A
  8
0
 62
     7
 10
45.805100000000003
 20
143.696
 30
0.0
 11
45.805100000000003
 21
149.49700000000001
 31
0.0
  0
LINE
  5
28B
  8
0
 62
     7
 10
52.604999999999997
 20
143.49600000000001
 30
0.0
 11
52.604999999999997
 21
143.696
 31
0.0
  0
LINE
  5
28C
  8
0
 62
     7
 10
44.205199999999991
 20
143.49600000000001
 30
0.0
 11
44.205199999999991
 21
143.696
 31
0.0
  0
LINE
  5
28D
  8
0
 62
     7
 10
52.905500000000004
 20
143.49600000000001
 30
0.0
 11
43.904699999999991
 21
143.49600000000001
 31
0.0
  0
LINE
  5
28E
  8
0
 62
     7
 10
52.604999999999997
 20
143.696
 30
0.0
 11
44.205199999999991
 21
143.696
 31
0.0
  0
LINE
  5
28F
  8
0
 62
     7
 10
53.549399999999999
 20
150.67699999999999
 30
0.0
 11
53.901099999999992
 21
150.60599999999991
 31
0.0
  0
LINE
  5
290
  8
0
 62
     7
 10
54.532899999999991
 20
149.9489999999999
 30
0.0
 11
54.6053
 21
149.49700000000001
 31
0.0
  0
ARC
  5
291
  8
0
 62
     7
 10
53.723983999999987
 20
149.80390299999991
 30
0.0
 40
0.8218110000000001
 50
10.150099000000001
 51
77.554081000000011
  0
ARC
  5
292
  8
0
 62
     7
 10
53.902475000000003
 20
152.28130400000001
 30
0.0
 40
1.6423449999999999
 50
190.120386
 51
257.58383399999991
  0
LINE
  5
293
  8
0
 62
     7
 10
51.6935
 20
152.49600000000001
 30
0.0
 11
48.405099999999997
 21
152.49600000000001
 31
0.0
  0
ARC
  5
294
  8
0
 62
     7
 10
51.676380000000002
 20
151.876204
 30
0.0
 40
0.620424
 50
10.694601999999991
 51
88.421779999999998
  0
LINE
  5
295
  8
0
 62
     7
 10
54.6053
 20
149.49700000000001
 30
0.0
 11
48.405099999999997
 21
149.49700000000001
 31
0.0
  0
LINE
  5
296
  8
0
 62
     7
 10
43.260899999999992
 20
150.67699999999999
 30
0.0
 11
42.909100000000002
 21
150.60599999999991
 31
0.0
  0
LINE
  5
297
  8
0
 62
     7
 10
42.277299999999997
 20
149.9489999999999
 30
0.0
 11
42.204900000000002
 21
149.49700000000001
 31
0.0
  0
ARC
  5
298
  8
0
 62
     7
 10
43.085577000000001
 20
149.8045229999999
 30
0.0
 40
0.821067
 50
102.411235
 51
169.884545
  0
ARC
  5
299
  8
0
 62
     7
 10
42.909238999999999
 20
152.279856
 30
0.0
 40
1.640606999999999
 50
282.37565099999989
 51
349.92016899999999
  0
LINE
  5
29A
  8
0
 62
     7
 10
45.116700000000002
 20
152.49600000000001
 30
0.0
 11
48.405099999999997
 21
152.49600000000001
 31
0.0
  0
ARC
  5
29B
  8
0
 62
     7
 10
45.133946000000002
 20
151.8760629999999
 30
0.0
 40
0.620568
 50
91.588921999999997
 51
169.294657
  0
LINE
  5
29C
  8
0
 62
     7
 10
42.204900000000002
 20
149.49700000000001
 30
0.0
 11
48.405099999999997
 21
149.49700000000001
 31
0.0
  0
ARC
  5
29D
  8
0
 62
     7
 10
50.270738000000001
 20
162.77297300000001
 30
0.0
 40
0.48419
 50
61.031221000000002
 51
68.081271000000001
  0
ARC
  5
29E
  8
0
 62
     7
 10
49.822583000000002
 20
161.74401499999999
 30
0.0
 40
1.6063730000000001
 50
66.951992000000004
 51
71.708454000000003
  0
ARC
  5
29F
  8
0
 62
     7
 10
49.364740999999988
 20
160.35686000000001
 30
0.0
 40
3.0671330000000001
 50
71.720674000000002
 51
79.347222000000002
  0
ARC
  5
2A0
  8
0
 62
     7
 10
48.849901000000003
 20
157.882361
 30
0.0
 40
5.5943670000000001
 50
78.850080000000005
 51
84.372608
  0
ARC
  5
2A1
  8
0
 62
     7
 10
48.47199899999999
 20
154.367234
 30
0.0
 40
9.129664
 50
84.175599999999989
 51
90.419819000000004
  0
ARC
  5
2A2
  8
0
 62
     7
 10
46.566917999999987
 20
162.71739099999991
 30
0.0
 40
0.5461200000000001
 50
111.8515629999999
 51
118.663984
  0
ARC
  5
2A3
  8
0
 62
     7
 10
47.010115999999996
 20
161.684403
 30
0.0
 40
1.6700649999999999
 50
108.04757099999991
 51
112.773538
  0
ARC
  5
2A4
  8
0
 62
     7
 10
47.46493499999999
 20
160.2853419999999
 30
0.0
 40
3.1411980000000002
 50
100.433886
 51
108.029393
  0
ARC
  5
2A5
  8
0
 62
     7
 10
47.976483999999992
 20
157.77800500000001
 30
0.0
 40
5.6999269999999989
 50
95.428103000000007
 51
100.926529
  0
ARC
  5
2A6
  8
0
 62
     7
 10
48.341839999999998
 20
154.28073699999999
 30
0.0
 40
9.216133000000001
 50
89.606685999999996
 51
95.632561000000024
  0
LINE
  5
2A7
  8
0
 62
     7
 10
68.4054
 20
86.497200000000007
 30
0.0
 11
67.905500000000004
 21
86.497200000000007
 31
0.0
  0
LINE
  5
2A8
  8
0
 62
     7
 10
67.905500000000004
 20
86.497200000000007
 30
0.0
 11
67.905500000000004
 21
142.49700000000001
 31
0.0
  0
ARC
  5
2A9
  8
0
 62
     7
 10
68.521854000000005
 20
164.77732199999991
 30
0.0
 40
3.321466
 50
92.009477999999987
 51
176.49652900000001
  0
ARC
  5
2AA
  8
0
 62
     7
 10
49.907934000000012
 20
160.52718899999999
 30
0.0
 40
15.097146999999991
 50
328.00677400000001
 51
359.89584699999989
  0
LINE
  5
2AB
  8
0
 62
     7
 10
68.4054
 20
150.49700000000001
 30
0.0
 11
62.4054
 21
150.49700000000001
 31
0.0
  0
LINE
  5
2AC
  8
0
 62
     7
 10
68.4054
 20
149.49700000000001
 30
0.0
 11
61.4056
 21
149.49700000000001
 31
0.0
  0
LINE
  5
2AD
  8
0
 62
     7
 10
62.4054
 20
151.465
 30
0.0
 11
62.4054
 21
150.49700000000001
 31
0.0
  0
ARC
  5
2AE
  8
0
 62
     7
 10
64.421621000000002
 20
151.45999900000001
 30
0.0
 40
2.0162550000000001
 50
148.02370300000001
 51
179.8697949999999
  0
ARC
  5
2AF
  8
0
 62
     7
 10
62.444020000000002
 20
149.45843899999991
 30
0.0
 40
1.0391269999999999
 50
92.131505000000004
 51
177.88820499999991
  0
LINE
  5
2B0
  8
0
 62
     7
 10
65.206599999999995
 20
164.9799999999999
 30
0.0
 11
65.162499999999994
 21
164.00099999999989
 31
0.0
  0
LINE
  5
2B1
  8
0
 62
     7
 10
65.069800000000001
 20
161.93899999999991
 30
0.0
 11
65.005399999999995
 21
160.49999999999989
 31
0.0
  0
LINE
  5
2B2
  8
0
 62
     7
 10
71.604500000000002
 20
164.9799999999999
 30
0.0
 11
71.648600000000002
 21
164.00099999999989
 31
0.0
  0
LINE
  5
2B3
  8
0
 62
     7
 10
71.741299999999995
 20
161.93899999999991
 30
0.0
 11
71.805700000000002
 21
160.49999999999989
 31
0.0
  0
ARC
  5
2B4
  8
0
 62
     7
 10
68.288291000000001
 20
164.77630999999991
 30
0.0
 40
3.3224989999999992
 50
3.5198429999999989
 51
87.980277999999984
  0
ARC
  5
2B5
  8
0
 62
     7
 10
86.90035300000001
 20
160.527027
 30
0.0
 40
15.094659999999999
 50
180.10357500000001
 51
211.9984179999999
  0
LINE
  5
2B6
  8
0
 62
     7
 10
68.4054
 20
150.49700000000001
 30
0.0
 11
74.4054
 21
150.49700000000001
 31
0.0
  0
LINE
  5
2B7
  8
0
 62
     7
 10
68.4054
 20
149.49700000000001
 30
0.0
 11
75.405199999999994
 21
149.49700000000001
 31
0.0
  0
LINE
  5
2B8
  8
0
 62
     7
 10
74.4054
 20
151.465
 30
0.0
 11
74.4054
 21
150.49700000000001
 31
0.0
  0
ARC
  5
2B9
  8
0
 62
     7
 10
72.390742000000003
 20
151.46045599999991
 30
0.0
 40
2.014664999999999
 50
0.117286
 51
31.989176
  0
ARC
  5
2BA
  8
0
 62
     7
 10
74.366816999999998
 20
149.45850100000001
 30
0.0
 40
1.039062999999999
 50
2.1084629999999991
 51
87.871786999999998
  0
LINE
  5
2BB
  8
0
 62
     7
 10
66.005499999999998
 20
162.57499999999999
 30
0.0
 11
66.005499999999998
 21
161.49700000000001
 31
0.0
  0
LINE
  5
2BC
  8
0
 62
     7
 10
70.805599999999998
 20
161.49700000000001
 30
0.0
 11
70.805599999999998
 21
162.57499999999999
 31
0.0
  0
ARC
  5
2BD
  8
0
 62
     7
 10
70.295900000000003
 20
162.573669
 30
0.0
 40
0.5097040000000001
 50
0.197722
 51
36.373878999999988
  0
ARC
  5
2BE
  8
0
 62
     7
 10
70.005651
 20
162.396187
 30
0.0
 40
0.8491610000000001
 50
34.401271000000001
 51
48.44460999999999
  0
ARC
  5
2BF
  8
0
 62
     7
 10
69.666196999999997
 20
162.03205600000001
 30
0.0
 40
1.346878
 50
47.913927000000001
 51
59.689276999999997
  0
ARC
  5
2C0
  8
0
 62
     7
 10
69.242819999999995
 20
161.34674200000001
 30
0.0
 40
2.1522739999999998
 50
59.166662000000002
 51
68.245729999999995
  0
ARC
  5
2C1
  8
0
 62
     7
 10
68.795935999999983
 20
160.27311700000001
 30
0.0
 40
3.3151079999999999
 50
67.949419999999975
 51
78.689020999999997
  0
ARC
  5
2C2
  8
0
 62
     7
 10
68.442835000000002
 20
158.73022800000001
 30
0.0
 40
4.8974789999999988
 50
78.178594000000004
 51
90.434072999999984
  0
ARC
  5
2C3
  8
0
 62
     7
 10
68.405292000000003
 20
158.454848
 30
0.0
 40
5.172718999999999
 50
89.995121999999995
 51
103.634506
  0
ARC
  5
2C4
  8
0
 62
     7
 10
67.989413999999996
 20
160.352799
 30
0.0
 40
3.2305099999999989
 50
104.4014489999999
 51
114.904561
  0
ARC
  5
2C5
  8
0
 62
     7
 10
67.452539999999999
 20
161.56213799999989
 30
0.0
 40
1.9076740000000001
 50
115.574708
 51
125.19664999999991
  0
ARC
  5
2C6
  8
0
 62
     7
 10
66.983536999999998
 20
162.23443700000001
 30
0.0
 40
1.0879689999999991
 50
125.420129
 51
143.86828799999989
  0
ARC
  5
2C7
  8
0
 62
     7
 10
66.573249000000004
 20
162.55449400000001
 30
0.0
 40
0.568116
 50
145.5401379999999
 51
177.8882209999999
  0
ARC
  5
2C8
  8
0
 62
     7
 10
70.295900000000003
 20
161.49500299999991
 30
0.0
 40
0.5097040000000001
 50
0.197722
 51
36.373878999999988
  0
ARC
  5
2C9
  8
0
 62
     7
 10
70.005651
 20
161.31752
 30
0.0
 40
0.8491610000000001
 50
34.401271000000001
 51
48.44460999999999
  0
ARC
  5
2CA
  8
0
 62
     7
 10
69.666196999999997
 20
160.9533899999999
 30
0.0
 40
1.346878
 50
47.913927000000001
 51
59.689276999999997
  0
ARC
  5
2CB
  8
0
 62
     7
 10
69.242819999999995
 20
160.26807600000001
 30
0.0
 40
2.1522739999999998
 50
59.166662000000002
 51
68.245729999999995
  0
ARC
  5
2CC
  8
0
 62
     7
 10
68.795935999999983
 20
159.19445099999999
 30
0.0
 40
3.3151079999999999
 50
67.949419999999975
 51
78.689020999999997
  0
ARC
  5
2CD
  8
0
 62
     7
 10
68.442835000000002
 20
157.65156200000001
 30
0.0
 40
4.8974789999999988
 50
78.178594000000004
 51
90.434072999999984
  0
ARC
  5
2CE
  8
0
 62
     7
 10
68.405293999999998
 20
157.37742800000001
 30
0.0
 40
5.1714729999999998
 50
89.995141000000004
 51
103.636156
  0
ARC
  5
2CF
  8
0
 62
     7
 10
67.98978000000001
 20
159.273346
 30
0.0
 40
3.231325
 50
104.4016749999999
 51
114.902581
  0
ARC
  5
2D0
  8
0
 62
     7
 10
67.45280799999999
 20
160.482933
 30
0.0
 40
1.9082220000000001
 50
115.57163300000001
 51
125.191925
  0
ARC
  5
2D1
  8
0
 62
     7
 10
66.983699999999999
 20
161.15549399999989
 30
0.0
 40
1.088241999999999
 50
125.415232
 51
143.86075899999989
  0
ARC
  5
2D2
  8
0
 62
     7
 10
66.573211000000001
 20
161.475798
 30
0.0
 40
0.5680800000000001
 50
145.534008
 51
177.885099
  0
ARC
  5
2D3
  8
0
 62
     7
 10
66.514731000000012
 20
161.498515
 30
0.0
 40
0.5092150000000001
 50
180.19729399999991
 51
216.39705900000001
  0
ARC
  5
2D4
  8
0
 62
     7
 10
66.805868000000004
 20
161.67674
 30
0.0
 40
0.8498190000000001
 50
214.42141699999999
 51
228.4541209999999
  0
ARC
  5
2D5
  8
0
 62
     7
 10
67.153955000000011
 20
162.05276000000001
 30
0.0
 40
1.3621449999999999
 50
227.98583500000001
 51
239.6305899999999
  0
ARC
  5
2D6
  8
0
 62
     7
 10
67.569329999999994
 20
162.727463
 30
0.0
 40
2.1543389999999989
 50
239.17137199999999
 51
248.2433879999999
  0
ARC
  5
2D7
  8
0
 62
     7
 10
68.015868999999995
 20
163.80005700000001
 30
0.0
 40
3.316088999999999
 50
247.946922
 51
258.68526900000001
  0
ARC
  5
2D8
  8
0
 62
     7
 10
68.368856999999991
 20
165.34189599999991
 30
0.0
 40
4.8974109999999991
 50
258.17494199999987
 51
270.431423
  0
ARC
  5
2D9
  8
0
 62
     7
 10
68.406177999999997
 20
165.612662
 30
0.0
 40
5.1680380000000001
 50
269.99506099999991
 51
283.64427000000001
  0
ARC
  5
2DA
  8
0
 62
     7
 10
68.821391000000006
 20
163.71919999999989
 30
0.0
 40
3.2303540000000002
 50
284.40978299999989
 51
294.91261600000001
  0
ARC
  5
2DB
  8
0
 62
     7
 10
69.359065999999999
 20
162.50916699999991
 30
0.0
 40
1.9065540000000001
 50
295.57570399999997
 51
305.20292000000001
  0
ARC
  5
2DC
  8
0
 62
     7
 10
69.826754000000008
 20
161.83879899999991
 30
0.0
 40
1.089183999999999
 50
305.42880400000001
 51
323.85458799999992
  0
ARC
  5
2DD
  8
0
 62
     7
 10
70.238113999999996
 20
161.51774299999991
 30
0.0
 40
0.567874
 50
325.5322569999999
 51
357.88268499999998
  0
LINE
  5
2DE
  8
0
  6
AIGENLINE001
 62
     7
 10
68.4054
 20
84.497000000000014
 30
0.0
 11
68.4054
 21
170.28599999999989
 31
0.0
  0
LINE
  5
2DF
  8
0
 62
     7
 10
68.4054
 20
86.497200000000007
 30
0.0
 11
68.905299999999997
 21
86.497200000000007
 31
0.0
  0
LINE
  5
2E0
  8
0
 62
     7
 10
68.905299999999997
 20
86.497200000000007
 30
0.0
 11
68.905299999999997
 21
142.49700000000001
 31
0.0
  0
LINE
  5
2E1
  8
0
 62
     7
 10
91.794300000000007
 20
214.51599999999999
 30
0.0
 11
91.479699999999994
 21
214.51599999999999
 31
0.0
  0
LINE
  5
2E2
  8
0
 62
     7
 10
94.251699999999985
 20
214.8959999999999
 30
0.0
 11
91.984800000000007
 21
214.53099999999989
 31
0.0
  0
ARC
  5
2E3
  8
0
 62
     7
 10
91.793406000000004
 20
215.718129
 30
0.0
 40
1.2023909999999991
 50
270.04204900000002
 51
279.15934399999992
  0
ARC
  5
2E4
  8
0
 62
     7
 10
91.487646999999996
 20
215.73207400000001
 30
0.0
 40
1.216361
 50
218.348929
 51
269.62796200000003
  0
ARC
  5
2E5
  8
0
 62
     7
 10
94.454243999999974
 20
213.244573
 30
0.0
 40
1.663368
 50
11.272090999999991
 51
96.994448000000006
  0
ARC
  5
2E6
  8
0
 62
     7
 10
94.485906999999997
 20
213.31388699999999
 30
0.0
 40
1.6199469999999989
 50
0.067816
 51
9.0862049999999996
  0
LINE
  5
2E7
  8
0
 62
     7
 10
91.794300000000007
 20
212.1159999999999
 30
0.0
 11
91.479699999999994
 21
212.1159999999999
 31
0.0
  0
LINE
  5
2E8
  8
0
 62
     7
 10
94.251699999999985
 20
211.73599999999999
 30
0.0
 11
91.984800000000007
 21
212.101
 31
0.0
  0
ARC
  5
2E9
  8
0
 62
     7
 10
91.793145999999993
 20
210.896717
 30
0.0
 40
1.2191529999999999
 50
80.955263000000016
 51
89.946293999999995
  0
ARC
  5
2EA
  8
0
 62
     7
 10
91.490082999999998
 20
210.89454399999991
 30
0.0
 40
1.2213700000000001
 50
90.484764999999996
 51
141.538344
  0
ARC
  5
2EB
  8
0
 62
     7
 10
94.505767000000006
 20
213.315977
 30
0.0
 40
1.6000849999999991
 50
269.99385199999989
 51
359.99382200000002
  0
ARC
  5
2EC
  8
0
 62
     7
 10
94.504666999999984
 20
213.31365799999989
 30
0.0
 40
1.597766
 50
260.8899459999999
 51
270.03330299999988
  0
LINE
  5
2ED
  8
0
 62
     7
 10
87.205699999999993
 20
216.70400000000001
 30
0.0
 11
87.205699999999993
 21
216.3899999999999
 31
0.0
  0
LINE
  5
2EE
  8
0
 62
     7
 10
86.826099999999997
 20
219.16199999999989
 30
0.0
 11
87.190600000000003
 21
216.89500000000001
 31
0.0
  0
ARC
  5
2EF
  8
0
 62
     7
 10
85.970477000000002
 20
216.701998
 30
0.0
 40
1.2352620000000001
 50
0.112439
 51
8.9859840000000002
  0
ARC
  5
2F0
  8
0
 62
     7
 10
85.986738999999986
 20
216.39925400000001
 30
0.0
 40
1.219033
 50
308.4091049999999
 51
359.55954200000002
  0
ARC
  5
2F1
  8
0
 62
     7
 10
88.461216000000007
 20
219.4204859999999
 30
0.0
 40
1.655464
 50
180.15870200000001
 51
188.98917899999989
  0
ARC
  5
2F2
  8
0
 62
     7
 10
88.405670999999984
 20
219.41590099999991
 30
0.0
 40
1.599912999999999
 50
90.0
 51
179.99996999999991
  0
LINE
  5
2F3
  8
0
 62
     7
 10
89.605599999999995
 20
216.70400000000001
 30
0.0
 11
89.605599999999995
 21
216.3899999999999
 31
0.0
  0
LINE
  5
2F4
  8
0
 62
     7
 10
89.985299999999995
 20
219.16199999999989
 30
0.0
 11
89.620800000000003
 21
216.89500000000001
 31
0.0
  0
ARC
  5
2F5
  8
0
 62
     7
 10
90.819647999999987
 20
216.70368599999989
 30
0.0
 40
1.2140429999999991
 50
170.9362919999999
 51
179.9652449999999
  0
ARC
  5
2F6
  8
0
 62
     7
 10
90.82786999999999
 20
216.400848
 30
0.0
 40
1.2223129999999991
 50
180.5140429999999
 51
231.517349
  0
ARC
  5
2F7
  8
0
 62
     7
 10
88.405670999999984
 20
219.41590099999991
 30
0.0
 40
1.599912999999999
 50
0.00001
 51
89.999980000000008
  0
ARC
  5
2F8
  8
0
 62
     7
 10
88.392118999999994
 20
219.41496599999999
 30
0.0
 40
1.613464999999999
 50
350.97336299999989
 51
0.033202
  0
LINE
  5
2F9
  8
0
 62
     7
 10
85.017099999999999
 20
212.1159999999999
 30
0.0
 11
85.331599999999995
 21
212.1159999999999
 31
0.0
  0
LINE
  5
2FA
  8
0
 62
     7
 10
82.559700000000007
 20
211.73599999999999
 30
0.0
 11
84.826499999999996
 21
212.101
 31
0.0
  0
ARC
  5
2FB
  8
0
 62
     7
 10
85.019483999999991
 20
210.8805339999999
 30
0.0
 40
1.2353379999999989
 50
90.112703999999994
 51
98.985699999999994
  0
ARC
  5
2FC
  8
0
 62
     7
 10
85.323699000000005
 20
210.89954399999999
 30
0.0
 40
1.2163520000000001
 50
38.348700999999991
 51
89.628150000000005
  0
ARC
  5
2FD
  8
0
 62
     7
 10
82.305894999999978
 20
213.31621499999989
 30
0.0
 40
1.600414999999999
 50
189.14344500000001
 51
279.12313399999988
  0
ARC
  5
2FE
  8
0
 62
     7
 10
82.298203000000001
 20
213.31338099999991
 30
0.0
 40
1.5923709999999991
 50
179.91277999999991
 51
189.08673099999999
  0
LINE
  5
2FF
  8
0
 62
     7
 10
85.017099999999999
 20
214.51599999999999
 30
0.0
 11
85.331599999999995
 21
214.51599999999999
 31
0.0
  0
LINE
  5
300
  8
0
 62
     7
 10
82.559700000000007
 20
214.8959999999999
 30
0.0
 11
84.826499999999996
 21
214.53099999999989
 31
0.0
  0
ARC
  5
301
  8
0
 62
     7
 10
85.015612000000004
 20
215.68925400000001
 30
0.0
 40
1.173516
 50
260.72826199999997
 51
270.07038399999999
  0
ARC
  5
302
  8
0
 62
     7
 10
85.322417000000002
 20
215.734692
 30
0.0
 40
1.2189879999999991
 50
270.43130400000001
 51
321.59184399999998
  0
ARC
  5
303
  8
0
 62
     7
 10
82.305832999999993
 20
213.31589
 30
0.0
 40
1.5999989999999991
 50
90.003084000000015
 51
180.003094
  0
ARC
  5
304
  8
0
 62
     7
 10
82.306673999999987
 20
213.33147799999989
 30
0.0
 40
1.5844119999999999
 50
80.812436000000019
 51
90.033522000000005
  0
LINE
  5
305
  8
0
 62
     7
 10
89.605599999999995
 20
209.92699999999999
 30
0.0
 11
89.605599999999995
 21
210.24199999999999
 31
0.0
  0
LINE
  5
306
  8
0
 62
     7
 10
89.985299999999995
 20
207.46999999999991
 30
0.0
 11
89.620800000000003
 21
209.73699999999999
 31
0.0
  0
ARC
  5
307
  8
0
 62
     7
 10
90.840865000000008
 20
209.92961099999999
 30
0.0
 40
1.2352620000000001
 50
180.11245899999989
 51
188.98600400000001
  0
ARC
  5
308
  8
0
 62
     7
 10
90.824957999999995
 20
210.2323549999999
 30
0.0
 40
1.2193889999999989
 50
128.41716700000001
 51
179.559665
  0
ARC
  5
309
  8
0
 62
     7
 10
88.405784999999995
 20
207.21594599999989
 30
0.0
 40
1.6000799999999991
 50
279.12631899999991
 51
9.1280610000000006
  0
ARC
  5
30A
  8
0
 62
     7
 10
88.411406999999997
 20
207.14013399999999
 30
0.0
 40
1.5243489999999991
 50
269.78439700000001
 51
279.36964399999999
  0
LINE
  5
30B
  8
0
 62
     7
 10
87.205699999999993
 20
209.92699999999999
 30
0.0
 11
87.205699999999993
 21
210.24199999999999
 31
0.0
  0
LINE
  5
30C
  8
0
 62
     7
 10
86.826099999999997
 20
207.46999999999991
 30
0.0
 11
87.190600000000003
 21
209.73699999999999
 31
0.0
  0
ARC
  5
30D
  8
0
 62
     7
 10
85.991693999999995
 20
209.92792299999999
 30
0.0
 40
1.2140429999999991
 50
350.93631099999988
 51
359.96526499999987
  0
ARC
  5
30E
  8
0
 62
     7
 10
85.985352000000006
 20
210.23185199999989
 30
0.0
 40
1.2204239999999991
 50
0.463573
 51
51.559554999999989
  0
LINE
  5
30F
  8
0
  6
AIGENLINE001
 62
     7
 10
88.405699999999996
 20
204.93999999999991
 30
0.0
 11
88.405699999999996
 21
213.31599999999989
 31
0.0
  0
LINE
  5
310
  8
0
  6
AIGENLINE001
 62
     7
 10
88.405699999999996
 20
213.31599999999989
 30
0.0
 11
88.405699999999996
 21
221.69099999999989
 31
0.0
  0
ARC
  5
311
  8
0
 62
     7
 10
88.405756999999994
 20
207.21579299999991
 30
0.0
 40
1.599998
 50
179.99688599999999
 51
269.99693600000001
  0
ARC
  5
312
  8
0
 62
     7
 10
88.390230000000003
 20
207.21680199999989
 30
0.0
 40
1.584471999999999
 50
170.812603
 51
180.033376
  0
ARC
  5
313
  8
0
 62
     7
 10
88.486172999999994
 20
213.2353029999999
 30
0.0
 40
2.182131
 50
92.114187999999999
 51
177.88578299999989
  0
ARC
  5
314
  8
0
 62
     7
 10
88.405670999999984
 20
213.31580400000001
 30
0.0
 40
2.1001439999999989
 50
0.00001
 51
89.999980000000008
  0
ARC
  5
315
  8
0
 62
     7
 10
88.405756999999994
 20
213.31589099999999
 30
0.0
 40
2.1000580000000002
 50
269.99767000000003
 51
359.99763999999999
  0
ARC
  5
316
  8
0
 62
     7
 10
88.486176
 20
213.39648799999989
 30
0.0
 40
2.1821399999999991
 50
182.11898400000001
 51
267.88574599999993
  0
ARC
  5
317
  8
0
 62
     7
 10
88.405670999999984
 20
213.31580400000001
 30
0.0
 40
2.600029999999999
 50
90.0
 51
179.99996999999991
  0
ARC
  5
318
  8
0
 62
     7
 10
88.405670000000001
 20
213.31580400000001
 30
0.0
 40
2.600029999999999
 50
0.00001
 51
89.999980000000008
  0
ARC
  5
319
  8
0
 62
     7
 10
88.405670000000001
 20
213.31580500000001
 30
0.0
 40
2.600029999999999
 50
270.00002000000001
 51
359.99998999999991
  0
ARC
  5
31A
  8
0
 62
     7
 10
88.405670000000001
 20
213.31580400000001
 30
0.0
 40
2.600029999999999
 50
179.99996999999991
 51
270.00002000000001
  0
ARC
  5
31B
  8
0
 62
     7
 10
88.409598999999986
 20
213.31912399999999
 30
0.0
 40
2.7050169999999989
 50
217.92709300000001
 51
232.05195299999991
  0
ARC
  5
31C
  8
0
 62
     7
 10
88.405948999999993
 20
213.314919
 30
0.0
 40
2.6991139999999989
 50
307.93254300000001
 51
322.08845000000002
  0
ARC
  5
31D
  8
0
 62
     7
 10
88.409487999999996
 20
213.31962200000001
 30
0.0
 40
2.6946259999999991
 50
37.911497999999987
 51
52.088491999999988
  0
ARC
  5
31E
  8
0
 62
     7
 10
88.405393000000004
 20
213.31686199999999
 30
0.0
 40
2.6991139999999989
 50
127.9325229999999
 51
142.08842999999999
  0
ARC
  5
31F
  8
0
 62
     7
 10
88.433672999999999
 20
213.34409999999991
 30
0.0
 40
3.236739
 50
202.39948100000001
 51
247.60615899999999
  0
ARC
  5
320
  8
0
 62
     7
 10
88.375393000000017
 20
213.34637499999999
 30
0.0
 40
3.2397099999999992
 50
292.41573599999992
 51
337.578664
  0
ARC
  5
321
  8
0
 62
     7
 10
88.372646000000003
 20
213.28277899999989
 30
0.0
 40
3.2431860000000001
 50
22.442902
 51
67.557087999999993
  0
ARC
  5
322
  8
0
 62
     7
 10
88.437861999999996
 20
213.283613
 30
0.0
 40
3.2420969999999998
 50
112.4348989999999
 51
157.5650719999999
  0
ARC
  5
323
  8
0
 62
     7
 10
88.508602999999994
 20
213.41870899999989
 30
0.0
 40
6.3264069999999988
 50
195.578687
 51
254.41460499999999
  0
ARC
  5
324
  8
0
 62
     7
 10
88.301492999999994
 20
213.41995399999999
 30
0.0
 40
6.327941
 50
285.59324800000002
 51
344.4135
  0
ARC
  5
325
  8
0
 62
     7
 10
88.302738999999988
 20
213.21289999999991
 30
0.0
 40
6.3264069999999988
 50
15.578666999999999
 51
74.414586
  0
ARC
  5
326
  8
0
 62
     7
 10
88.509849000000003
 20
213.21165400000001
 30
0.0
 40
6.327941
 50
105.5932279999999
 51
164.41347999999991
  0
LINE
  5
327
  8
0
  6
AIGENLINE001
 62
     7
 10
68.4054
 20
179.27799999999999
 30
0.0
 11
68.4054
 21
222.34399999999999
 31
0.0
  0
LINE
  5
328
  8
0
  6
AIGENLINE001
 62
     7
 10
38.357900000000001
 20
213.31599999999989
 30
0.0
 11
98.338499999999996
 21
213.31599999999989
 31
0.0
  0
LINE
  5
329
  8
0
 62
     7
 10
65.510099999999994
 20
186.249
 30
0.0
 11
63.883999999999993
 21
210.47199999999989
 31
0.0
  0
LINE
  5
32A
  8
0
 62
     7
 10
71.300700000000006
 20
186.249
 30
0.0
 11
72.9268
 21
210.47199999999989
 31
0.0
  0
ARC
  5
32B
  8
0
 62
     7
 10
67.97733199999999
 20
184.9595709999999
 30
0.0
 40
3.3704399999999999
 50
138.6530479999999
 51
181.07382699999991
  0
ARC
  5
32C
  8
0
 62
     7
 10
67.876762999999997
 20
185.0375379999999
 30
0.0
 40
3.2723239999999998
 50
182.47186600000001
 51
223.4957269999999
  0
ARC
  5
32D
  8
0
 62
     7
 10
68.173626999999996
 20
185.27623999999989
 30
0.0
 40
3.6521080000000001
 50
223.006699
 51
233.8711559999999
  0
ARC
  5
32E
  8
0
 62
     7
 10
68.382415000000009
 20
185.760895
 30
0.0
 40
4.1683089999999989
 50
235.48121599999999
 51
315.66194899999999
  0
ARC
  5
32F
  8
0
 62
     7
 10
68.828959999999995
 20
185.07905500000001
 30
0.0
 40
3.376962999999999
 50
318.64240299999989
 51
358.94575900000001
  0
ARC
  5
330
  8
0
 62
     7
 10
68.954118000000008
 20
185.00335000000001
 30
0.0
 40
3.2512620000000001
 50
0.239177
 51
42.17266
  0
ARC
  5
331
  8
0
 62
     7
 10
67.965018000000001
 20
185.20117500000001
 30
0.0
 40
2.9282430000000002
 50
148.18636099999989
 51
224.74031400000001
  0
ARC
  5
332
  8
0
 62
     7
 10
68.210945999999993
 20
185.48883000000001
 30
0.0
 40
3.3055529999999989
 50
225.28138100000001
 51
242.37757799999989
  0
ARC
  5
333
  8
0
 62
     7
 10
68.390431000000007
 20
185.92148999999989
 30
0.0
 40
3.7723449999999992
 50
243.00900499999989
 51
308.72086100000001
  0
ARC
  5
334
  8
0
 62
     7
 10
68.685091
 20
185.38897700000001
 30
0.0
 40
3.174237999999999
 50
310.58410199999997
 51
326.5667259999999
  0
ARC
  5
335
  8
0
 62
     7
 10
68.917001999999997
 20
185.22161999999989
 30
0.0
 40
2.888517999999999
 50
326.80253700000009
 51
359.42138999999992
  0
ARC
  5
336
  8
0
 62
     7
 10
68.991407999999993
 20
185.18586999999999
 30
0.0
 40
2.8139729999999989
 50
0.133987
 51
33.642085999999992
  0
ARC
  5
337
  8
0
 62
     7
 10
68.405387000000005
 20
213.31580400000001
 30
0.0
 40
2.2999610000000001
 50
0.00001
 51
89.999980000000008
  0
ARC
  5
338
  8
0
 62
     7
 10
68.405214999999998
 20
213.31563199999991
 30
0.0
 40
2.3001330000000002
 50
89.995709000000005
 51
179.99567899999991
  0
ARC
  5
339
  8
0
 62
     7
 10
68.405300999999994
 20
213.31589
 30
0.0
 40
2.3002180000000001
 50
180.0021549999999
 51
270.00216499999999
  0
ARC
  5
33A
  8
0
 62
     7
 10
68.405300999999994
 20
213.31571899999989
 30
0.0
 40
2.3000470000000002
 50
270.00216499999999
 51
0.002136
  0
ARC
  5
33B
  8
0
 62
     7
 10
68.405300999999994
 20
213.31589
 30
0.0
 40
2.7999329999999998
 50
359.99824699999999
 51
89.998218000000008
  0
ARC
  5
33C
  8
0
 62
     7
 10
68.405300999999994
 20
213.31571799999989
 30
0.0
 40
2.8001059999999991
 50
89.998237999999986
 51
179.99820800000001
  0
ARC
  5
33D
  8
0
 62
     7
 10
68.405300999999994
 20
213.31589
 30
0.0
 40
2.800104999999999
 50
180.0017719999999
 51
270.00178199999988
  0
ARC
  5
33E
  8
0
 62
     7
 10
68.405300999999994
 20
213.31571899999989
 30
0.0
 40
2.7999329999999998
 50
270.00178199999988
 51
0.001753
  0
ARC
  5
33F
  8
0
 62
     7
 10
68.338305000000005
 20
213.34169800000001
 30
0.0
 40
6.0671540000000004
 50
318.00138799999991
 51
359.75546800000001
  0
ARC
  5
340
  8
0
 62
     7
 10
68.405385999999993
 20
213.3158029999999
 30
0.0
 40
6.0000169999999988
 50
0.00001
 51
89.999980000000008
  0
ARC
  5
341
  8
0
 62
     7
 10
68.405388000000002
 20
213.3158029999999
 30
0.0
 40
6.0000169999999988
 50
90.0
 51
179.99996999999991
  0
ARC
  5
342
  8
0
 62
     7
 10
68.470875000000007
 20
213.34069700000001
 30
0.0
 40
6.0655549999999998
 50
180.23515999999989
 51
221.99950699999991
  0
ARC
  5
343
  8
0
 62
     7
 10
68.296645999999996
 20
213.36813399999991
 30
0.0
 40
7.1087229999999986
 50
308.782804
 51
359.57822499999997
  0
ARC
  5
344
  8
0
 62
     7
 10
68.405299999999997
 20
213.315889
 30
0.0
 40
6.9998769999999997
 50
359.99930499999999
 51
89.999274999999997
  0
ARC
  5
345
  8
0
 62
     7
 10
68.405302000000006
 20
213.31571700000001
 30
0.0
 40
7.0000489999999997
 50
89.999294999999975
 51
179.99926499999989
  0
ARC
  5
346
  8
0
 62
     7
 10
68.513862000000003
 20
213.36817199999999
 30
0.0
 40
7.1088019999999998
 50
180.4220949999999
 51
231.21691499999989
  0
LINE
  5
347
  8
0
 62
     7
 10
91.405699999999996
 20
152.49600000000001
 30
0.0
 11
88.405699999999996
 21
152.49600000000001
 31
0.0
  0
ARC
  5
348
  8
0
 62
     7
 10
91.390356999999995
 20
152.91168099999999
 30
0.0
 40
0.41557
 50
272.11303500000002
 51
357.93630400000001
  0
ARC
  5
349
  8
0
 62
     7
 10
91.390381000000005
 20
152.88141799999991
 30
0.0
 40
0.415558
 50
2.109726999999999
 51
87.890263000000004
  0
LINE
  5
34A
  8
0
 62
     7
 10
90.105800000000002
 20
157.59700000000001
 30
0.0
 11
90.105800000000002
 21
157.352
 31
0.0
  0
LINE
  5
34B
  8
0
 62
     7
 10
90.239900000000006
 20
156.852
 30
0.0
 11
91.137600000000006
 21
155.297
 31
0.0
  0
ARC
  5
34C
  8
0
 62
     7
 10
91.115048000000002
 20
157.35399099999989
 30
0.0
 40
1.0092139999999989
 50
180.116398
 51
209.82510500000001
  0
LINE
  5
34D
  8
0
 62
     7
 10
91.405699999999996
 20
154.285
 30
0.0
 11
91.405699999999996
 21
153.29699999999991
 31
0.0
  0
ARC
  5
34E
  8
0
 62
     7
 10
89.390443999999974
 20
154.292361
 30
0.0
 40
2.0152389999999989
 50
0.116727
 51
29.888553999999999
  0
LINE
  5
34F
  8
0
 62
     7
 10
91.405699999999996
 20
153.29599999999991
 30
0.0
 11
88.405699999999996
 21
153.29599999999991
 31
0.0
  0
LINE
  5
350
  8
0
 62
     7
 10
90.105800000000002
 20
157.59700000000001
 30
0.0
 11
90.267399999999995
 21
158.67500000000001
 31
0.0
  0
LINE
  5
351
  8
0
 62
     7
 10
91.794300000000007
 20
159.69699999999989
 30
0.0
 11
91.453900000000004
 21
159.69699999999989
 31
0.0
  0
ARC
  5
352
  8
0
 62
     7
 10
91.488054000000005
 20
158.4571379999999
 30
0.0
 40
1.2398480000000001
 50
91.578038000000006
 51
169.90206599999991
  0
LINE
  5
353
  8
0
 62
     7
 10
90.255700000000004
 20
158.596
 30
0.0
 11
88.405699999999996
 21
158.596
 31
0.0
  0
LINE
  5
354
  8
0
 62
     7
 10
94.251699999999985
 20
159.31700000000001
 30
0.0
 11
91.984800000000007
 21
159.68100000000001
 31
0.0
  0
ARC
  5
355
  8
0
 62
     7
 10
91.795567000000005
 20
158.50779900000001
 30
0.0
 40
1.1887179999999991
 50
80.839916000000002
 51
90.061639999999997
  0
ARC
  5
356
  8
0
 62
     7
 10
94.454903000000016
 20
160.966984
 30
0.0
 40
1.6625859999999999
 50
262.97935699999988
 51
348.74703399999999
  0
ARC
  5
357
  8
0
 62
     7
 10
94.468256999999994
 20
160.89977799999991
 30
0.0
 40
1.6375989999999989
 50
350.9625769999999
 51
359.8895819999999
  0
LINE
  5
358
  8
0
 62
     7
 10
91.794300000000007
 20
162.09699999999989
 30
0.0
 11
91.479699999999994
 21
162.09699999999989
 31
0.0
  0
LINE
  5
359
  8
0
 62
     7
 10
94.251699999999985
 20
162.476
 30
0.0
 11
91.984800000000007
 21
162.11199999999991
 31
0.0
  0
ARC
  5
35A
  8
0
 62
     7
 10
91.793145999999993
 20
163.31571
 30
0.0
 40
1.2191529999999999
 50
270.05370599999998
 51
279.04473699999988
  0
ARC
  5
35B
  8
0
 62
     7
 10
91.479568999999998
 20
163.29494299999999
 30
0.0
 40
1.1983859999999991
 50
246.70770899999999
 51
270.00859800000001
  0
ARC
  5
35C
  8
0
 62
     7
 10
94.505767000000006
 20
160.8964499999999
 30
0.0
 40
1.6000849999999991
 50
0.006178
 51
90.006147999999996
  0
ARC
  5
35D
  8
0
 62
     7
 10
94.504667999999995
 20
160.91212400000001
 30
0.0
 40
1.5844119999999999
 50
89.966457999999989
 51
99.187544000000003
  0
LINE
  5
35E
  8
0
 62
     7
 10
91.005700000000004
 20
162.197
 30
0.0
 11
89.338300000000004
 21
162.197
 31
0.0
  0
LINE
  5
35F
  8
0
 62
     7
 10
90.605699999999999
 20
163.197
 30
0.0
 11
88.405699999999996
 21
163.197
 31
0.0
  0
LINE
  5
360
  8
0
 62
     7
 10
91.005700000000004
 20
162.79699999999991
 30
0.0
 11
91.005700000000004
 21
162.197
 31
0.0
  0
ARC
  5
361
  8
0
 62
     7
 10
90.590424999999996
 20
162.781307
 30
0.0
 40
0.415558
 50
2.109726999999999
 51
87.890263000000004
  0
LINE
  5
362
  8
0
 62
     7
 10
85.405699999999996
 20
152.49600000000001
 30
0.0
 11
88.405699999999996
 21
152.49600000000001
 31
0.0
  0
ARC
  5
363
  8
0
 62
     7
 10
85.420961000000005
 20
152.88141799999991
 30
0.0
 40
0.415558
 50
92.109700000000004
 51
177.8902709999999
  0
ARC
  5
364
  8
0
 62
     7
 10
85.421299000000005
 20
152.91198
 30
0.0
 40
0.415894
 50
182.10341699999989
 51
267.79791199999988
  0
LINE
  5
365
  8
0
 62
     7
 10
85.405299999999997
 20
152.49600000000001
 30
0.0
 11
85.405699999999996
 21
152.49600000000001
 31
0.0
  0
LINE
  5
366
  8
0
 62
     7
 10
86.705500000000001
 20
157.59700000000001
 30
0.0
 11
86.705500000000001
 21
157.352
 31
0.0
  0
LINE
  5
367
  8
0
 62
     7
 10
86.571499999999986
 20
156.852
 30
0.0
 11
85.673699999999997
 21
155.297
 31
0.0
  0
ARC
  5
368
  8
0
 62
     7
 10
85.702219999999997
 20
157.35300599999991
 30
0.0
 40
1.003287
 50
330.04563999999988
 51
359.93920600000001
  0
LINE
  5
369
  8
0
 62
     7
 10
85.405699999999996
 20
154.285
 30
0.0
 11
85.405699999999996
 21
153.29699999999991
 31
0.0
  0
ARC
  5
36A
  8
0
 62
     7
 10
87.417093000000008
 20
154.29338100000001
 30
0.0
 40
2.0114320000000001
 50
150.0825989999999
 51
179.91208
  0
LINE
  5
36B
  8
0
 62
     7
 10
85.405699999999996
 20
153.29599999999991
 30
0.0
 11
88.405699999999996
 21
153.29599999999991
 31
0.0
  0
LINE
  5
36C
  8
0
 62
     7
 10
86.705500000000001
 20
157.59700000000001
 30
0.0
 11
86.543899999999994
 21
158.67500000000001
 31
0.0
  0
LINE
  5
36D
  8
0
 62
     7
 10
85.017099999999999
 20
159.69699999999989
 30
0.0
 11
85.357099999999988
 21
159.69699999999989
 31
0.0
  0
ARC
  5
36E
  8
0
 62
     7
 10
85.323044999999993
 20
158.4568449999999
 30
0.0
 40
1.2401379999999991
 50
10.109282
 51
88.427024000000003
  0
LINE
  5
36F
  8
0
 62
     7
 10
86.555599999999984
 20
158.596
 30
0.0
 11
88.405699999999996
 21
158.596
 31
0.0
  0
LINE
  5
370
  8
0
 62
     7
 10
82.559700000000007
 20
159.31700000000001
 30
0.0
 11
84.826499999999996
 21
159.68100000000001
 31
0.0
  0
ARC
  5
371
  8
0
 62
     7
 10
85.015610999999993
 20
158.50985299999991
 30
0.0
 40
1.186663
 50
89.930339000000004
 51
99.168064000000001
  0
ARC
  5
372
  8
0
 62
     7
 10
82.305660000000003
 20
160.89670799999999
 30
0.0
 40
1.600171
 50
180.003094
 51
270.00310400000001
  0
ARC
  5
373
  8
0
 62
     7
 10
82.306670999999994
 20
160.88098299999999
 30
0.0
 40
1.5844450000000001
 50
269.96657599999992
 51
279.18746599999997
  0
LINE
  5
374
  8
0
  6
AIGENLINE001
 62
     7
 10
78.669899999999998
 20
160.89699999999999
 30
0.0
 11
98.249200000000002
 21
160.89699999999999
 31
0.0
  0
LINE
  5
375
  8
0
 62
     7
 10
85.017099999999999
 20
162.09699999999989
 30
0.0
 11
85.331599999999995
 21
162.09699999999989
 31
0.0
  0
LINE
  5
376
  8
0
 62
     7
 10
82.559700000000007
 20
162.476
 30
0.0
 11
84.826499999999996
 21
162.11199999999991
 31
0.0
  0
ARC
  5
377
  8
0
 62
     7
 10
85.018735000000007
 20
163.32247699999991
 30
0.0
 40
1.2259219999999991
 50
260.98015299999992
 51
269.92144300000001
  0
ARC
  5
378
  8
0
 62
     7
 10
85.329267000000002
 20
163.30710500000001
 30
0.0
 40
1.210550999999999
 50
270.11010800000003
 51
293.17362500000002
  0
ARC
  5
379
  8
0
 62
     7
 10
82.356437999999997
 20
160.82608899999991
 30
0.0
 40
1.6625859999999999
 50
82.979337999999998
 51
168.74701399999989
  0
ARC
  5
37A
  8
0
 62
     7
 10
82.343110999999993
 20
160.89328999999989
 30
0.0
 40
1.637626
 50
170.96255300000001
 51
179.883386
  0
LINE
  5
37B
  8
0
 62
     7
 10
85.805599999999998
 20
162.197
 30
0.0
 11
87.473100000000002
 21
162.197
 31
0.0
  0
LINE
  5
37C
  8
0
 62
     7
 10
86.205600000000004
 20
163.197
 30
0.0
 11
88.405699999999996
 21
163.197
 31
0.0
  0
LINE
  5
37D
  8
0
 62
     7
 10
85.805599999999998
 20
162.79699999999991
 30
0.0
 11
85.805599999999998
 21
162.197
 31
0.0
  0
ARC
  5
37E
  8
0
 62
     7
 10
86.220917
 20
162.781307
 30
0.0
 40
0.415558
 50
92.109700000000004
 51
177.8902709999999
  0
LINE
  5
37F
  8
0
  6
AIGENLINE001
 62
     7
 10
88.405699999999996
 20
165.3829999999999
 30
0.0
 11
88.405699999999996
 21
127.977
 31
0.0
  0
ARC
  5
380
  8
0
 62
     7
 10
88.405670999999984
 20
160.89662200000001
 30
0.0
 40
1.599912999999999
 50
0.00001
 51
89.999980000000008
  0
ARC
  5
381
  8
0
 62
     7
 10
88.405670999999984
 20
160.89662200000001
 30
0.0
 40
1.599912999999999
 50
90.0
 51
179.99996999999991
  0
ARC
  5
382
  8
0
 62
     7
 10
88.405756999999994
 20
160.896536
 30
0.0
 40
1.599998
 50
179.99688599999999
 51
269.99693600000001
  0
ARC
  5
383
  8
0
 62
     7
 10
88.40558399999999
 20
160.896537
 30
0.0
 40
1.5999989999999991
 50
270.00310400000001
 51
0.003074
  0
LINE
  5
384
  8
0
 62
     7
 10
45.016500000000001
 20
214.51599999999999
 30
0.0
 11
45.331000000000003
 21
214.51599999999999
 31
0.0
  0
LINE
  5
385
  8
0
 62
     7
 10
42.559100000000001
 20
214.8959999999999
 30
0.0
 11
44.826000000000001
 21
214.53099999999989
 31
0.0
  0
ARC
  5
386
  8
0
 62
     7
 10
45.017860999999989
 20
215.72425200000001
 30
0.0
 40
1.208513999999999
 50
260.86382099999992
 51
269.93482499999988
  0
ARC
  5
387
  8
0
 62
     7
 10
45.323130999999989
 20
215.73206499999989
 30
0.0
 40
1.2163520000000001
 50
270.37184999999988
 51
321.65129899999999
  0
ARC
  5
388
  8
0
 62
     7
 10
42.356482999999997
 20
213.24463900000001
 30
0.0
 40
1.663308999999999
 50
83.003637999999995
 51
168.729783
  0
ARC
  5
389
  8
0
 62
     7
 10
42.32486699999999
 20
213.31388699999999
 30
0.0
 40
1.6199469999999989
 50
170.91377499999999
 51
179.932164
  0
LINE
  5
38A
  8
0
 62
     7
 10
45.016500000000001
 20
212.1159999999999
 30
0.0
 11
45.331000000000003
 21
212.1159999999999
 31
0.0
  0
LINE
  5
38B
  8
0
 62
     7
 10
42.559100000000001
 20
211.73599999999999
 30
0.0
 11
44.826000000000001
 21
212.101
 31
0.0
  0
ARC
  5
38C
  8
0
 62
     7
 10
45.015042999999991
 20
210.92920699999991
 30
0.0
 40
1.186663
 50
89.930339000000004
 51
99.168064000000001
  0
ARC
  5
38D
  8
0
 62
     7
 10
45.320690999999997
 20
210.89454399999991
 30
0.0
 40
1.2213700000000001
 50
38.461636999999989
 51
89.515214999999998
  0
ARC
  5
38E
  8
0
 62
     7
 10
42.305005999999999
 20
213.31597599999989
 30
0.0
 40
1.6000840000000001
 50
180.00617800000001
 51
270.00618800000001
  0
ARC
  5
38F
  8
0
 62
     7
 10
42.306103999999991
 20
213.313692
 30
0.0
 40
1.5978000000000001
 50
269.96681399999989
 51
279.1099759999999
  0
LINE
  5
390
  8
0
 62
     7
 10
49.60499999999999
 20
216.70400000000001
 30
0.0
 11
49.60499999999999
 21
216.3899999999999
 31
0.0
  0
LINE
  5
391
  8
0
 62
     7
 10
49.984699999999997
 20
219.16199999999989
 30
0.0
 11
49.62019999999999
 21
216.89500000000001
 31
0.0
  0
ARC
  5
392
  8
0
 62
     7
 10
50.840297
 20
216.701998
 30
0.0
 40
1.2352620000000001
 50
171.01399599999999
 51
179.88754099999991
  0
ARC
  5
393
  8
0
 62
     7
 10
50.824034999999988
 20
216.39925400000001
 30
0.0
 40
1.219033
 50
180.4404779999999
 51
231.59091499999991
  0
ARC
  5
394
  8
0
 62
     7
 10
48.349558000000002
 20
219.4204859999999
 30
0.0
 40
1.655464
 50
351.01084100000003
 51
359.841318
  0
ARC
  5
395
  8
0
 62
     7
 10
48.405102999999997
 20
219.41590099999991
 30
0.0
 40
1.599912999999999
 50
0.00001
 51
89.999980000000008
  0
LINE
  5
396
  8
0
 62
     7
 10
47.205199999999991
 20
216.70400000000001
 30
0.0
 11
47.205199999999991
 21
216.3899999999999
 31
0.0
  0
LINE
  5
397
  8
0
 62
     7
 10
46.825499999999991
 20
219.16199999999989
 30
0.0
 11
47.189999999999998
 21
216.89500000000001
 31
0.0
  0
ARC
  5
398
  8
0
 62
     7
 10
45.991126000000001
 20
216.70368599999989
 30
0.0
 40
1.2140429999999991
 50
0.034735
 51
9.0636890000000001
  0
ARC
  5
399
  8
0
 62
     7
 10
45.982905000000002
 20
216.400848
 30
0.0
 40
1.2223129999999991
 50
308.48267099999993
 51
359.48597599999988
  0
ARC
  5
39A
  8
0
 62
     7
 10
48.405103999999987
 20
219.41590099999991
 30
0.0
 40
1.599912999999999
 50
90.0
 51
179.99996999999991
  0
ARC
  5
39B
  8
0
 62
     7
 10
48.418649000000002
 20
219.41496599999999
 30
0.0
 40
1.6134580000000001
 50
179.96675799999991
 51
189.02667699999989
  0
LINE
  5
39C
  8
0
 62
     7
 10
51.793700000000001
 20
212.1159999999999
 30
0.0
 11
51.479199999999999
 21
212.1159999999999
 31
0.0
  0
LINE
  5
39D
  8
0
 62
     7
 10
54.251100000000001
 20
211.73599999999999
 30
0.0
 11
51.984200000000001
 21
212.101
 31
0.0
  0
ARC
  5
39E
  8
0
 62
     7
 10
51.795333999999997
 20
210.931352
 30
0.0
 40
1.1845190000000001
 50
80.823533999999995
 51
90.078022000000004
  0
ARC
  5
39F
  8
0
 62
     7
 10
51.487074999999997
 20
210.89954399999999
 30
0.0
 40
1.2163520000000001
 50
90.371830000000003
 51
141.65127899999999
  0
ARC
  5
3A0
  8
0
 62
     7
 10
54.504879000000003
 20
213.31621499999989
 30
0.0
 40
1.600414999999999
 50
260.87688500000002
 51
350.85657500000002
  0
ARC
  5
3A1
  8
0
 62
     7
 10
54.512564000000012
 20
213.31338099999991
 30
0.0
 40
1.5923780000000001
 50
350.91330899999991
 51
0.08718
  0
LINE
  5
3A2
  8
0
 62
     7
 10
51.793700000000001
 20
214.51599999999999
 30
0.0
 11
51.479199999999999
 21
214.51599999999999
 31
0.0
  0
LINE
  5
3A3
  8
0
 62
     7
 10
54.251100000000001
 20
214.8959999999999
 30
0.0
 11
51.984200000000001
 21
214.53099999999989
 31
0.0
  0
ARC
  5
3A4
  8
0
 62
     7
 10
51.79302599999999
 20
215.71580399999999
 30
0.0
 40
1.200064999999999
 50
270.03319699999997
 51
279.16819700000002
  0
ARC
  5
3A5
  8
0
 62
     7
 10
51.488357000000001
 20
215.734692
 30
0.0
 40
1.2189879999999991
 50
218.40817599999991
 51
269.56871499999988
  0
ARC
  5
3A6
  8
0
 62
     7
 10
54.504942000000007
 20
213.31589
 30
0.0
 40
1.5999989999999991
 50
359.99692599999992
 51
89.996895999999992
  0
ARC
  5
3A7
  8
0
 62
     7
 10
54.504100999999999
 20
213.33147799999989
 30
0.0
 40
1.5844119999999999
 50
89.966457999999989
 51
99.187544000000003
  0
LINE
  5
3A8
  8
0
 62
     7
 10
47.205199999999991
 20
209.92699999999999
 30
0.0
 11
47.205199999999991
 21
210.24199999999999
 31
0.0
  0
LINE
  5
3A9
  8
0
 62
     7
 10
46.825499999999991
 20
207.46999999999991
 30
0.0
 11
47.189999999999998
 21
209.73699999999999
 31
0.0
  0
ARC
  5
3AA
  8
0
 62
     7
 10
45.969909000000001
 20
209.92961099999999
 30
0.0
 40
1.2352620000000001
 50
351.01401600000003
 51
359.88756100000001
  0
ARC
  5
3AB
  8
0
 62
     7
 10
45.985816
 20
210.2323549999999
 30
0.0
 40
1.2193889999999989
 50
0.440315
 51
51.582812999999987
  0
ARC
  5
3AC
  8
0
 62
     7
 10
48.404989
 20
207.215945
 30
0.0
 40
1.600079
 50
170.8718989999999
 51
260.87372099999999
  0
ARC
  5
3AD
  8
0
 62
     7
 10
48.399366999999991
 20
207.14013399999999
 30
0.0
 40
1.5243489999999991
 50
260.6303759999999
 51
270.21562299999988
  0
LINE
  5
3AE
  8
0
 62
     7
 10
49.60499999999999
 20
209.92699999999999
 30
0.0
 11
49.60499999999999
 21
210.24199999999999
 31
0.0
  0
LINE
  5
3AF
  8
0
 62
     7
 10
49.984699999999997
 20
207.46999999999991
 30
0.0
 11
49.62019999999999
 21
209.73699999999999
 31
0.0
  0
ARC
  5
3B0
  8
0
 62
     7
 10
50.81908099999999
 20
209.92792299999999
 30
0.0
 40
1.2140429999999991
 50
180.03475499999999
 51
189.06370799999991
  0
ARC
  5
3B1
  8
0
 62
     7
 10
50.825421999999989
 20
210.23185199999989
 30
0.0
 40
1.2204239999999991
 50
128.440425
 51
179.53640699999991
  0
LINE
  5
3B2
  8
0
  6
AIGENLINE001
 62
     7
 10
48.405099999999997
 20
204.93999999999991
 30
0.0
 11
48.405099999999997
 21
213.31599999999989
 31
0.0
  0
LINE
  5
3B3
  8
0
  6
AIGENLINE001
 62
     7
 10
48.405099999999997
 20
213.31599999999989
 30
0.0
 11
48.405099999999997
 21
221.69099999999989
 31
0.0
  0
ARC
  5
3B4
  8
0
 62
     7
 10
48.405017000000001
 20
207.2157939999999
 30
0.0
 40
1.5999989999999991
 50
270.00310400000001
 51
0.003074
  0
ARC
  5
3B5
  8
0
 62
     7
 10
48.42053700000001
 20
207.21680199999989
 30
0.0
 40
1.584479
 50
359.96666399999998
 51
9.1873579999999997
  0
ARC
  5
3B6
  8
0
 62
     7
 10
48.324601000000001
 20
213.23530199999999
 30
0.0
 40
2.182131
 50
2.1142150000000002
 51
87.885774999999995
  0
ARC
  5
3B7
  8
0
 62
     7
 10
48.405103999999987
 20
213.31580400000001
 30
0.0
 40
2.1001439999999989
 50
90.0
 51
179.99996999999991
  0
ARC
  5
3B8
  8
0
 62
     7
 10
48.405017000000001
 20
213.31589
 30
0.0
 40
2.1000570000000001
 50
180.00236000000001
 51
270.00236999999998
  0
ARC
  5
3B9
  8
0
 62
     7
 10
48.324597999999988
 20
213.39648799999989
 30
0.0
 40
2.1821410000000001
 50
272.11429100000009
 51
357.88101899999998
  0
ARC
  5
3BA
  8
0
 62
     7
 10
48.405102999999997
 20
213.31580400000001
 30
0.0
 40
2.600029999999999
 50
0.00001
 51
89.999980000000008
  0
ARC
  5
3BB
  8
0
 62
     7
 10
48.405103999999987
 20
213.31580400000001
 30
0.0
 40
2.600029999999999
 50
90.0
 51
179.99996999999991
  0
ARC
  5
3BC
  8
0
 62
     7
 10
48.405102999999997
 20
213.31580400000001
 30
0.0
 40
2.600029999999999
 50
179.99996999999991
 51
270.00002000000001
  0
ARC
  5
3BD
  8
0
 62
     7
 10
48.405102999999997
 20
213.31580500000001
 30
0.0
 40
2.600029999999999
 50
270.00002000000001
 51
359.99998999999991
  0
ARC
  5
3BE
  8
0
 62
     7
 10
48.401175000000002
 20
213.31912399999999
 30
0.0
 40
2.7050169999999989
 50
307.94806599999998
 51
322.07292699999999
  0
ARC
  5
3BF
  8
0
 62
     7
 10
48.404825000000002
 20
213.314919
 30
0.0
 40
2.6991139999999989
 50
217.91157000000001
 51
232.067477
  0
ARC
  5
3C0
  8
0
 62
     7
 10
48.401285999999992
 20
213.31962200000001
 30
0.0
 40
2.6946259999999991
 50
127.91148799999991
 51
142.088483
  0
ARC
  5
3C1
  8
0
 62
     7
 10
48.405380999999991
 20
213.31686199999999
 30
0.0
 40
2.6991139999999989
 50
37.911549999999991
 51
52.06745699999999
  0
ARC
  5
3C2
  8
0
 62
     7
 10
48.377101000000003
 20
213.34409999999991
 30
0.0
 40
3.236739
 50
292.39386100000002
 51
337.60053900000003
  0
ARC
  5
3C3
  8
0
 62
     7
 10
48.435380999999992
 20
213.34637499999999
 30
0.0
 40
3.2397099999999992
 50
202.42135500000001
 51
247.584284
  0
ARC
  5
3C4
  8
0
 62
     7
 10
48.438128000000013
 20
213.28277899999989
 30
0.0
 40
3.2431860000000001
 50
112.4428919999999
 51
157.5570779999999
  0
ARC
  5
3C5
  8
0
 62
     7
 10
48.372911999999999
 20
213.283613
 30
0.0
 40
3.2420969999999998
 50
22.434909000000001
 51
67.565081000000006
  0
ARC
  5
3C6
  8
0
 62
     7
 10
48.302171000000001
 20
213.41870899999989
 30
0.0
 40
6.3264069999999988
 50
285.58541400000001
 51
344.421333
  0
ARC
  5
3C7
  8
0
 62
     7
 10
48.509281000000001
 20
213.41995399999999
 30
0.0
 40
6.327941
 50
195.58652000000001
 51
254.40677199999999
  0
ARC
  5
3C8
  8
0
 62
     7
 10
48.50803599999999
 20
213.21289999999991
 30
0.0
 40
6.3264069999999988
 50
105.58539499999991
 51
164.42131299999991
  0
ARC
  5
3C9
  8
0
 62
     7
 10
48.300925999999997
 20
213.21165400000001
 30
0.0
 40
6.327941
 50
15.586499999999999
 51
74.406751999999997
  0
LINE
  5
3CA
  8
0
 62
     7
 10
90.305700000000002
 20
131.89599999999999
 30
0.0
 11
90.505799999999994
 21
132.096
 31
0.0
  0
LINE
  5
3CB
  8
0
 62
     7
 10
86.505700000000004
 20
131.89599999999999
 30
0.0
 11
86.305899999999994
 21
132.096
 31
0.0
  0
LINE
  5
3CC
  8
0
 62
     7
 10
86.305899999999994
 20
129.696
 30
0.0
 11
86.505700000000004
 21
129.49700000000001
 31
0.0
  0
LINE
  5
3CD
  8
0
 62
     7
 10
90.505799999999994
 20
129.696
 30
0.0
 11
90.305700000000002
 21
129.49700000000001
 31
0.0
  0
LINE
  5
3CE
  8
0
 62
     7
 10
86.305899999999994
 20
129.696
 30
0.0
 11
90.505799999999994
 21
129.696
 31
0.0
  0
LINE
  5
3CF
  8
0
 62
     7
 10
90.305700000000002
 20
131.89599999999999
 30
0.0
 11
90.305700000000002
 21
129.49700000000001
 31
0.0
  0
LINE
  5
3D0
  8
0
 62
     7
 10
86.505700000000004
 20
129.49700000000001
 30
0.0
 11
86.505700000000004
 21
131.89599999999999
 31
0.0
  0
LINE
  5
3D1
  8
0
 62
     7
 10
86.305899999999994
 20
120.568
 30
0.0
 11
86.305899999999994
 21
128.87899999999991
 31
0.0
  0
LINE
  5
3D2
  8
0
 62
     7
 10
90.505799999999994
 20
128.87899999999991
 30
0.0
 11
90.505799999999994
 21
120.568
 31
0.0
  0
LINE
  5
3D3
  8
0
 62
     7
 10
86.305899999999994
 20
129.696
 30
0.0
 11
86.305899999999994
 21
132.89599999999999
 31
0.0
  0
LINE
  5
3D4
  8
0
 62
     7
 10
90.505799999999994
 20
132.89599999999999
 30
0.0
 11
90.505799999999994
 21
129.696
 31
0.0
  0
LINE
  5
3D5
  8
0
 62
     7
 10
86.505700000000004
 20
129.49700000000001
 30
0.0
 11
90.305700000000002
 21
129.49700000000001
 31
0.0
  0
LINE
  5
3D6
  8
0
 62
     7
 10
86.305899999999994
 20
131.89599999999999
 30
0.0
 11
90.505799999999994
 21
131.89599999999999
 31
0.0
  0
LINE
  5
3D7
  8
0
 62
     7
 10
85.805599999999998
 20
132.89599999999999
 30
0.0
 11
91.005700000000004
 21
132.89599999999999
 31
0.0
  0
LINE
  5
3D8
  8
0
 62
     7
 10
85.805599999999998
 20
138.69599999999991
 30
0.0
 11
86.005499999999998
 21
138.89599999999999
 31
0.0
  0
LINE
  5
3D9
  8
0
 62
     7
 10
91.005700000000004
 20
138.69599999999991
 30
0.0
 11
90.805899999999994
 21
138.89599999999999
 31
0.0
  0
LINE
  5
3DA
  8
0
 62
     7
 10
86.005499999999998
 20
138.89599999999999
 30
0.0
 11
86.005499999999998
 21
142.29599999999991
 31
0.0
  0
LINE
  5
3DB
  8
0
 62
     7
 10
85.805599999999998
 20
136.49700000000001
 30
0.0
 11
85.805599999999998
 21
142.29599999999991
 31
0.0
  0
LINE
  5
3DC
  8
0
 62
     7
 10
85.805599999999998
 20
132.89599999999999
 30
0.0
 11
85.805599999999998
 21
133.49700000000001
 31
0.0
  0
LINE
  5
3DD
  8
0
 62
     7
 10
90.805899999999994
 20
138.89599999999999
 30
0.0
 11
90.805899999999994
 21
142.29599999999991
 31
0.0
  0
LINE
  5
3DE
  8
0
 62
     7
 10
91.005700000000004
 20
132.89599999999999
 30
0.0
 11
91.005700000000004
 21
142.29599999999991
 31
0.0
  0
LINE
  5
3DF
  8
0
 62
     7
 10
85.805599999999998
 20
138.89599999999999
 30
0.0
 11
91.005700000000004
 21
138.89599999999999
 31
0.0
  0
LINE
  5
3E0
  8
0
 62
     7
 10
84.941599999999994
 20
142.29599999999991
 30
0.0
 11
91.869699999999995
 21
142.29599999999991
 31
0.0
  0
LINE
  5
3E1
  8
0
 62
     7
 10
84.941599999999994
 20
143.29599999999999
 30
0.0
 11
84.941599999999994
 21
142.29599999999991
 31
0.0
  0
LINE
  5
3E2
  8
0
 62
     7
 10
86.673500000000004
 20
143.29599999999999
 30
0.0
 11
86.673500000000004
 21
142.29599999999991
 31
0.0
  0
LINE
  5
3E3
  8
0
 62
     7
 10
90.137900000000002
 20
143.29599999999999
 30
0.0
 11
90.137900000000002
 21
142.29599999999991
 31
0.0
  0
LINE
  5
3E4
  8
0
 62
     7
 10
91.869699999999995
 20
143.29599999999999
 30
0.0
 11
91.869699999999995
 21
142.29599999999991
 31
0.0
  0
LINE
  5
3E5
  8
0
 62
     7
 10
92.906000000000006
 20
143.29599999999999
 30
0.0
 11
92.906000000000006
 21
143.49600000000001
 31
0.0
  0
LINE
  5
3E6
  8
0
 62
     7
 10
83.905299999999997
 20
143.29599999999999
 30
0.0
 11
83.905299999999997
 21
143.49600000000001
 31
0.0
  0
LINE
  5
3E7
  8
0
 62
     7
 10
83.905299999999997
 20
143.29599999999999
 30
0.0
 11
92.906000000000006
 21
143.29599999999999
 31
0.0
  0
LINE
  5
3E8
  8
0
 62
     7
 10
86.005499999999998
 20
143.696
 30
0.0
 11
86.005499999999998
 21
149.49700000000001
 31
0.0
  0
LINE
  5
3E9
  8
0
 62
     7
 10
85.805599999999998
 20
143.696
 30
0.0
 11
85.805599999999998
 21
149.49700000000001
 31
0.0
  0
LINE
  5
3EA
  8
0
 62
     7
 10
90.805899999999994
 20
143.696
 30
0.0
 11
90.805899999999994
 21
149.49700000000001
 31
0.0
  0
LINE
  5
3EB
  8
0
 62
     7
 10
91.005700000000004
 20
143.696
 30
0.0
 11
91.005700000000004
 21
149.49700000000001
 31
0.0
  0
LINE
  5
3EC
  8
0
 62
     7
 10
84.205699999999993
 20
143.49600000000001
 30
0.0
 11
84.205699999999993
 21
143.696
 31
0.0
  0
LINE
  5
3ED
  8
0
 62
     7
 10
92.605599999999995
 20
143.49600000000001
 30
0.0
 11
92.605599999999995
 21
143.696
 31
0.0
  0
LINE
  5
3EE
  8
0
 62
     7
 10
83.905299999999997
 20
143.49600000000001
 30
0.0
 11
92.906000000000006
 21
143.49600000000001
 31
0.0
  0
LINE
  5
3EF
  8
0
 62
     7
 10
84.205699999999993
 20
143.696
 30
0.0
 11
92.605599999999995
 21
143.696
 31
0.0
  0
LINE
  5
3F0
  8
0
 62
     7
 10
83.261399999999995
 20
150.67699999999999
 30
0.0
 11
82.909699999999987
 21
150.60599999999991
 31
0.0
  0
LINE
  5
3F1
  8
0
 62
     7
 10
82.277799999999999
 20
149.9489999999999
 30
0.0
 11
82.205500000000015
 21
149.49700000000001
 31
0.0
  0
ARC
  5
3F2
  8
0
 62
     7
 10
83.086790000000008
 20
149.80390299999991
 30
0.0
 40
0.8218110000000001
 50
102.445899
 51
169.84988100000001
  0
ARC
  5
3F3
  8
0
 62
     7
 10
82.908299
 20
152.28130400000001
 30
0.0
 40
1.6423449999999999
 50
282.41618499999993
 51
349.87963400000001
  0
LINE
  5
3F4
  8
0
 62
     7
 10
85.1173
 20
152.49600000000001
 30
0.0
 11
88.405699999999996
 21
152.49600000000001
 31
0.0
  0
ARC
  5
3F5
  8
0
 62
     7
 10
85.134394000000015
 20
151.876204
 30
0.0
 40
0.620424
 50
91.578201000000021
 51
169.30537899999999
  0
LINE
  5
3F6
  8
0
 62
     7
 10
82.205500000000015
 20
149.49700000000001
 30
0.0
 11
88.405699999999996
 21
149.49700000000001
 31
0.0
  0
LINE
  5
3F7
  8
0
 62
     7
 10
93.549899999999994
 20
150.67699999999999
 30
0.0
 11
93.901700000000005
 21
150.60599999999991
 31
0.0
  0
LINE
  5
3F8
  8
0
 62
     7
 10
94.533500000000004
 20
149.9489999999999
 30
0.0
 11
94.605800000000002
 21
149.49700000000001
 31
0.0
  0
ARC
  5
3F9
  8
0
 62
     7
 10
93.725196999999994
 20
149.8045229999999
 30
0.0
 40
0.821067
 50
10.115434999999991
 51
77.588744999999989
  0
ARC
  5
3FA
  8
0
 62
     7
 10
93.901534999999996
 20
152.279856
 30
0.0
 40
1.640606999999999
 50
190.07985099999991
 51
257.624369
  0
LINE
  5
3FB
  8
0
 62
     7
 10
91.694000000000017
 20
152.49600000000001
 30
0.0
 11
88.405699999999996
 21
152.49600000000001
 31
0.0
  0
ARC
  5
3FC
  8
0
 62
     7
 10
91.676827999999986
 20
151.8760629999999
 30
0.0
 40
0.620568
 50
10.705322999999989
 51
88.411057999999997
  0
LINE
  5
3FD
  8
0
 62
     7
 10
94.605800000000002
 20
149.49700000000001
 30
0.0
 11
88.405699999999996
 21
149.49700000000001
 31
0.0
  0
ARC
  5
3FE
  8
0
 62
     7
 10
86.567486000000002
 20
162.71739099999991
 30
0.0
 40
0.5461200000000001
 50
111.8515629999999
 51
118.663984
  0
ARC
  5
3FF
  8
0
 62
     7
 10
87.010683999999998
 20
161.684403
 30
0.0
 40
1.6700649999999999
 50
108.04757099999991
 51
112.773538
  0
ARC
  5
400
  8
0
 62
     7
 10
87.465502999999998
 20
160.2853419999999
 30
0.0
 40
3.1411980000000002
 50
100.433886
 51
108.029393
  0
ARC
  5
401
  8
0
 62
     7
 10
87.977052000000015
 20
157.77800500000001
 30
0.0
 40
5.6999269999999989
 50
95.428103000000007
 51
100.926529
  0
ARC
  5
402
  8
0
 62
     7
 10
88.342407999999992
 20
154.28073699999999
 30
0.0
 40
9.216133000000001
 50
89.606685999999996
 51
95.632561000000024
  0
ARC
  5
403
  8
0
 62
     7
 10
90.274559999999994
 20
162.7798139999999
 30
0.0
 40
0.476628
 50
60.97522399999999
 51
68.137268000000006
  0
ARC
  5
404
  8
0
 62
     7
 10
89.822339999999997
 20
161.7418679999999
 30
0.0
 40
1.608665999999999
 50
66.955382999999983
 51
71.705062999999996
  0
ARC
  5
405
  8
0
 62
     7
 10
89.365308999999996
 20
160.35686000000001
 30
0.0
 40
3.0671330000000001
 50
71.720674000000002
 51
79.347222000000002
  0
ARC
  5
406
  8
0
 62
     7
 10
88.850468000000006
 20
157.882361
 30
0.0
 40
5.5943670000000001
 50
78.850080000000005
 51
84.372608
  0
ARC
  5
407
  8
0
 62
     7
 10
88.472566999999998
 20
154.367234
 30
0.0
 40
9.129664
 50
84.175599999999989
 51
90.419819000000004
  0
LINE
  5
408
  8
0
 62
     7
 10
60.514699999999998
 20
103.9989999999999
 30
0.0
 11
72.342799999999997
 21
103.9989999999999
 31
0.0
  0
LINE
  5
409
  8
0
 62
     7
 10
35.51489999999999
 20
147.72799999999989
 30
0.0
 11
35.041499999999999
 21
149.49700000000001
 31
0.0
  0
LINE
  5
40A
  8
0
 62
     7
 10
35.041499999999999
 20
149.49700000000001
 30
0.0
 11
34.567399999999992
 21
147.72799999999989
 31
0.0
  0
LINE
  5
40B
  8
0
 62
     7
 10
34.567399999999992
 20
147.72799999999989
 30
0.0
 11
35.51489999999999
 21
147.72799999999989
 31
0.0
  0
LINE
  5
40C
  8
0
 62
     7
 10
34.584699999999998
 20
88.265299999999996
 30
0.0
 11
35.058700000000002
 21
86.497200000000007
 31
0.0
  0
LINE
  5
40D
  8
0
 62
     7
 10
35.058700000000002
 20
86.497200000000007
 30
0.0
 11
35.532800000000002
 21
88.265299999999996
 31
0.0
  0
LINE
  5
40E
  8
0
 62
     7
 10
35.532800000000002
 20
88.265299999999996
 30
0.0
 11
34.584699999999998
 21
88.265299999999996
 31
0.0
  0
LINE
  5
40F
  8
0
 62
     7
 10
35.05319999999999
 20
86.497200000000007
 30
0.0
 11
35.05319999999999
 21
149.49700000000001
 31
0.0
  0
LINE
  5
410
  8
0
 62
     7
 10
34.407800000000002
 20
149.49700000000001
 30
0.0
 11
40.9116
 21
149.49700000000001
 31
0.0
  0
LINE
  5
411
  8
0
 62
     7
 10
34.407800000000002
 20
86.497200000000007
 30
0.0
 11
66.847200000000001
 21
86.497200000000007
 31
0.0
  0
LINE
  5
412
  8
0
 62
     7
 10
106.4049999999999
 20
58.364400000000003
 30
0.0
 11
106.4049999999999
 21
47.340400000000002
 31
0.0
  0
LINE
  5
413
  8
0
 62
     7
 10
104.465
 20
61.387500000000003
 30
0.0
 11
104.465
 21
61.393000000000001
 31
0.0
  0
LINE
  5
414
  8
0
 62
     7
 10
104.4769999999999
 20
60.678499999999993
 30
0.0
 11
104.4769999999999
 21
61.286599999999993
 31
0.0
  0
LINE
  5
415
  8
0
 62
     7
 10
103.553
 20
60.678499999999993
 30
0.0
 11
103.553
 21
61.286599999999993
 31
0.0
  0
LINE
  5
416
  8
0
 62
     7
 10
104.70999999999989
 20
61.694499999999998
 30
0.0
 11
104.70999999999989
 21
61.286599999999993
 31
0.0
  0
LINE
  5
417
  8
0
 62
     7
 10
103.55500000000001
 20
61.919400000000003
 30
0.0
 11
104.4839999999999
 21
61.919400000000003
 31
0.0
  0
ARC
  5
418
  8
0
 62
     7
 10
104.475684
 20
61.685592
 30
0.0
 40
0.234001
 50
2.1746590000000001
 51
87.91300600000001
  0
LINE
  5
419
  8
0
 62
     7
 10
103.32899999999999
 20
61.694499999999998
 30
0.0
 11
103.32899999999999
 21
61.286599999999993
 31
0.0
  0
ARC
  5
41A
  8
0
 62
     7
 10
103.56315099999991
 20
61.685675000000003
 30
0.0
 40
0.233915
 50
92.067409999999995
 51
177.844885
  0
LINE
  5
41B
  8
0
 62
     7
 10
103.32899999999999
 20
61.286599999999993
 30
0.0
 11
104.70999999999989
 21
61.286599999999993
 31
0.0
  0
LINE
  5
41C
  8
0
 62
     7
 10
104.4459999999999
 20
60.579300000000003
 30
0.0
 11
104.4459999999999
 21
60.580300000000001
 31
0.0
  0
LINE
  5
41D
  8
0
 62
     7
 10
103.31100000000001
 20
60.678499999999993
 30
0.0
 11
103.1139999999999
 21
60.449399999999997
 31
0.0
  0
LINE
  5
41E
  8
0
 62
     7
 10
104.691
 20
60.678499999999993
 30
0.0
 11
104.88800000000001
 21
60.449399999999997
 31
0.0
  0
LINE
  5
41F
  8
0
 62
     7
 10
104.88800000000001
 20
57.560299999999991
 30
0.0
 11
104.69199999999999
 21
57.3309
 31
0.0
  0
LINE
  5
420
  8
0
 62
     7
 10
103.116
 20
57.560299999999991
 30
0.0
 11
103.3129999999999
 21
57.3309
 31
0.0
  0
LINE
  5
421
  8
0
 62
     7
 10
103.3129999999999
 20
57.3309
 30
0.0
 11
104.69199999999999
 21
57.3309
 31
0.0
  0
ARC
  5
422
  8
0
 62
     7
 10
103.97565299999999
 20
58.203825000000002
 30
0.0
 40
0.716429
 50
2.0986750000000001
 51
87.901314999999997
  0
ARC
  5
423
  8
0
 62
     7
 10
104.02815799999991
 20
58.204506999999992
 30
0.0
 40
0.715749
 50
92.103289000000018
 51
177.95394899999991
  0
ARC
  5
424
  8
0
 62
     7
 10
104.028109
 20
58.256281000000008
 30
0.0
 40
0.715724
 50
182.0994869999999
 51
267.90054300000003
  0
ARC
  5
425
  8
0
 62
     7
 10
103.975697
 20
58.256968999999991
 30
0.0
 40
0.71641
 50
272.095235
 51
357.847508
  0
LINE
  5
426
  8
0
 62
     7
 10
104.88800000000001
 20
57.555900000000001
 30
0.0
 11
104.88800000000001
 21
60.453200000000002
 31
0.0
  0
LINE
  5
427
  8
0
 62
     7
 10
103.116
 20
57.560299999999991
 30
0.0
 11
103.116
 21
60.451500000000003
 31
0.0
  0
LINE
  5
428
  8
0
 62
     7
 10
103.31100000000001
 20
60.678499999999993
 30
0.0
 11
104.691
 21
60.678499999999993
 31
0.0
  0
LINE
  5
429
  8
0
 62
     7
 10
79.125600000000006
 20
59.008000000000003
 30
0.0
 11
103.116
 21
59.008000000000003
 31
0.0
  0
LINE
  5
42A
  8
0
 62
     7
 10
79.125600000000006
 20
60.0077
 30
0.0
 11
103.116
 21
60.0077
 31
0.0
  0
LINE
  5
42B
  8
0
 62
     7
 10
104.88800000000001
 20
59.015500000000003
 30
0.0
 11
106.20699999999999
 21
59.015500000000003
 31
0.0
  0
LINE
  5
42C
  8
0
 62
     7
 10
104.88800000000001
 20
60.0002
 30
0.0
 11
106.20699999999999
 21
60.0002
 31
0.0
  0
LINE
  5
42D
  8
0
 62
     7
 10
106.4049999999999
 20
59.212299999999999
 30
0.0
 11
106.20699999999999
 21
59.015500000000003
 31
0.0
  0
LINE
  5
42E
  8
0
 62
     7
 10
106.20699999999999
 20
60.0002
 30
0.0
 11
106.4049999999999
 21
59.803100000000001
 31
0.0
  0
LINE
  5
42F
  8
0
 62
     7
 10
106.4049999999999
 20
59.212299999999999
 30
0.0
 11
106.4049999999999
 21
59.803100000000001
 31
0.0
  0
LINE
  5
430
  8
0
 62
     7
 10
62.386099999999999
 20
73.685500000000005
 30
0.0
 11
74.424400000000006
 21
73.685500000000005
 31
0.0
  0
LINE
  5
431
  8
0
 62
     7
 10
74.705500000000001
 20
73.4041
 30
0.0
 11
74.705500000000001
 21
73.288700000000006
 31
0.0
  0
ARC
  5
432
  8
0
 62
     7
 10
74.413336999999999
 20
73.393422999999999
 30
0.0
 40
0.29233
 50
2.089113999999999
 51
87.840704000000002
  0
ARC
  5
433
  8
0
 62
     7
 10
62.396768000000009
 20
73.393746999999991
 30
0.0
 40
0.291994
 50
92.098078000000015
 51
177.9720639999999
  0
LINE
  5
434
  8
0
 62
     7
 10
62.10499999999999
 20
73.288700000000006
 30
0.0
 11
62.10499999999999
 21
73.4041
 31
0.0
  0
LINE
  5
435
  8
0
 62
     7
 10
72.260099999999994
 20
66.916600000000003
 30
0.0
 11
72.343800000000002
 21
66.916600000000003
 31
0.0
  0
LINE
  5
436
  8
0
 62
     7
 10
66.964299999999994
 20
67.2821
 30
0.0
 11
66.964299999999994
 21
68.929900000000004
 31
0.0
  0
ARC
  5
437
  8
0
 62
     7
 10
67.344022999999993
 20
67.296320999999992
 30
0.0
 40
0.379994
 50
182.143776
 51
267.9102299999999
  0
LINE
  5
438
  8
0
 62
     7
 10
67.330200000000005
 20
66.916600000000003
 30
0.0
 11
69.540599999999998
 21
66.916600000000003
 31
0.0
  0
ARC
  5
439
  8
0
 62
     7
 10
69.526353999999998
 20
67.295947999999996
 30
0.0
 40
0.379634
 50
272.14346599999988
 51
357.910571
  0
ARC
  5
43A
  8
0
 62
     7
 10
67.344356000000005
 20
68.915716000000003
 30
0.0
 40
0.380326
 50
92.138175000000004
 51
177.861795
  0
LINE
  5
43B
  8
0
 62
     7
 10
67.330200000000005
 20
69.2958
 30
0.0
 11
69.540599999999998
 21
69.2958
 31
0.0
  0
ARC
  5
43C
  8
0
 62
     7
 10
69.526330000000002
 20
68.916398000000001
 30
0.0
 40
0.379646
 50
2.0390609999999998
 51
87.852925999999997
  0
LINE
  5
43D
  8
0
 62
     7
 10
71.894599999999997
 20
67.2821
 30
0.0
 11
71.894599999999997
 21
68.929900000000004
 31
0.0
  0
ARC
  5
43E
  8
0
 62
     7
 10
72.274318999999991
 20
67.296296999999996
 30
0.0
 40
0.379982
 50
182.14017199999989
 51
267.85985799999997
  0
LINE
  5
43F
  8
0
 62
     7
 10
69.905699999999996
 20
67.2821
 30
0.0
 11
69.905699999999996
 21
68.929900000000004
 31
0.0
  0
LINE
  5
440
  8
0
 62
     7
 10
64.926900000000003
 20
67.2821
 30
0.0
 11
64.926900000000003
 21
68.929900000000004
 31
0.0
  0
LINE
  5
441
  8
0
 62
     7
 10
64.4666
 20
66.916600000000003
 30
0.0
 11
64.561000000000007
 21
66.916600000000003
 31
0.0
  0
ARC
  5
442
  8
0
 62
     7
 10
64.546809999999994
 20
67.296634999999995
 30
0.0
 40
0.38032
 50
272.13535000000002
 51
357.81068399999992
  0
LINE
  5
443
  8
0
 62
     7
 10
72.260099999999994
 20
69.2958
 30
0.0
 11
72.343800000000002
 21
69.2958
 31
0.0
  0
ARC
  5
444
  8
0
 62
     7
 10
72.274332999999999
 20
68.916060000000002
 30
0.0
 40
0.379983
 50
92.14221400000001
 51
177.911732
  0
LINE
  5
445
  8
0
 62
     7
 10
64.4666
 20
69.2958
 30
0.0
 11
64.561000000000007
 21
69.2958
 31
0.0
  0
ARC
  5
446
  8
0
 62
     7
 10
64.546790999999985
 20
68.915716000000003
 30
0.0
 40
0.380326
 50
2.138185
 51
87.861805000000004
  0
LINE
  5
447
  8
0
 62
     7
 10
64.4666
 20
66.364999999999995
 30
0.0
 11
64.4666
 21
66.916600000000003
 31
0.0
  0
LINE
  5
448
  8
0
 62
     7
 10
64.4666
 20
71.165099999999995
 30
0.0
 11
64.296400000000006
 21
71.341800000000006
 31
0.0
  0
LINE
  5
449
  8
0
 62
     7
 10
72.471000000000004
 20
71.341800000000006
 30
0.0
 11
72.343800000000002
 21
71.165099999999995
 31
0.0
  0
LINE
  5
44A
  8
0
 62
     7
 10
72.343800000000002
 20
66.916600000000003
 30
0.0
 11
72.343800000000002
 21
66.364999999999995
 31
0.0
  0
LINE
  5
44B
  8
0
 62
     7
 10
72.343800000000002
 20
71.165099999999995
 30
0.0
 11
72.343800000000002
 21
69.2958
 31
0.0
  0
LINE
  5
44C
  8
0
 62
     7
 10
62.10499999999999
 20
73.288700000000006
 30
0.0
 11
74.705500000000001
 21
73.288700000000006
 31
0.0
  0
LINE
  5
44D
  8
0
 62
     7
 10
79.125600000000006
 20
57.490400000000001
 30
0.0
 11
79.125600000000006
 21
61.529800000000002
 31
0.0
  0
LINE
  5
44E
  8
0
 62
     7
 10
78.844399999999993
 20
57.208599999999997
 30
0.0
 11
76.959299999999999
 21
57.208599999999997
 31
0.0
  0
ARC
  5
44F
  8
0
 62
     7
 10
78.833718000000005
 20
57.500399000000002
 30
0.0
 40
0.292012
 50
272.10373099999993
 51
358.03653799999989
  0
LINE
  5
450
  8
0
 62
     7
 10
78.844399999999993
 20
61.811300000000003
 30
0.0
 11
76.959299999999999
 21
61.811300000000003
 31
0.0
  0
ARC
  5
451
  8
0
 62
     7
 10
78.833422999999996
 20
61.519137999999991
 30
0.0
 40
0.29233
 50
2.089113999999999
 51
87.840704000000002
  0
LINE
  5
452
  8
0
 62
     7
 10
76.959299999999999
 20
61.811300000000003
 30
0.0
 11
76.959299999999999
 21
57.208599999999997
 31
0.0
  0
LINE
  5
453
  8
0
 62
     7
 10
72.540599999999984
 20
57.440100000000001
 30
0.0
 11
64.269499999999994
 21
57.440100000000001
 31
0.0
  0
LINE
  5
454
  8
0
 62
     7
 10
74.657200000000003
 20
65.316999999999993
 30
0.0
 11
62.152200000000001
 21
65.316999999999993
 31
0.0
  0
ARC
  5
455
  8
0
 62
     7
 10
72.886420999999999
 20
57.234473999999999
 30
0.0
 40
0.402367
 50
90.682457999999997
 51
149.26743200000001
  0
LINE
  5
456
  8
0
 62
     7
 10
76.171700000000001
 20
57.390500000000003
 30
0.0
 11
76.171700000000001
 21
61.624899999999997
 31
0.0
  0
ARC
  5
457
  8
0
 62
     7
 10
72.949786000000003
 20
61.787778000000003
 30
0.0
 40
0.4095030000000001
 50
182.11365499999999
 51
267.88637499999999
  0
LINE
  5
458
  8
0
 62
     7
 10
76.171700000000001
 20
57.390500000000003
 30
0.0
 11
76.270200000000003
 21
57.292299999999997
 31
0.0
  0
LINE
  5
459
  8
0
 62
     7
 10
76.270200000000003
 20
61.723100000000002
 30
0.0
 11
76.171700000000001
 21
61.624899999999997
 31
0.0
  0
LINE
  5
45A
  8
0
 62
     7
 10
72.934700000000007
 20
61.378599999999992
 30
0.0
 11
76.171700000000001
 21
61.378599999999992
 31
0.0
  0
LINE
  5
45B
  8
0
 62
     7
 10
76.171700000000001
 20
57.636800000000001
 30
0.0
 11
72.881600000000006
 21
57.636800000000001
 31
0.0
  0
LINE
  5
45C
  8
0
 62
     7
 10
76.959299999999999
 20
57.292299999999997
 30
0.0
 11
76.270200000000003
 21
57.292299999999997
 31
0.0
  0
ARC
  5
45D
  8
0
 62
     7
 10
74.507079000000004
 20
71.282911999999996
 30
0.0
 40
2.0369619999999991
 50
99.109851000000035
 51
178.342422
  0
ARC
  5
45E
  8
0
 62
     7
 10
62.260635000000001
 20
71.283218000000005
 30
0.0
 40
2.0366040000000001
 50
1.649225999999999
 51
80.898460999999998
  0
ARC
  5
45F
  8
0
 62
     7
 10
63.110456999999997
 20
65.751199
 30
0.0
 40
0.6142340000000001
 50
92.109406000000007
 51
177.823747
  0
ARC
  5
460
  8
0
 62
     7
 10
63.094951000000002
 20
65.778805000000006
 30
0.0
 40
0.5983000000000001
 50
180.410054
 51
230.41599299999999
  0
ARC
  5
461
  8
0
 62
     7
 10
73.716756000000004
 20
65.776848999999999
 30
0.0
 40
0.595979
 50
309.6092569999999
 51
359.77643299999988
  0
ARC
  5
462
  8
0
 62
     7
 10
73.699617000000003
 20
65.751930000000002
 30
0.0
 40
0.613529
 50
2.1103869999999989
 51
87.822707999999992
  0
LINE
  5
463
  8
0
 62
     7
 10
72.540599999999984
 20
63.329500000000003
 30
0.0
 11
72.540599999999984
 21
61.7727
 31
0.0
  0
ARC
  5
464
  8
0
 62
     7
 10
63.263809999999999
 20
63.317863000000003
 30
0.0
 40
1.0057819999999991
 50
0.664253
 51
59.282992000000007
  0
ARC
  5
465
  8
0
 62
     7
 10
73.545151000000004
 20
63.318097999999999
 30
0.0
 40
1.004654999999999
 50
120.634918
 51
179.348364
  0
LINE
  5
466
  8
0
 62
     7
 10
64.269499999999994
 20
57.440100000000001
 30
0.0
 11
64.269499999999994
 21
63.329500000000003
 31
0.0
  0
LINE
  5
467
  8
0
 62
     7
 10
74.657200000000003
 20
65.1203
 30
0.0
 11
73.033199999999994
 21
64.182500000000005
 31
0.0
  0
LINE
  5
468
  8
0
 62
     7
 10
74.657200000000003
 20
65.1203
 30
0.0
 11
74.657200000000003
 21
65.316999999999993
 31
0.0
  0
LINE
  5
469
  8
0
 62
     7
 10
72.343800000000002
 20
56.849299999999999
 30
0.0
 11
64.515500000000003
 21
56.849299999999999
 31
0.0
  0
LINE
  5
46A
  8
0
 62
     7
 10
72.294600000000003
 20
56.849299999999999
 30
0.0
 11
72.294600000000003
 21
57.440100000000001
 31
0.0
  0
LINE
  5
46B
  8
0
 62
     7
 10
64.515500000000003
 20
56.849299999999999
 30
0.0
 11
64.515500000000003
 21
57.440100000000001
 31
0.0
  0
LINE
  5
46C
  8
0
 62
     7
 10
64.4666
 20
55.737499999999997
 30
0.0
 11
64.733199999999997
 21
55.470500000000001
 31
0.0
  0
LINE
  5
46D
  8
0
 62
     7
 10
72.343800000000002
 20
55.737499999999997
 30
0.0
 11
72.076800000000006
 21
55.470500000000001
 31
0.0
  0
LINE
  5
46E
  8
0
 62
     7
 10
72.343800000000002
 20
56.849299999999999
 30
0.0
 11
72.343800000000002
 21
55.737499999999997
 31
0.0
  0
LINE
  5
46F
  8
0
 62
     7
 10
64.4666
 20
55.737499999999997
 30
0.0
 11
64.4666
 21
56.849299999999999
 31
0.0
  0
LINE
  5
470
  8
0
 62
     7
 10
72.076800000000006
 20
55.470500000000001
 30
0.0
 11
64.733199999999997
 21
55.470500000000001
 31
0.0
  0
LINE
  5
471
  8
0
 62
     7
 10
62.152200000000001
 20
65.1203
 30
0.0
 11
63.7776
 21
64.182500000000005
 31
0.0
  0
LINE
  5
472
  8
0
 62
     7
 10
62.152200000000001
 20
65.1203
 30
0.0
 11
62.152200000000001
 21
65.316999999999993
 31
0.0
  0
LINE
  5
473
  8
0
 62
     7
 10
63.087800000000001
 20
66.364999999999995
 30
0.0
 11
73.722899999999996
 21
66.364999999999995
 31
0.0
  0
LINE
  5
474
  8
0
 62
     7
 10
76.959299999999999
 20
61.723100000000002
 30
0.0
 11
76.270200000000003
 21
61.723100000000002
 31
0.0
  0
LINE
  5
475
  8
0
 62
     7
 10
92.597199999999987
 20
57.179999999999993
 30
0.0
 11
92.123099999999994
 21
58.949399999999997
 31
0.0
  0
LINE
  5
476
  8
0
 62
     7
 10
92.123099999999994
 20
58.949399999999997
 30
0.0
 11
91.648399999999995
 21
57.179999999999993
 31
0.0
  0
LINE
  5
477
  8
0
 62
     7
 10
91.648399999999995
 20
57.179999999999993
 30
0.0
 11
92.597199999999987
 21
57.179999999999993
 31
0.0
  0
LINE
  5
478
  8
0
 62
     7
 10
91.660099999999986
 20
61.799900000000001
 30
0.0
 11
92.134100000000004
 21
60.030500000000004
 31
0.0
  0
LINE
  5
479
  8
0
 62
     7
 10
92.134100000000004
 20
60.030500000000004
 30
0.0
 11
92.608199999999997
 21
61.799900000000001
 31
0.0
  0
LINE
  5
47A
  8
0
 62
     7
 10
92.608199999999997
 20
61.799900000000001
 30
0.0
 11
91.660099999999986
 21
61.799900000000001
 31
0.0
  0
LINE
  5
47B
  8
0
 62
     7
 10
92.128600000000006
 20
66.180999999999997
 30
0.0
 11
92.128600000000006
 21
55.597999999999999
 31
0.0
  0
LINE
  5
47C
  8
0
 62
     7
 10
78.375900000000001
 20
60.22549999999999
 30
0.0
 11
76.959299999999999
 21
60.22549999999999
 31
0.0
  0
LINE
  5
47D
  8
0
 62
     7
 10
78.375900000000001
 20
59.715600000000002
 30
0.0
 11
76.959299999999999
 21
59.715600000000002
 31
0.0
  0
LINE
  5
47E
  8
0
 62
     7
 10
78.375900000000001
 20
59.2057
 30
0.0
 11
76.959299999999999
 21
59.2057
 31
0.0
  0
LINE
  5
47F
  8
0
 62
     7
 10
78.375900000000001
 20
58.6676
 30
0.0
 11
76.959299999999999
 21
58.6676
 31
0.0
  0
LINE
  5
480
  8
0
 62
     7
 10
78.375900000000001
 20
61.358199999999989
 30
0.0
 11
76.959299999999999
 21
61.358199999999989
 31
0.0
  0
LINE
  5
481
  8
0
 62
     7
 10
78.375900000000001
 20
60.763599999999997
 30
0.0
 11
76.959299999999999
 21
60.763599999999997
 31
0.0
  0
LINE
  5
482
  8
0
 62
     7
 10
78.375900000000001
 20
58.101199999999999
 30
0.0
 11
76.959299999999999
 21
58.101199999999999
 31
0.0
  0
LINE
  5
483
  8
0
 62
     7
 10
78.375900000000001
 20
57.59129999999999
 30
0.0
 11
76.959299999999999
 21
57.59129999999999
 31
0.0
  0
LINE
  5
484
  8
0
 62
     7
 10
78.375900000000001
 20
61.811300000000003
 30
0.0
 11
78.375900000000001
 21
57.208599999999997
 31
0.0
  0
LINE
  5
485
  8
0
 62
     7
 10
75.295299999999997
 20
61.378599999999992
 30
0.0
 11
75.295299999999997
 21
57.636800000000001
 31
0.0
  0
LINE
  5
486
  8
0
 62
     7
 10
63.087800000000001
 20
66.364999999999995
 30
0.0
 11
57.1616
 21
66.364999999999995
 31
0.0
  0
LINE
  5
487
  8
0
 62
     7
 10
62.457700000000003
 20
52.852899999999991
 30
0.0
 11
52.688099999999999
 21
52.852899999999991
 31
0.0
  0
LINE
  5
488
  8
0
 62
     7
 10
63.84129999999999
 20
54.1021
 30
0.0
 11
64.463800000000006
 21
55.825000000000003
 31
0.0
  0
LINE
  5
489
  8
0
 62
     7
 10
64.463800000000006
 20
55.825000000000003
 30
0.0
 11
63.063699999999997
 21
54.643300000000004
 31
0.0
  0
LINE
  5
48A
  8
0
 62
     7
 10
63.063699999999997
 20
54.643300000000004
 30
0.0
 11
63.84129999999999
 21
54.1021
 31
0.0
  0
ARC
  5
48B
  8
0
 62
     7
 10
5474.7460000000001
 20
-3714.1500000000001
 30
0.0
 40
6594.1769999999988
 50
145.13116199999999
 51
145.16170500000001
  0
LINE
  5
48C
  8
0
 62
     7
 10
68.405000000000001
 20
53.215699999999998
 30
0.0
 11
68.405000000000001
 21
47.339700000000001
 31
0.0
  0
LINE
  5
48D
  8
0
 62
     7
 10
75.691500000000005
 20
61.149799999999999
 30
0.0
 11
76.171700000000001
 21
61.149799999999999
 31
0.0
  0
LINE
  5
48E
  8
0
 62
     7
 10
76.171700000000001
 20
57.865600000000001
 30
0.0
 11
75.691500000000005
 21
57.865600000000001
 31
0.0
  0
LINE
  5
48F
  8
0
 62
     7
 10
75.691500000000005
 20
57.865600000000001
 30
0.0
 11
75.295299999999997
 21
57.636800000000001
 31
0.0
  0
LINE
  5
490
  8
0
 62
     7
 10
72.076800000000006
 20
55.470500000000001
 30
0.0
 11
72.076800000000006
 21
56.849299999999999
 31
0.0
  0
LINE
  5
491
  8
0
 62
     7
 10
64.4666
 20
55.737499999999997
 30
0.0
 11
72.343800000000002
 21
55.737499999999997
 31
0.0
  0
LINE
  5
492
  8
0
 62
     7
 10
64.733199999999997
 20
55.470500000000001
 30
0.0
 11
64.733199999999997
 21
56.849299999999999
 31
0.0
  0
LINE
  5
493
  8
0
 62
     7
 10
75.691500000000005
 20
57.636800000000001
 30
0.0
 11
75.691500000000005
 21
61.378599999999992
 31
0.0
  0
LINE
  5
494
  8
0
 62
     7
 10
75.295299999999997
 20
61.378599999999992
 30
0.0
 11
75.691500000000005
 21
61.149799999999999
 31
0.0
  0
ARC
  5
495
  8
0
 62
     7
 10
104.66074499999991
 20
61.577638
 30
0.0
 40
0.289346
 50
249.49387799999991
 51
269.97047400000002
  0
ARC
  5
496
  8
0
 62
     7
 10
104.63976700000001
 20
61.499531999999988
 30
0.0
 40
0.208983
 50
202.28650300000001
 51
247.37875899999989
  0
ARC
  5
497
  8
0
 62
     7
 10
104.82903899999999
 20
61.586105000000003
 30
0.0
 40
0.4170310000000001
 50
177.08551199999999
 51
203.43070999999989
  0
ARC
  5
498
  8
0
 62
     7
 10
104.8912199999999
 20
61.60904699999999
 30
0.0
 40
0.4786760000000001
 50
164.04719
 51
180.20797899999999
  0
ARC
  5
499
  8
0
 62
     7
 10
104.685975
 20
61.661603999999997
 30
0.0
 40
0.266955
 50
115.67004299999989
 51
162.78557799999999
  0
ARC
  5
49A
  8
0
 62
     7
 10
103.381867
 20
61.566768999999987
 30
0.0
 40
0.279916
 50
273.08400999999998
 51
293.55363599999998
  0
ARC
  5
49B
  8
0
 62
     7
 10
103.403313
 20
61.497256
 30
0.0
 40
0.207783
 50
295.79278699999998
 51
340.80295099999989
  0
ARC
  5
49C
  8
0
 62
     7
 10
103.180066
 20
61.588415000000012
 30
0.0
 40
0.4487700000000001
 50
339.18362500000001
 51
2.413084
  0
ARC
  5
49D
  8
0
 62
     7
 10
103.1278139999999
 20
61.607073
 30
0.0
 40
0.500624
 50
0.02708
 51
15.732531
  0
ARC
  5
49E
  8
0
 62
     7
 10
103.3604039999999
 20
61.667718000000008
 30
0.0
 40
0.260346
 50
16.765440999999999
 51
64.778871999999993
  0
ARC
  5
49F
  8
0
 62
     7
 10
103.876636
 20
61.579127999999997
 30
0.0
 40
0.290836
 50
249.5470379999999
 51
269.97062499999993
  0
ARC
  5
4A0
  8
0
 62
     7
 10
103.8550089999999
 20
61.499026000000001
 30
0.0
 40
0.20837
 50
202.2053129999999
 51
247.42172099999991
  0
ARC
  5
4A1
  8
0
 62
     7
 10
104.04546499999999
 20
61.585805000000008
 30
0.0
 40
0.41758
 50
177.0480739999999
 51
203.353162
  0
ARC
  5
4A2
  8
0
 62
     7
 10
104.106556
 20
61.610588
 30
0.0
 40
0.478129
 50
164.13327699999991
 51
180.39288799999991
  0
ARC
  5
4A3
  8
0
 62
     7
 10
103.89496199999989
 20
61.663418000000007
 30
0.0
 40
0.260248
 50
100.34302700000001
 51
162.58488299999999
  0
ARC
  5
4A4
  8
0
 62
     7
 10
104.166669
 20
61.566697999999988
 30
0.0
 40
0.2798449999999999
 50
273.08391399999999
 51
293.55658999999991
  0
ARC
  5
4A5
  8
0
 62
     7
 10
104.1882659999999
 20
61.496859999999991
 30
0.0
 40
0.207355
 50
295.799263
 51
340.87759599999993
  0
ARC
  5
4A6
  8
0
 62
     7
 10
103.9672689999999
 20
61.586680999999999
 30
0.0
 40
0.4457560000000001
 50
339.274654
 51
2.6524380000000001
  0
ARC
  5
4A7
  8
0
 62
     7
 10
103.911849
 20
61.607532999999989
 30
0.0
 40
0.500698
 50
359.974422
 51
15.676748999999999
  0
ARC
  5
4A8
  8
0
 62
     7
 10
104.14892999999999
 20
61.668320999999999
 30
0.0
 40
0.256071
 50
16.915192999999999
 51
77.948502000000005
  0
LINE
  5
4A9
  8
0
 62
     7
 10
104.339
 20
61.286599999999993
 30
0.0
 11
104.339
 21
60.678499999999993
 31
0.0
  0
LINE
  5
4AA
  8
0
 62
     7
 10
103.6899999999999
 20
61.286599999999993
 30
0.0
 11
103.6899999999999
 21
60.678499999999993
 31
0.0
  0
ARC
  5
4AB
  8
0
 62
     7
 10
103.631883
 20
58.041030000000013
 30
0.0
 40
0.5325350000000002
 50
194.2810289999999
 51
229.2752459999999
  0
ARC
  5
4AC
  8
0
 62
     7
 10
103.85183000000001
 20
58.256661999999999
 30
0.0
 40
0.839854
 50
227.50099900000001
 51
249.4458139999999
  0
ARC
  5
4AD
  8
0
 62
     7
 10
103.98828399999989
 20
58.565472
 30
0.0
 40
1.177071999999999
 50
248.50407300000001
 51
270.32687599999991
  0
ARC
  5
4AE
  8
0
 62
     7
 10
103.99369899999991
 20
58.584344000000002
 30
0.0
 40
1.195926
 50
270.06228700000008
 51
298.43088099999989
  0
ARC
  5
4AF
  8
0
 62
     7
 10
104.17610000000001
 20
58.201857999999987
 30
0.0
 40
0.773034
 50
300.03938499999998
 51
322.612841
  0
ARC
  5
4B0
  8
0
 62
     7
 10
104.377754
 20
58.032952000000002
 30
0.0
 40
0.510386
 50
323.93322899999998
 51
358.53567900000002
  0
ARC
  5
4B1
  8
0
 62
     7
 10
104.40309499999999
 20
60.02372900000001
 30
0.0
 40
0.494286
 50
11.19662299999999
 51
37.519139000000003
  0
ARC
  5
4B2
  8
0
 62
     7
 10
104.23348
 20
59.903088000000011
 30
0.0
 40
0.7023310000000002
 50
36.898034000000003
 51
61.080755000000003
  0
ARC
  5
4B3
  8
0
 62
     7
 10
104.028476
 20
59.570788999999998
 30
0.0
 40
1.092489
 50
60.09740200000001
 51
91.286043999999976
  0
ARC
  5
4B4
  8
0
 62
     7
 10
104.0046669999999
 20
59.461823000000003
 30
0.0
 40
1.201179999999999
 50
90.033918999999997
 51
116.9449919999999
  0
ARC
  5
4B5
  8
0
 62
     7
 10
103.841314
 20
59.826329000000001
 30
0.0
 40
0.802462
 50
118.341025
 51
140.07842400000001
  0
ARC
  5
4B6
  8
0
 62
     7
 10
103.64606499999989
 20
60.003684999999997
 30
0.0
 40
0.539011
 50
141.21804399999999
 51
169.66174099999989
  0
LINE
  5
4B7
  8
0
 62
     7
 10
103.90299999999991
 20
57.547600000000003
 30
0.0
 11
103.90299999999991
 21
58.912500000000001
 31
0.0
  0
LINE
  5
4B8
  8
0
 62
     7
 10
104.1009999999999
 20
57.547600000000003
 30
0.0
 11
104.1009999999999
 21
58.912500000000001
 31
0.0
  0
LINE
  5
4B9
  8
0
 62
     7
 10
106.20699999999999
 20
60.0002
 30
0.0
 11
106.20699999999999
 21
59.015500000000003
 31
0.0
  0
LINE
  5
4BA
  8
0
 62
     7
 10
62.10499999999999
 20
73.847099999999998
 30
0.0
 11
62.10499999999999
 21
78.805999999999997
 31
0.0
  0
LINE
  5
4BB
  8
0
 62
     7
 10
61.9268
 20
73.685500000000005
 30
0.0
 11
57.1616
 21
73.685500000000005
 31
0.0
  0
LINE
  5
4BC
  8
0
 62
     7
 10
72.933599999999984
 20
77.943700000000007
 30
0.0
 11
74.703100000000006
 21
78.417799999999986
 31
0.0
  0
LINE
  5
4BD
  8
0
 62
     7
 10
74.703100000000006
 20
78.417799999999986
 30
0.0
 11
72.933599999999984
 21
78.891800000000003
 31
0.0
  0
LINE
  5
4BE
  8
0
 62
     7
 10
72.933599999999984
 20
78.891800000000003
 30
0.0
 11
72.933599999999984
 21
77.943700000000007
 31
0.0
  0
LINE
  5
4BF
  8
0
 62
     7
 10
63.876800000000003
 20
78.880399999999995
 30
0.0
 11
62.107399999999998
 21
78.406400000000005
 31
0.0
  0
LINE
  5
4C0
  8
0
 62
     7
 10
62.107399999999998
 20
78.406400000000005
 30
0.0
 11
63.876800000000003
 21
77.931700000000006
 31
0.0
  0
LINE
  5
4C1
  8
0
 62
     7
 10
63.876800000000003
 20
77.931700000000006
 30
0.0
 11
63.876800000000003
 21
78.880399999999995
 31
0.0
  0
LINE
  5
4C2
  8
0
 62
     7
 10
74.705500000000001
 20
78.411900000000003
 30
0.0
 11
62.10499999999999
 21
78.411900000000003
 31
0.0
  0
LINE
  5
4C3
  8
0
 62
     7
 10
58.0242
 20
71.914100000000005
 30
0.0
 11
57.550199999999997
 21
73.683499999999995
 31
0.0
  0
LINE
  5
4C4
  8
0
 62
     7
 10
57.550199999999997
 20
73.683499999999995
 30
0.0
 11
57.07609999999999
 21
71.914100000000005
 31
0.0
  0
LINE
  5
4C5
  8
0
 62
     7
 10
57.07609999999999
 20
71.914100000000005
 30
0.0
 11
58.0242
 21
71.914100000000005
 31
0.0
  0
LINE
  5
4C6
  8
0
 62
     7
 10
57.087800000000001
 20
68.229900000000001
 30
0.0
 11
57.561900000000001
 21
66.460400000000007
 31
0.0
  0
LINE
  5
4C7
  8
0
 62
     7
 10
57.561900000000001
 20
66.460400000000007
 30
0.0
 11
58.035899999999991
 21
68.229900000000001
 31
0.0
  0
LINE
  5
4C8
  8
0
 62
     7
 10
58.035899999999991
 20
68.229900000000001
 30
0.0
 11
57.087800000000001
 21
68.229900000000001
 31
0.0
  0
LINE
  5
4C9
  8
0
 62
     7
 10
57.555700000000002
 20
73.685500000000005
 30
0.0
 11
57.555700000000002
 21
66.364999999999995
 31
0.0
  0
LINE
  5
4CA
  8
0
 62
     7
 10
74.705500000000001
 20
73.331400000000002
 30
0.0
 11
74.705500000000001
 21
78.805999999999997
 31
0.0
  0
LINE
  5
4CB
  8
0
 62
     7
 10
70.210999999999999
 20
48.201700000000002
 30
0.0
 11
68.441599999999994
 21
47.727600000000002
 31
0.0
  0
LINE
  5
4CC
  8
0
 62
     7
 10
68.441599999999994
 20
47.727600000000002
 30
0.0
 11
70.210999999999999
 21
47.253599999999999
 31
0.0
  0
LINE
  5
4CD
  8
0
 62
     7
 10
70.210999999999999
 20
47.253599999999999
 30
0.0
 11
70.210999999999999
 21
48.201700000000002
 31
0.0
  0
LINE
  5
4CE
  8
0
 62
     7
 10
104.6329999999999
 20
47.265300000000003
 30
0.0
 11
106.4019999999999
 21
47.7393
 31
0.0
  0
LINE
  5
4CF
  8
0
 62
     7
 10
106.4019999999999
 20
47.7393
 30
0.0
 11
104.6329999999999
 21
48.2134
 31
0.0
  0
LINE
  5
4D0
  8
0
 62
     7
 10
104.6329999999999
 20
48.2134
 30
0.0
 11
104.6329999999999
 21
47.265300000000003
 31
0.0
  0
LINE
  5
4D1
  8
0
 62
     7
 10
68.463300000000004
 20
47.733800000000002
 30
0.0
 11
106.4049999999999
 21
47.733800000000002
 31
0.0
  0
LINE
  5
4D2
  8
0
  6
AIGENLINE001
 62
     7
 10
68.405000000000001
 20
53.535400000000003
 30
0.0
 11
68.405000000000001
 21
74.646000000000001
 31
0.0
  0
LINE
  5
4D3
  8
0
  6
AIGENLINE001
 62
     7
 10
60.8583
 20
59.507899999999999
 30
0.0
 11
108.5199999999999
 21
59.507899999999999
 31
0.0
  0
LINE
  5
4D4
  8
0
 62
     7
 10
64.4666
 20
69.2958
 30
0.0
 11
64.4666
 21
71.165099999999995
 31
0.0
  0
LINE
  5
4D5
  8
0
  6
AIGENLINE001
 62
     7
 10
103.9989999999999
 20
56.592300000000002
 30
0.0
 11
103.9989999999999
 21
62.819600000000001
 31
0.0
  0
ARC
  5
4D6
  8
0
 62
     7
 10
161.85775100000001
 20
213.45021
 30
0.0
 40
3.6367980000000002
 50
272.12362200000001
 51
357.88202799999988
  0
ARC
  5
4D7
  8
0
 62
     7
 10
162.12615999999991
 20
213.44980799999999
 30
0.0
 40
3.636355
 50
182.11190799999989
 51
267.89376199999998
  0
ARC
  5
4D8
  8
0
 62
     7
 10
162.12678399999999
 20
213.18135499999991
 30
0.0
 40
3.6369949999999989
 50
92.115706000000003
 51
177.8814439999999
  0
ARC
  5
4D9
  8
0
 62
     7
 10
161.858857
 20
213.182683
 30
0.0
 40
3.635645999999999
 50
2.0983839999999989
 51
87.893146000000002
  0
ARC
  5
4DA
  8
0
 62
     7
 10
141.992402
 20
213.315977
 30
0.0
 40
3.500067
 50
269.99720000000002
 51
359.99716999999998
  0
ARC
  5
4DB
  8
0
 62
     7
 10
142.12587499999989
 20
213.44909100000001
 30
0.0
 40
3.6356379999999988
 50
182.1010179999999
 51
267.893372
  0
ARC
  5
4DC
  8
0
 62
     7
 10
142.1271669999999
 20
213.18140399999999
 30
0.0
 40
3.6369709999999991
 50
92.126232999999999
 51
177.88219799999999
  0
ARC
  5
4DD
  8
0
 62
     7
 10
141.9923159999999
 20
213.31571799999989
 30
0.0
 40
3.5001540000000002
 50
0.00142
 51
90.001390000000001
  0
ARC
  5
4DE
  8
0
 62
     7
 10
121.99211799999991
 20
213.315977
 30
0.0
 40
3.500067
 50
269.99720000000002
 51
359.99716999999998
  0
ARC
  5
4DF
  8
0
 62
     7
 10
121.99211799999991
 20
213.31563099999991
 30
0.0
 40
3.4997220000000002
 50
179.99715
 51
269.99720000000002
  0
ARC
  5
4E0
  8
0
 62
     7
 10
121.992206
 20
213.31606199999999
 30
0.0
 40
3.4998089999999991
 50
90.004230000000007
 51
180.0042399999999
  0
ARC
  5
4E1
  8
0
 62
     7
 10
121.99203199999999
 20
213.31571799999989
 30
0.0
 40
3.5001540000000002
 50
0.00142
 51
90.001390000000001
  0
LINE
  5
4E2
  8
0
 62
     7
 10
68.4054
 20
228.21000000000001
 30
0.0
 11
68.4054
 21
223.05000000000001
 31
0.0
  0
LINE
  5
4E3
  8
0
 62
     7
 10
88.405699999999996
 20
228.21199999999999
 30
0.0
 11
88.405699999999996
 21
222.66699999999989
 31
0.0
  0
LINE
  5
4E4
  8
0
 62
     7
 10
48.405099999999997
 20
228.21199999999999
 30
0.0
 11
48.405099999999997
 21
222.66699999999989
 31
0.0
  0
LINE
  5
4E5
  8
0
 62
     7
 10
70.173400000000001
 20
228.18299999999991
 30
0.0
 11
68.4054
 21
227.709
 31
0.0
  0
LINE
  5
4E6
  8
0
 62
     7
 10
68.4054
 20
227.709
 30
0.0
 11
70.173400000000001
 21
227.23500000000001
 31
0.0
  0
LINE
  5
4E7
  8
0
 62
     7
 10
70.173400000000001
 20
227.23500000000001
 30
0.0
 11
70.173400000000001
 21
228.18299999999991
 31
0.0
  0
LINE
  5
4E8
  8
0
 62
     7
 10
50.1738
 20
228.18299999999991
 30
0.0
 11
48.405099999999997
 21
227.709
 31
0.0
  0
LINE
  5
4E9
  8
0
 62
     7
 10
48.405099999999997
 20
227.709
 30
0.0
 11
50.1738
 21
227.23500000000001
 31
0.0
  0
LINE
  5
4EA
  8
0
 62
     7
 10
50.1738
 20
227.23500000000001
 30
0.0
 11
50.1738
 21
228.18299999999991
 31
0.0
  0
LINE
  5
4EB
  8
0
 62
     7
 10
66.6374
 20
227.24700000000001
 30
0.0
 11
68.4054
 21
227.72099999999989
 31
0.0
  0
LINE
  5
4EC
  8
0
 62
     7
 10
68.4054
 20
227.72099999999989
 30
0.0
 11
66.6374
 21
228.19499999999999
 31
0.0
  0
LINE
  5
4ED
  8
0
 62
     7
 10
66.6374
 20
228.19499999999999
 30
0.0
 11
66.6374
 21
227.24700000000001
 31
0.0
  0
LINE
  5
4EE
  8
0
 62
     7
 10
86.637600000000006
 20
227.24700000000001
 30
0.0
 11
88.405699999999996
 21
227.72099999999989
 31
0.0
  0
LINE
  5
4EF
  8
0
 62
     7
 10
88.405699999999996
 20
227.72099999999989
 30
0.0
 11
86.637600000000006
 21
228.19499999999999
 31
0.0
  0
LINE
  5
4F0
  8
0
 62
     7
 10
86.637600000000006
 20
228.19499999999999
 30
0.0
 11
86.637600000000006
 21
227.24700000000001
 31
0.0
  0
LINE
  5
4F1
  8
0
 62
     7
 10
48.405099999999997
 20
227.715
 30
0.0
 11
88.405699999999996
 21
227.715
 31
0.0
  0
LINE
  5
4F2
  8
0
 62
     7
 10
141.99199999999999
 20
225.18599999999989
 30
0.0
 11
141.99199999999999
 21
220.0259999999999
 31
0.0
  0
LINE
  5
4F3
  8
0
 62
     7
 10
161.99299999999999
 20
225.18700000000001
 30
0.0
 11
161.99299999999999
 21
219.64299999999989
 31
0.0
  0
LINE
  5
4F4
  8
0
 62
     7
 10
121.992
 20
225.18700000000001
 30
0.0
 11
121.992
 21
219.64299999999989
 31
0.0
  0
LINE
  5
4F5
  8
0
 62
     7
 10
143.75999999999991
 20
225.15899999999999
 30
0.0
 11
141.99199999999999
 21
224.685
 31
0.0
  0
LINE
  5
4F6
  8
0
 62
     7
 10
141.99199999999999
 20
224.685
 30
0.0
 11
143.75999999999991
 21
224.2109999999999
 31
0.0
  0
LINE
  5
4F7
  8
0
 62
     7
 10
143.75999999999991
 20
224.2109999999999
 30
0.0
 11
143.75999999999991
 21
225.15899999999999
 31
0.0
  0
LINE
  5
4F8
  8
0
 62
     7
 10
92.274500000000003
 20
121.55799999999989
 30
0.0
 11
90.505799999999994
 21
121.084
 31
0.0
  0
LINE
  5
4F9
  8
0
 62
     7
 10
90.505799999999994
 20
121.084
 30
0.0
 11
92.274500000000003
 21
120.6099999999999
 31
0.0
  0
LINE
  5
4FA
  8
0
 62
     7
 10
92.274500000000003
 20
120.6099999999999
 30
0.0
 11
92.274500000000003
 21
121.55799999999989
 31
0.0
  0
LINE
  5
4FB
  8
0
 62
     7
 10
84.537800000000004
 20
120.622
 30
0.0
 11
86.305899999999994
 21
121.096
 31
0.0
  0
LINE
  5
4FC
  8
0
 62
     7
 10
86.305899999999994
 20
121.096
 30
0.0
 11
84.537800000000004
 21
121.56999999999999
 31
0.0
  0
LINE
  5
4FD
  8
0
 62
     7
 10
84.537800000000004
 20
121.56999999999999
 30
0.0
 11
84.537800000000004
 21
120.622
 31
0.0
  0
LINE
  5
4FE
  8
0
 62
     7
 10
83.314599999999984
 20
121.09
 30
0.0
 11
99.114500000000021
 21
121.09
 31
0.0
  0
LINE
  5
4FF
  8
0
 62
     7
 10
83.974199999999996
 20
173.48099999999991
 30
0.0
 11
82.205500000000015
 21
173.00699999999989
 31
0.0
  0
LINE
  5
500
  8
0
 62
     7
 10
82.205500000000015
 20
173.00699999999989
 30
0.0
 11
83.974199999999996
 21
172.53399999999999
 31
0.0
  0
LINE
  5
501
  8
0
 62
     7
 10
83.974199999999996
 20
172.53399999999999
 30
0.0
 11
83.974199999999996
 21
173.48099999999991
 31
0.0
  0
LINE
  5
502
  8
0
 62
     7
 10
92.837800000000001
 20
172.5449999999999
 30
0.0
 11
94.605800000000002
 21
173.01900000000001
 31
0.0
  0
LINE
  5
503
  8
0
 62
     7
 10
94.605800000000002
 20
173.01900000000001
 30
0.0
 11
92.837800000000001
 21
173.49299999999999
 31
0.0
  0
LINE
  5
504
  8
0
 62
     7
 10
92.837800000000001
 20
173.49299999999999
 30
0.0
 11
92.837800000000001
 21
172.5449999999999
 31
0.0
  0
LINE
  5
505
  8
0
 62
     7
 10
82.205500000000015
 20
173.01300000000001
 30
0.0
 11
94.605800000000002
 21
173.01300000000001
 31
0.0
  0
LINE
  5
506
  8
0
 62
     7
 10
63.174300000000002
 20
173.48099999999991
 30
0.0
 11
61.4056
 21
173.00699999999989
 31
0.0
  0
LINE
  5
507
  8
0
 62
     7
 10
61.4056
 20
173.00699999999989
 30
0.0
 11
63.174300000000002
 21
172.53399999999999
 31
0.0
  0
LINE
  5
508
  8
0
 62
     7
 10
63.174300000000002
 20
172.53399999999999
 30
0.0
 11
63.174300000000002
 21
173.48099999999991
 31
0.0
  0
LINE
  5
509
  8
0
 62
     7
 10
73.637100000000004
 20
172.5449999999999
 30
0.0
 11
75.405199999999994
 21
173.01900000000001
 31
0.0
  0
LINE
  5
50A
  8
0
 62
     7
 10
75.405199999999994
 20
173.01900000000001
 30
0.0
 11
73.637100000000004
 21
173.49299999999999
 31
0.0
  0
LINE
  5
50B
  8
0
 62
     7
 10
73.637100000000004
 20
173.49299999999999
 30
0.0
 11
73.637100000000004
 21
172.5449999999999
 31
0.0
  0
LINE
  5
50C
  8
0
 62
     7
 10
61.4056
 20
173.01300000000001
 30
0.0
 11
75.405199999999994
 21
173.01300000000001
 31
0.0
  0
LINE
  5
50D
  8
0
 62
     7
 10
123.761
 20
225.15899999999999
 30
0.0
 11
121.992
 21
224.685
 31
0.0
  0
LINE
  5
50E
  8
0
 62
     7
 10
121.992
 20
224.685
 30
0.0
 11
123.761
 21
224.2109999999999
 31
0.0
  0
LINE
  5
50F
  8
0
 62
     7
 10
123.761
 20
224.2109999999999
 30
0.0
 11
123.761
 21
225.15899999999999
 31
0.0
  0
LINE
  5
510
  8
0
 62
     7
 10
140.2239999999999
 20
224.2229999999999
 30
0.0
 11
141.99199999999999
 21
224.696
 31
0.0
  0
LINE
  5
511
  8
0
 62
     7
 10
141.99199999999999
 20
224.696
 30
0.0
 11
140.2239999999999
 21
225.16999999999999
 31
0.0
  0
LINE
  5
512
  8
0
 62
     7
 10
140.2239999999999
 20
225.16999999999999
 30
0.0
 11
140.2239999999999
 21
224.2229999999999
 31
0.0
  0
LINE
  5
513
  8
0
 62
     7
 10
160.2239999999999
 20
224.2229999999999
 30
0.0
 11
161.99299999999999
 21
224.696
 31
0.0
  0
LINE
  5
514
  8
0
 62
     7
 10
161.99299999999999
 20
224.696
 30
0.0
 11
160.2239999999999
 21
225.16999999999999
 31
0.0
  0
LINE
  5
515
  8
0
 62
     7
 10
160.2239999999999
 20
225.16999999999999
 30
0.0
 11
160.2239999999999
 21
224.2229999999999
 31
0.0
  0
LINE
  5
516
  8
0
 62
     7
 10
148.24199999999999
 20
207.06599999999989
 30
0.0
 11
154.291
 21
207.06599999999989
 31
0.0
  0
LINE
  5
517
  8
0
 62
     7
 10
121.992
 20
224.69099999999989
 30
0.0
 11
161.99299999999999
 21
224.69099999999989
 31
0.0
  0
LINE
  5
518
  8
0
  6
AIGENLINE001
 62
     7
 10
161.99299999999999
 20
219.01900000000001
 30
0.0
 11
161.99299999999999
 21
207.63999999999999
 31
0.0
  0
LINE
  5
519
  8
0
  6
AIGENLINE001
 62
     7
 10
116.06699999999999
 20
213.31599999999989
 30
0.0
 11
168.24299999999999
 21
213.31599999999989
 31
0.0
  0
LINE
  5
51A
  8
0
 62
     7
 10
146.053
 20
209.92500000000001
 30
0.0
 11
144.46700000000001
 21
210.84099999999989
 31
0.0
  0
LINE
  5
51B
  8
0
 62
     7
 10
144.46700000000001
 20
210.84099999999989
 30
0.0
 11
145.38200000000001
 21
209.255
 31
0.0
  0
LINE
  5
51C
  8
0
 62
     7
 10
145.38200000000001
 20
209.255
 30
0.0
 11
146.053
 21
209.92500000000001
 31
0.0
  0
LINE
  5
51D
  8
0
 62
     7
 10
137.93199999999999
 20
216.7059999999999
 30
0.0
 11
139.517
 21
215.791
 31
0.0
  0
LINE
  5
51E
  8
0
 62
     7
 10
139.517
 20
215.791
 30
0.0
 11
138.602
 21
217.37599999999989
 31
0.0
  0
LINE
  5
51F
  8
0
 62
     7
 10
138.602
 20
217.37599999999989
 30
0.0
 11
137.93199999999999
 21
216.7059999999999
 31
0.0
  0
LINE
  5
520
  8
0
 62
     7
 10
137.256
 20
218.05199999999999
 30
0.0
 11
148.24199999999999
 21
207.06599999999989
 31
0.0
  0
LINE
  5
521
  8
0
  6
AIGENLINE001
 62
     7
 10
141.99199999999999
 20
219.357
 30
0.0
 11
141.99199999999999
 21
207.274
 31
0.0
  0
LINE
  5
522
  8
0
  6
AIGENLINE001
 62
     7
 10
121.992
 20
219.01900000000001
 30
0.0
 11
121.992
 21
207.458
 31
0.0
  0
LINE
  5
523
  8
_________2
 62
     7
 10
139.75999999999991
 20
258.911
 30
0.0
 11
139.75999999999991
 21
230.91099999999989
 31
0.0
  0
LINE
  5
524
  8
_________2
 62
     7
 10
165.1809999999999
 20
258.911
 30
0.0
 11
165.1809999999999
 21
230.91099999999989
 31
0.0
  0
TEXT
  5
525
  8
_________2
 62
     7
 10
171.16633466666659
 20
233.06200000000001
 30
0.0
 40
3.3734599999999988
  1
クロム
 41
0.5
 72
     1
 11
174.09
 21
233.06200000000001
 31
0.0
  0
TEXT
  5
526
  8
_________2
 62
     7
 10
143.8992283333333
 20
233.06200000000001
 30
0.0
 40
3.3734599999999988
  1
HR04260S-CH
 41
0.5
 72
     1
 11
152.614
 21
233.06200000000001
 31
0.0
  0
LINE
  5
527
  8
_________2
 62
     7
 10
139.75999999999991
 20
230.91099999999989
 30
0.0
 11
183.55099999999999
 21
230.91099999999989
 31
0.0
  0
LINE
  5
528
  8
_________2
 62
     7
 10
139.75999999999991
 20
237.91099999999989
 30
0.0
 11
183.55099999999999
 21
237.91099999999989
 31
0.0
  0
TEXT
  5
529
  8
_________2
 62
     7
 10
171.27878333333331
 20
240.0619999999999
 30
0.0
 40
3.3734599999999988
  1
ブラス
 41
0.5
 72
     1
 11
174.09
 21
240.0619999999999
 31
0.0
  0
TEXT
  5
52A
  8
_________2
 62
     7
 10
165.20655533333331
 20
247.06099999999989
 30
0.0
 40
3.3734599999999988
  1
アンティークブラス
 41
0.5
 72
     1
 11
174.09
 21
247.06099999999989
 31
0.0
  0
TEXT
  5
52B
  8
_________2
 62
     7
 10
172.2908213333333
 20
254.06200000000001
 30
0.0
 40
3.3734599999999988
  1
仕上
 41
0.5
 72
     1
 11
174.09
 21
254.06200000000001
 31
0.0
  0
TEXT
  5
52C
  8
_________2
 62
     7
 10
143.8992283333333
 20
240.0619999999999
 30
0.0
 40
3.3734599999999988
  1
HR04260S-PB
 41
0.5
 72
     1
 11
152.614
 21
240.0619999999999
 31
0.0
  0
TEXT
  5
52D
  8
_________2
 62
     7
 10
143.8992283333333
 20
247.06200000000001
 30
0.0
 40
3.3734599999999988
  1
HR04260S-AB
 41
0.5
 72
     1
 11
152.614
 21
247.06200000000001
 31
0.0
  0
TEXT
  5
52E
  8
_________2
 62
     7
 10
150.8148213333333
 20
254.06200000000001
 30
0.0
 40
3.3734599999999988
  1
品番
 41
0.5
 72
     1
 11
152.614
 21
254.06200000000001
 31
0.0
  0
LINE
  5
52F
  8
_________2
 62
     7
 10
139.75999999999991
 20
244.91099999999989
 30
0.0
 11
183.55099999999999
 21
244.91099999999989
 31
0.0
  0
LINE
  5
530
  8
_________2
 62
     7
 10
139.75999999999991
 20
251.91099999999989
 30
0.0
 11
183.55099999999999
 21
251.91099999999989
 31
0.0
  0
TEXT
  5
531
  8
_________2
 62
     7
 10
20.159300000000002
 20
39.144799999999989
 30
0.0
 40
3.6545800000000002
  1
・国産洗面器とのセットの場合は、国産の排水ヘッド部を別途準備してください。
 41
0.5
  0
LINE
  5
532
  8
_________2
 62
     7
 10
205.30099999999999
 20
127.411
 30
0.0
 11
183.55099999999999
 21
127.411
 31
0.0
  0
LINE
  5
533
  8
_________2
 62
     7
 10
100.2999999999999
 20
-4.0910799999999998
 30
0.0
 11
100.2999999999999
 21
-21.070699999999992
 31
0.0
  0
LINE
  5
534
  8
_________2
 62
     7
 10
100.2999999999999
 20
275.93099999999993
 30
0.0
 11
100.2999999999999
 21
258.911
 31
0.0
  0
LINE
  5
535
  8
_________2
 62
     7
 10
17.049499999999998
 20
127.411
 30
0.0
 11
-4.7008599999999987
 21
127.411
 31
0.0
  0
LINE
  5
536
  8
_________2
 62
     7
 10
76.741
 20
29.8047
 30
0.0
 11
74.554699999999997
 21
29.8047
 31
0.0
  0
LINE
  5
537
  8
_________2
 62
     7
 10
77.233699999999999
 20
29.8047
 30
0.0
 11
76.981499999999997
 21
29.8047
 31
0.0
  0
LINE
  5
538
  8
_________2
 62
     7
 10
77.726299999999995
 20
29.8047
 30
0.0
 11
80.651200000000003
 21
29.8047
 31
0.0
  0
LINE
  5
539
  8
_________2
 62
     7
 10
77.233699999999999
 20
29.8047
 30
0.0
 11
77.485900000000001
 21
29.8047
 31
0.0
  0
LINE
  5
53A
  8
_________2
 62
     7
 10
70.837500000000006
 20
29.8047
 30
0.0
 11
68.650499999999994
 21
29.8047
 31
0.0
  0
LINE
  5
53B
  8
_________2
 62
     7
 10
71.329400000000007
 20
29.8047
 30
0.0
 11
71.0779
 21
29.8047
 31
0.0
  0
LINE
  5
53C
  8
_________2
 62
     7
 10
71.329400000000007
 20
30.2974
 30
0.0
 11
71.329400000000007
 21
32.484400000000001
 31
0.0
  0
LINE
  5
53D
  8
_________2
 62
     7
 10
71.329400000000007
 20
29.8047
 30
0.0
 11
71.329400000000007
 21
30.057600000000001
 31
0.0
  0
LINE
  5
53E
  8
_________2
 62
     7
 10
71.822100000000006
 20
29.8047
 30
0.0
 11
74.009
 21
29.8047
 31
0.0
  0
LINE
  5
53F
  8
_________2
 62
     7
 10
71.329400000000007
 20
29.8047
 30
0.0
 11
71.581599999999995
 21
29.8047
 31
0.0
  0
LINE
  5
540
  8
_________2
 62
     7
 10
71.329400000000007
 20
29.312799999999999
 30
0.0
 11
71.329400000000007
 21
27.1265
 31
0.0
  0
LINE
  5
541
  8
_________2
 62
     7
 10
71.329400000000007
 20
29.8047
 30
0.0
 11
71.329400000000007
 21
29.5532
 31
0.0
  0
LINE
  5
542
  8
_________2
 62
     7
 10
75.040499999999994
 20
28.5852
 30
0.0
 11
80.218500000000006
 21
27.720400000000001
 31
0.0
  0
LINE
  5
543
  8
_________2
 62
     7
 10
75.040499999999994
 20
31.024999999999999
 30
0.0
 11
80.218500000000006
 21
31.8904
 31
0.0
  0
LINE
  5
544
  8
_________2
 62
     7
 10
80.218500000000006
 20
27.720400000000001
 30
0.0
 11
80.218500000000006
 21
31.8904
 31
0.0
  0
LINE
  5
545
  8
_________2
 62
     7
 10
75.040499999999994
 20
28.5852
 30
0.0
 11
75.040499999999994
 21
31.024999999999999
 31
0.0
  0
ARC
  5
546
  8
_________2
 62
     7
 10
71.282506999999995
 20
29.757819999999999
 30
0.0
 40
1.2680519999999991
 50
2.120652999999999
 51
87.879336999999992
  0
ARC
  5
547
  8
_________2
 62
     7
 10
71.376008999999996
 20
29.758879
 30
0.0
 40
1.266980999999999
 50
92.106864999999985
 51
177.925467
  0
ARC
  5
548
  8
_________2
 62
     7
 10
71.376357999999996
 20
29.851671
 30
0.0
 40
1.2673680000000001
 50
182.12203600000001
 51
267.877993
  0
ARC
  5
549
  8
_________2
 62
     7
 10
71.282541000000009
 20
29.852347999999999
 30
0.0
 40
1.2680439999999991
 50
272.11916400000001
 51
357.84848499999993
  0
ARC
  5
54A
  8
_________2
 62
     7
 10
71.248712999999995
 20
29.724740999999991
 30
0.0
 40
2.1671800000000001
 50
2.1155650000000001
 51
87.865493000000015
  0
ARC
  5
54B
  8
_________2
 62
     7
 10
71.409125000000003
 20
29.726479000000001
 30
0.0
 40
2.1654049999999989
 50
92.109143000000003
 51
177.928697
  0
ARC
  5
54C
  8
_________2
 62
     7
 10
71.409439000000006
 20
29.884751999999999
 30
0.0
 40
2.1657829999999998
 50
182.117133
 51
267.88289700000001
  0
ARC
  5
54D
  8
_________2
 62
     7
 10
71.249459000000002
 20
29.885429999999989
 30
0.0
 40
2.1664590000000001
 50
272.11546800000002
 51
357.86560400000002
  0
TEXT
  5
54E
  8
_________2
 62
     7
 10
104.605
 20
1.6794899999999999
 30
0.0
 40
3.0923400000000001
  1
図番
 41
0.5
  0
LINE
  5
54F
  8
_________2
 62
     7
 10
103.55
 20
5.9087199999999989
 30
0.0
 11
183.55099999999999
 21
5.9087199999999989
 31
0.0
  0
TEXT
  5
550
  8
_________2
 62
     7
 10
104.605
 20
11.679299999999991
 30
0.0
 40
3.0923400000000001
  1
品番
 41
0.5
  0
TEXT
  5
551
  8
_________2
 62
     7
 10
104.605
 20
31.8188
 30
0.0
 40
3.0923400000000001
  1
名称
 41
0.5
  0
TEXT
  5
552
  8
_________2
 62
     7
 10
91.845058333333341
 20
26.822600000000001
 30
0.0
 40
3.6545800000000002
  1
mm
 41
0.5
 72
     1
 11
93.367800000000003
 21
26.822600000000001
 31
0.0
  0
TEXT
  5
553
  8
_________2
 62
     7
 10
85.643199999999993
 20
31.8188
 30
0.0
 40
3.0923400000000001
  1
単位
 41
0.5
  0
TEXT
  5
554
  8
_________2
 62
     7
 10
85.643199999999993
 20
19.410799999999991
 30
0.0
 40
3.0923400000000001
  1
尺度
 41
0.5
  0
TEXT
  5
555
  8
_________2
 62
     7
 10
90.548758666666686
 20
13.2186
 30
0.0
 40
3.6545800000000002
  1
1 ： 5
 41
0.5
 72
     1
 11
93.959699999999998
 21
13.2186
 31
0.0
  0
TEXT
  5
556
  8
_________2
 62
     7
 10
136.66252499999999
 20
9.1085499999999993
 30
0.0
 40
3.9357000000000002
  1
図中の表参照
 41
0.5
 72
     1
 11
143.55000000000001
 21
9.1085499999999993
 31
0.0
  0
TEXT
  5
557
  8
_________2
 62
     7
 10
136.33455000000001
 20
-0.8926299999999999
 30
0.0
 40
3.9357000000000002
  1
HR04260S
 41
0.5
 72
     1
 11
143.55000000000001
 21
-0.8926299999999999
 31
0.0
  0
TEXT
  5
558
  8
_________2
 62
     7
 10
24.5868
 20
0.7079720000000001
 30
0.0
 40
3.9357000000000002
  1
（社）日本水道協会認証品
 41
0.5
  0
TEXT
  5
559
  8
_________2
 62
     7
 10
109.179
 20
24.226400000000002
 30
0.0
 40
3.9357000000000002
  1
エルザ　湯水混合水栓
 41
0.5
  0
TEXT
  5
55A
  8
_________2
 62
     7
 10
39.425300333333333
 20
13.6037
 30
0.0
 40
3.6545800000000002
  1
早川
 41
0.5
 72
     1
 11
41.313499999999998
 21
13.6037
 31
0.0
  0
TEXT
  5
55B
  8
_________2
 62
     7
 10
20.79039066666666
 20
13.6037
 30
0.0
 40
3.6545800000000002
  1
石原
 41
0.5
 72
     1
 11
22.7395
 21
13.6037
 31
0.0
  0
TEXT
  5
55C
  8
_________2
 62
     7
 10
67.785799999999995
 20
13.2186
 30
0.0
 40
3.6545800000000002
  1
14.01.13
 41
0.5
  0
TEXT
  5
55D
  8
_________2
 62
     7
 10
66.593100000000007
 20
19.410799999999991
 30
0.0
 40
3.0923400000000001
  1
日付
 41
0.5
  0
TEXT
  5
55E
  8
_________2
 62
     7
 10
29.639399999999998
 20
19.410799999999991
 30
0.0
 40
3.0923400000000001
  1
検図
 41
0.5
  0
TEXT
  5
55F
  8
_________2
 62
     7
 10
18.021100000000001
 20
5.21143
 30
0.0
 40
3.0923400000000001
  1
備考
 41
0.5
  0
TEXT
  5
560
  8
_________2
 62
     7
 10
18.021100000000001
 20
19.410799999999991
 30
0.0
 40
3.0923400000000001
  1
製図
 41
0.5
  0
TEXT
  5
561
  8
_________2
 62
     7
 10
23.788465333333338
 20
27.936800000000002
 30
0.0
 40
4.4979399999999989
  1
セラトレーディング株式会社
 41
0.5
 72
     1
 11
41.180500000000002
 21
27.936800000000002
 31
0.0
  0
LINE
  5
562
  8
_________2
 62
     7
 10
183.55099999999999
 20
-4.0910799999999998
 30
0.0
 11
17.049499999999998
 21
-4.0910799999999998
 31
0.0
  0
LINE
  5
563
  8
_________2
 62
     7
 10
17.049499999999998
 20
-4.0910799999999998
 30
0.0
 11
17.049499999999998
 21
258.911
 31
0.0
  0
LINE
  5
564
  8
_________2
 62
     7
 10
17.049499999999998
 20
258.911
 30
0.0
 11
183.55099999999999
 21
258.911
 31
0.0
  0
LINE
  5
565
  8
_________2
 62
     7
 10
183.55099999999999
 20
258.911
 30
0.0
 11
183.55099999999999
 21
-4.0910799999999998
 31
0.0
  0
LINE
  5
566
  8
_________2
 62
     7
 10
65.549899999999994
 20
9.4096499999999992
 30
0.0
 11
65.549899999999994
 21
35.909500000000001
 31
0.0
  0
LINE
  5
567
  8
_________2
 62
     7
 10
84.549700000000016
 20
9.4096499999999992
 30
0.0
 11
84.549700000000016
 21
35.909500000000001
 31
0.0
  0
LINE
  5
568
  8
_________2
 62
     7
 10
103.55
 20
-4.0910799999999998
 30
0.0
 11
103.55
 21
35.909500000000001
 31
0.0
  0
LINE
  5
569
  8
_________2
 62
     7
 10
28.549299999999992
 20
9.4096499999999992
 30
0.0
 11
28.549299999999992
 21
23.409199999999998
 31
0.0
  0
LINE
  5
56A
  8
_________2
 62
     7
 10
17.049499999999998
 20
9.4096499999999992
 30
0.0
 11
103.55
 21
9.4096499999999992
 31
0.0
  0
LINE
  5
56B
  8
_________2
 62
     7
 10
17.049499999999998
 20
23.409199999999998
 30
0.0
 11
103.55
 21
23.409199999999998
 31
0.0
  0
LINE
  5
56C
  8
_________2
 62
     7
 10
103.55
 20
15.9085
 30
0.0
 11
183.55099999999999
 21
15.9085
 31
0.0
  0
LINE
  5
56D
  8
_________2
 62
     7
 10
17.049499999999998
 20
35.909500000000001
 30
0.0
 11
183.55099999999999
 21
35.909500000000001
 31
0.0
  0
ENDSEC
  0
EOF
