  0
SECTION
  2
HEADER
  9
$ACADVER
  1
AC1009
  9
$INSBASE
 10
0.0
 20
0.0
 30
0.0
  9
$EXTMIN
 10
-104.794
 20
0.176045
 30
0.0
  9
$EXTMAX
 10
315.209
 20
297.178
 30
0.0
  9
$LIMMIN
 10
0.0
 20
0.0
  9
$LIMMAX
 10
12.0
 20
9.0
  9
$ORTHOMODE
 70
     0
  9
$REGENMODE
 70
     1
  9
$FILLMODE
 70
     1
  9
$QTEXTMODE
 70
     0
  9
$MIRRTEXT
 70
     1
  9
$DRAGMODE
 70
     2
  9
$LTSCALE
 40
1.0
  9
$OSMODE
 70
    37
  9
$ATTMODE
 70
     1
  9
$TEXTSIZE
 40
0.0
  9
$TRACEWID
 40
0.05
  9
$TEXTSTYLE
  7
STANDARD
  9
$CLAYER
  8
0
  9
$CELTYPE
  6
CONTINUOUS
  9
$CECOLOR
 62
   256
  9
$DIMSCALE
 40
1.0
  9
$DIMASZ
 40
0.18
  9
$DIMEXO
 40
0.0625
  9
$DIMDLI
 40
0.38
  9
$DIMRND
 40
0.0
  9
$DIMDLE
 40
0.0
  9
$DIMEXE
 40
0.18
  9
$DIMTP
 40
0.0
  9
$DIMTM
 40
0.0
  9
$DIMTXT
 40
0.18
  9
$DIMCEN
 40
0.09
  9
$DIMTSZ
 40
0.0
  9
$DIMTOL
 70
     0
  9
$DIMLIM
 70
     0
  9
$DIMTIH
 70
     1
  9
$DIMTOH
 70
     1
  9
$DIMSE1
 70
     0
  9
$DIMSE2
 70
     0
  9
$DIMTAD
 70
     0
  9
$DIMZIN
 70
     0
  9
$DIMBLK
  1

  9
$DIMASO
 70
     1
  9
$DIMSHO
 70
     1
  9
$DIMPOST
  1

  9
$DIMAPOST
  1

  9
$DIMALT
 70
     0
  9
$DIMALTD
 70
     2
  9
$DIMALTF
 40
25.399999999999999
  9
$DIMLFAC
 40
1.0
  9
$DIMTOFL
 70
     0
  9
$DIMTVP
 40
0.0
  9
$DIMTIX
 70
     0
  9
$DIMSOXD
 70
     0
  9
$DIMSAH
 70
     0
  9
$DIMBLK1
  1

  9
$DIMBLK2
  1

  9
$DIMSTYLE
  2
STANDARD
  9
$DIMCLRD
 70
     0
  9
$DIMCLRE
 70
     0
  9
$DIMCLRT
 70
     0
  9
$DIMTFAC
 40
1.0
  9
$DIMGAP
 40
0.09
  9
$LUNITS
 70
     2
  9
$LUPREC
 70
     4
  9
$SKETCHINC
 40
0.1
  9
$FILLETRAD
 40
0.0
  9
$AUNITS
 70
     0
  9
$AUPREC
 70
     0
  9
$MENU
  1
.
  9
$ELEVATION
 40
0.0
  9
$PELEVATION
 40
0.0
  9
$THICKNESS
 40
0.0
  9
$LIMCHECK
 70
     0
  9
$BLIPMODE
 70
     0
  9
$CHAMFERA
 40
0.0
  9
$CHAMFERB
 40
0.0
  9
$SKPOLY
 70
     0
  9
$TDCREATE
 40
2444972.375
  9
$TDUPDATE
 40
2458574.2497429401
  9
$TDINDWG
 40
0.0000639931
  9
$TDUSRTIMER
 40
0.0000639931
  9
$USRTIMER
 70
     1
  9
$ANGBASE
 50
0.0
  9
$ANGDIR
 70
     0
  9
$PDMODE
 70
     0
  9
$PDSIZE
 40
0.0
  9
$PLINEWID
 40
0.0
  9
$COORDS
 70
     1
  9
$SPLFRAME
 70
     0
  9
$SPLINETYPE
 70
     6
  9
$SPLINESEGS
 70
     8
  9
$ATTDIA
 70
     1
  9
$ATTREQ
 70
     1
  9
$HANDLING
 70
     1
  9
$HANDSEED
  5
670
  9
$SURFTAB1
 70
     6
  9
$SURFTAB2
 70
     6
  9
$SURFTYPE
 70
     6
  9
$SURFU
 70
     6
  9
$SURFV
 70
     6
  9
$UCSNAME
  2

  9
$UCSORG
 10
0.0
 20
0.0
 30
0.0
  9
$UCSXDIR
 10
1.0
 20
0.0
 30
0.0
  9
$UCSYDIR
 10
0.0
 20
1.0
 30
0.0
  9
$PUCSNAME
  2

  9
$PUCSORG
 10
0.0
 20
0.0
 30
0.0
  9
$PUCSXDIR
 10
1.0
 20
0.0
 30
0.0
  9
$PUCSYDIR
 10
0.0
 20
1.0
 30
0.0
  9
$USERI1
 70
     0
  9
$USERI2
 70
     0
  9
$USERI3
 70
     0
  9
$USERI4
 70
     0
  9
$USERI5
 70
     0
  9
$USERR1
 40
0.0
  9
$USERR2
 40
0.0
  9
$USERR3
 40
0.0
  9
$USERR4
 40
0.0
  9
$USERR5
 40
0.0
  9
$WORLDVIEW
 70
     1
  9
$SHADEDGE
 70
     3
  9
$SHADEDIF
 70
    70
  9
$TILEMODE
 70
     1
  9
$MAXACTVP
 70
    48
  9
$PLIMCHECK
 70
     0
  9
$PEXTMIN
 10
1.0000000000000000E+020
 20
1.0000000000000000E+020
 30
1.0000000000000000E+020
  9
$PEXTMAX
 10
-1.0000000000000000E+020
 20
-1.0000000000000000E+020
 30
-1.0000000000000000E+020
  9
$PLIMMIN
 10
0.0
 20
0.0
  9
$PLIMMAX
 10
12.0
 20
9.0
  9
$UNITMODE
 70
     0
  9
$VISRETAIN
 70
     1
  9
$PLINEGEN
 70
     0
  9
$PSLTSCALE
 70
     1
  0
ENDSEC
  0
SECTION
  2
TABLES
  0
TABLE
  2
VPORT
 70
     1
  0
VPORT
  2
*ACTIVE
 70
     0
 10
0.0
 20
0.0
 11
1.0
 21
1.0
 12
195.84271114783351
 22
148.589
 13
0.0
 23
0.0
 14
1.0
 24
1.0
 15
0.0
 25
0.0
 16
0.0
 26
0.0
 36
1.0
 17
0.0
 27
0.0
 37
0.0
 40
281.11539623648741
 41
2.298642533936651
 42
50.0
 43
0.0
 44
0.0
 50
0.0
 51
0.0
 71
     0
 72
   100
 73
     1
 74
     1
 75
     0
 76
     0
 77
     0
 78
     0
  0
ENDTAB
  0
TABLE
  2
LTYPE
 70
     2
  0
LTYPE
  2
CONTINUOUS
 70
     0
  3
Solid line
 72
    65
 73
     0
 40
0.0
  0
LTYPE
  2
AIGENLINE001
 70
     0
  3
generate AI->DXF Converter
 72
    65
 73
     4
 40
5.8561449999999988
 49
3.5278
 49
-0.776115
 49
0.776115
 49
-0.776115
  0
ENDTAB
  0
TABLE
  2
LAYER
 70
     4
  0
LAYER
  2
0
 70
     0
 62
     7
  6
CONTINUOUS
  0
LAYER
  2
____
 70
     0
 62
     7
  6
CONTINUOUS
  0
LAYER
  2
_________1
 70
     0
 62
     7
  6
CONTINUOUS
  0
LAYER
  2
_________2
 70
     0
 62
     7
  6
CONTINUOUS
  0
ENDTAB
  0
TABLE
  2
STYLE
 70
     1
  0
STYLE
  2
STANDARD
 70
     0
 40
0.0
 41
0.0
 50
0.0
 71
     0
 42
0.0
  3
TXT
  4
EXTFONT.SHX
  0
ENDTAB
  0
TABLE
  2
VIEW
 70
     0
  0
ENDTAB
  0
TABLE
  2
UCS
 70
     0
  0
ENDTAB
  0
TABLE
  2
APPID
 70
     3
  0
APPID
  2
ACAD
 70
     0
  0
APPID
  2
ACAD_NAV_VCDISPLAY
 70
     0
  0
APPID
  2
ACAD_MLEADERVER
 70
     0
  0
ENDTAB
  0
TABLE
  2
DIMSTYLE
 70
     1
  0
DIMSTYLE
  2
STANDARD
 70
     0
  3

  4

  5

  6

  7

 40
1.0
 41
0.18
 42
0.0625
 43
0.38
 44
0.18
 45
0.0
 46
0.0
 47
0.0
 48
0.0
140
0.18
141
0.09
142
0.0
143
25.399999999999999
144
1.0
145
0.0
146
1.0
147
0.09
 71
     0
 72
     0
 73
     1
 74
     1
 75
     0
 76
     0
 77
     0
 78
     0
170
     0
171
     2
172
     0
173
     0
174
     0
175
     0
176
     0
177
     0
178
     0
  0
ENDTAB
  0
ENDSEC
  0
SECTION
  2
BLOCKS
  0
BLOCK
  8
0
  2
$MODEL_SPACE
 70
     0
 10
0.0
 20
0.0
 30
0.0
  3
$MODEL_SPACE
  1

  0
ENDBLK
  5
1A
  8
0
  0
BLOCK
 67
     1
  8
0
  2
$PAPER_SPACE
 70
     0
 10
0.0
 20
0.0
 30
0.0
  3
$PAPER_SPACE
  1

  0
ENDBLK
  5
17
 67
     1
  8
0
  0
BLOCK
  8
_________1
  2
AIGNBL02010002
 70
     0
 10
0.0
 20
0.0
 30
0.0
  3
AIGNBL02010002
  1

  0
LINE
  5
26
  8
_________1
 62
     7
 10
54.282299999999999
 20
153.63
 30
0.0
 11
54.282299999999999
 21
177.45099999999999
 31
0.0
  0
ENDBLK
  5
27
  8
_________1
  0
BLOCK
  8
_________1
  2
AIGNBL02010003
 70
     0
 10
0.0
 20
0.0
 30
0.0
  3
AIGNBL02010003
  1

  0
LINE
  5
2A
  8
_________1
 62
     7
 10
-31.2148
 20
121.35599999999999
 30
0.0
 11
-19.8249
 21
121.35599999999999
 31
0.0
  0
ENDBLK
  5
2B
  8
_________1
  0
BLOCK
  8
_________1
  2
AIGNBL02010004
 70
     0
 10
0.0
 20
0.0
 30
0.0
  3
AIGNBL02010004
  1

  0
LINE
  5
2E
  8
_________1
 62
     7
 10
0.4296060000000001
 20
61.8337
 30
0.0
 11
-0.044442
 21
63.603099999999998
 31
0.0
  0
LINE
  5
2F
  8
_________1
 62
     7
 10
-0.044442
 20
63.603099999999998
 30
0.0
 11
-0.519179
 21
61.8337
 31
0.0
  0
LINE
  5
30
  8
_________1
 62
     7
 10
-0.519179
 20
61.8337
 30
0.0
 11
0.4296060000000001
 21
61.8337
 31
0.0
  0
LINE
  5
31
  8
_________1
 62
     7
 10
-0.507466
 20
66.453599999999994
 30
0.0
 11
-0.0334176
 21
64.684100000000001
 31
0.0
  0
LINE
  5
32
  8
_________1
 62
     7
 10
-0.0334176
 20
64.684100000000001
 30
0.0
 11
0.44063
 21
66.453599999999994
 31
0.0
  0
LINE
  5
33
  8
_________1
 62
     7
 10
0.44063
 20
66.453599999999994
 30
0.0
 11
-0.507466
 21
66.453599999999994
 31
0.0
  0
LINE
  5
34
  8
_________1
 62
     7
 10
-0.0389298
 20
70.835099999999997
 30
0.0
 11
-0.0389298
 21
60.2517
 31
0.0
  0
ENDBLK
  5
35
  8
_________1
  0
BLOCK
  8
_________1
  2
AIGNBL02010005
 70
     0
 10
0.0
 20
0.0
 30
0.0
  3
AIGNBL02010005
  1

  0
LINE
  5
38
  8
_________1
 62
     7
 10
-28.3261
 20
58.755800000000001
 30
0.0
 11
-27.703900000000001
 21
60.478999999999999
 31
0.0
  0
LINE
  5
39
  8
_________1
 62
     7
 10
-27.703900000000001
 20
60.478999999999999
 30
0.0
 11
-29.103999999999999
 21
59.297400000000003
 31
0.0
  0
LINE
  5
3A
  8
_________1
 62
     7
 10
-29.103999999999999
 20
59.297400000000003
 30
0.0
 11
-28.3261
 21
58.755800000000001
 31
0.0
  0
ARC
  5
3B
  8
_________1
 62
     7
 10
5181.2158360000003
 20
-3568.2113009999998
 30
0.0
 40
6348.1946020000014
 50
145.13838699999999
 51
145.17011400000001
  0
ENDBLK
  5
3C
  8
_________1
  0
BLOCK
  8
_________1
  2
AIGNBL02010006
 70
     0
 10
0.0
 20
0.0
 30
0.0
  3
AIGNBL02010006
  1

  0
LINE
  5
3F
  8
_________1
 62
     7
 10
-19.233699999999999
 20
82.597399999999979
 30
0.0
 11
-17.464300000000001
 21
83.071399999999997
 31
0.0
  0
LINE
  5
40
  8
_________1
 62
     7
 10
-17.464300000000001
 20
83.071399999999997
 30
0.0
 11
-19.233699999999999
 21
83.545500000000004
 31
0.0
  0
LINE
  5
41
  8
_________1
 62
     7
 10
-19.233699999999999
 20
83.545500000000004
 30
0.0
 11
-19.233699999999999
 21
82.597399999999979
 31
0.0
  0
LINE
  5
42
  8
_________1
 62
     7
 10
-28.291
 20
83.534400000000005
 30
0.0
 11
-30.060400000000001
 21
83.060400000000016
 31
0.0
  0
LINE
  5
43
  8
_________1
 62
     7
 10
-30.060400000000001
 20
83.060400000000016
 30
0.0
 11
-28.291
 21
82.585700000000003
 31
0.0
  0
LINE
  5
44
  8
_________1
 62
     7
 10
-28.291
 20
82.585700000000003
 30
0.0
 11
-28.291
 21
83.534400000000005
 31
0.0
  0
LINE
  5
45
  8
_________1
 62
     7
 10
-17.462299999999999
 20
83.065899999999985
 30
0.0
 11
-30.0624
 21
83.065899999999985
 31
0.0
  0
ENDBLK
  5
46
  8
_________1
  0
BLOCK
  8
_________1
  2
AIGNBL02010007
 70
     0
 10
0.0
 20
0.0
 30
0.0
  3
AIGNBL02010007
  1

  0
LINE
  5
49
  8
_________1
 62
     7
 10
-34.14350000000001
 20
76.567700000000002
 30
0.0
 11
-34.617600000000003
 21
78.337100000000007
 31
0.0
  0
LINE
  5
4A
  8
_________1
 62
     7
 10
-34.617600000000003
 20
78.337100000000007
 30
0.0
 11
-35.0916
 21
76.567700000000002
 31
0.0
  0
LINE
  5
4B
  8
_________1
 62
     7
 10
-35.0916
 20
76.567700000000002
 30
0.0
 11
-34.14350000000001
 21
76.567700000000002
 31
0.0
  0
LINE
  5
4C
  8
_________1
 62
     7
 10
-35.079900000000002
 20
72.883499999999998
 30
0.0
 11
-34.605899999999998
 21
71.114099999999993
 31
0.0
  0
LINE
  5
4D
  8
_________1
 62
     7
 10
-34.605899999999998
 20
71.114099999999993
 30
0.0
 11
-34.131799999999998
 21
72.883499999999998
 31
0.0
  0
LINE
  5
4E
  8
_________1
 62
     7
 10
-34.131799999999998
 20
72.883499999999998
 30
0.0
 11
-35.079900000000002
 21
72.883499999999998
 31
0.0
  0
LINE
  5
4F
  8
_________1
 62
     7
 10
-34.612099999999998
 20
78.339200000000005
 30
0.0
 11
-34.612099999999998
 21
71.018999999999991
 31
0.0
  0
ENDBLK
  5
50
  8
_________1
  0
BLOCK
  8
_________1
  2
AIGNBL02010008
 70
     0
 10
0.0
 20
0.0
 30
0.0
  3
AIGNBL02010008
  1

  0
LINE
  5
53
  8
_________1
 62
     7
 10
-21.956800000000001
 20
52.855699999999992
 30
0.0
 11
-23.726199999999999
 21
52.381599999999999
 31
0.0
  0
LINE
  5
54
  8
_________1
 62
     7
 10
-23.726199999999999
 20
52.381599999999999
 30
0.0
 11
-21.956800000000001
 21
51.907600000000002
 31
0.0
  0
LINE
  5
55
  8
_________1
 62
     7
 10
-21.956800000000001
 20
51.907600000000002
 30
0.0
 11
-21.956800000000001
 21
52.855699999999992
 31
0.0
  0
LINE
  5
56
  8
_________1
 62
     7
 10
12.4655
 20
51.9193
 30
0.0
 11
14.2349
 21
52.393300000000004
 31
0.0
  0
LINE
  5
57
  8
_________1
 62
     7
 10
14.2349
 20
52.393300000000004
 30
0.0
 11
12.4655
 21
52.867400000000004
 31
0.0
  0
LINE
  5
58
  8
_________1
 62
     7
 10
12.4655
 20
52.867400000000004
 30
0.0
 11
12.4655
 21
51.9193
 31
0.0
  0
LINE
  5
59
  8
_________1
 62
     7
 10
-23.7041
 20
52.387799999999999
 30
0.0
 11
14.2376
 21
52.387799999999999
 31
0.0
  0
ENDBLK
  5
5A
  8
_________1
  0
BLOCK
  8
_________1
  2
AIGNBL02010009
 70
     0
 10
0.0
 20
0.0
 30
0.0
  3
AIGNBL02010009
  1

  0
LINE
  5
5D
  8
_________1
 62
     7
 10
64.9983
 20
254.886
 30
0.0
 11
63.2303
 21
254.41200000000001
 31
0.0
  0
LINE
  5
5E
  8
_________1
 62
     7
 10
63.2303
 20
254.41200000000001
 30
0.0
 11
64.9983
 21
253.93899999999999
 31
0.0
  0
LINE
  5
5F
  8
_________1
 62
     7
 10
64.9983
 20
253.93899999999999
 30
0.0
 11
64.9983
 21
254.886
 31
0.0
  0
LINE
  5
60
  8
_________1
 62
     7
 10
0.107143
 20
135.82900000000001
 30
0.0
 11
-1.6615799999999989
 21
135.35499999999999
 31
0.0
  0
LINE
  5
61
  8
_________1
 62
     7
 10
-1.6615799999999989
 20
135.35499999999999
 30
0.0
 11
0.107143
 21
134.881
 31
0.0
  0
LINE
  5
62
  8
_________1
 62
     7
 10
0.107143
 20
134.881
 30
0.0
 11
0.107143
 21
135.82900000000001
 31
0.0
  0
LINE
  5
63
  8
_________1
 62
     7
 10
-7.6299000000000001
 20
134.893
 30
0.0
 11
-5.8618699999999988
 21
135.36600000000001
 31
0.0
  0
LINE
  5
64
  8
_________1
 62
     7
 10
-5.8618699999999988
 20
135.36600000000001
 30
0.0
 11
-7.6299000000000001
 21
135.84
 31
0.0
  0
LINE
  5
65
  8
_________1
 62
     7
 10
-7.6299000000000001
 20
135.84
 30
0.0
 11
-7.6299000000000001
 21
134.893
 31
0.0
  0
LINE
  5
66
  8
_________1
 62
     7
 10
-8.8529199999999992
 20
135.36099999999999
 30
0.0
 11
11.004
 21
135.36099999999999
 31
0.0
  0
LINE
  5
67
  8
_________1
 62
     7
 10
-8.1935199999999995
 20
190.839
 30
0.0
 11
-9.9622499999999992
 21
190.36500000000001
 31
0.0
  0
LINE
  5
68
  8
_________1
 62
     7
 10
-9.9622499999999992
 20
190.36500000000001
 30
0.0
 11
-8.1935199999999995
 21
189.89099999999999
 31
0.0
  0
LINE
  5
69
  8
_________1
 62
     7
 10
-8.1935199999999995
 20
189.89099999999999
 30
0.0
 11
-8.1935199999999995
 21
190.839
 31
0.0
  0
LINE
  5
6A
  8
_________1
 62
     7
 10
0.670075
 20
189.90299999999999
 30
0.0
 11
2.4381099999999991
 21
190.376
 31
0.0
  0
LINE
  5
6B
  8
_________1
 62
     7
 10
2.4381099999999991
 20
190.376
 30
0.0
 11
0.670075
 21
190.84999999999999
 31
0.0
  0
LINE
  5
6C
  8
_________1
 62
     7
 10
0.670075
 20
190.84999999999999
 30
0.0
 11
0.670075
 21
189.90299999999999
 31
0.0
  0
LINE
  5
6D
  8
_________1
 62
     7
 10
-9.9622499999999992
 20
190.37100000000001
 30
0.0
 11
2.4381099999999991
 21
190.37100000000001
 31
0.0
  0
LINE
  5
6E
  8
_________1
 62
     7
 10
-28.993099999999998
 20
190.839
 30
0.0
 11
-30.761800000000001
 21
190.36500000000001
 31
0.0
  0
LINE
  5
6F
  8
_________1
 62
     7
 10
-30.761800000000001
 20
190.36500000000001
 30
0.0
 11
-28.993099999999998
 21
189.89099999999999
 31
0.0
  0
LINE
  5
70
  8
_________1
 62
     7
 10
-28.993099999999998
 20
189.89099999999999
 30
0.0
 11
-28.993099999999998
 21
190.839
 31
0.0
  0
LINE
  5
71
  8
_________1
 62
     7
 10
-18.5303
 20
189.90299999999999
 30
0.0
 11
-16.7622
 21
190.376
 31
0.0
  0
LINE
  5
72
  8
_________1
 62
     7
 10
-16.7622
 20
190.376
 30
0.0
 11
-18.5303
 21
190.84999999999999
 31
0.0
  0
LINE
  5
73
  8
_________1
 62
     7
 10
-18.5303
 20
190.84999999999999
 30
0.0
 11
-18.5303
 21
189.90299999999999
 31
0.0
  0
LINE
  5
74
  8
_________1
 62
     7
 10
-30.761800000000001
 20
190.37100000000001
 30
0.0
 11
-16.7622
 21
190.37100000000001
 31
0.0
  0
LINE
  5
75
  8
_________1
 62
     7
 10
44.998699999999999
 20
254.886
 30
0.0
 11
43.22999999999999
 21
254.41200000000001
 31
0.0
  0
LINE
  5
76
  8
_________1
 62
     7
 10
43.22999999999999
 20
254.41200000000001
 30
0.0
 11
44.998699999999999
 21
253.93899999999999
 31
0.0
  0
LINE
  5
77
  8
_________1
 62
     7
 10
44.998699999999999
 20
253.93899999999999
 30
0.0
 11
44.998699999999999
 21
254.886
 31
0.0
  0
LINE
  5
78
  8
_________1
 62
     7
 10
61.462299999999999
 20
253.94999999999999
 30
0.0
 11
63.2303
 21
254.42400000000001
 31
0.0
  0
LINE
  5
79
  8
_________1
 62
     7
 10
63.2303
 20
254.42400000000001
 30
0.0
 11
61.462299999999999
 21
254.898
 31
0.0
  0
LINE
  5
7A
  8
_________1
 62
     7
 10
61.462299999999999
 20
254.898
 30
0.0
 11
61.462299999999999
 21
253.94999999999999
 31
0.0
  0
LINE
  5
7B
  8
_________1
 62
     7
 10
81.462599999999995
 20
253.94999999999999
 30
0.0
 11
83.230599999999995
 21
254.42400000000001
 31
0.0
  0
LINE
  5
7C
  8
_________1
 62
     7
 10
83.230599999999995
 20
254.42400000000001
 30
0.0
 11
81.462599999999995
 21
254.898
 31
0.0
  0
LINE
  5
7D
  8
_________1
 62
     7
 10
81.462599999999995
 20
254.898
 30
0.0
 11
81.462599999999995
 21
253.94999999999999
 31
0.0
  0
LINE
  5
7E
  8
_________1
 62
     7
 10
69.479699999999994
 20
236.79300000000001
 30
0.0
 11
75.528700000000001
 21
236.79300000000001
 31
0.0
  0
LINE
  5
7F
  8
_________1
 62
     7
 10
43.22999999999999
 20
254.41800000000001
 30
0.0
 11
83.230599999999995
 21
254.41800000000001
 31
0.0
  0
ENDBLK
  5
80
  8
_________1
  0
BLOCK
  8
_________1
  2
AIGNBL0201000A
 70
     0
 10
0.0
 20
0.0
 30
0.0
  3
AIGNBL0201000A
  1

  0
LINE
  5
83
  8
_________1
 62
     7
 10
67.290700000000001
 20
239.65299999999999
 30
0.0
 11
65.705299999999994
 21
240.56800000000001
 31
0.0
  0
LINE
  5
84
  8
_________1
 62
     7
 10
65.705299999999994
 20
240.56800000000001
 30
0.0
 11
66.6203
 21
238.983
 31
0.0
  0
LINE
  5
85
  8
_________1
 62
     7
 10
66.6203
 20
238.983
 30
0.0
 11
67.290700000000001
 21
239.65299999999999
 31
0.0
  0
LINE
  5
86
  8
_________1
 62
     7
 10
59.169899999999998
 20
246.434
 30
0.0
 11
60.755299999999998
 21
245.518
 31
0.0
  0
LINE
  5
87
  8
_________1
 62
     7
 10
60.755299999999998
 20
245.518
 30
0.0
 11
59.840299999999999
 21
247.10400000000001
 31
0.0
  0
LINE
  5
88
  8
_________1
 62
     7
 10
59.840299999999999
 20
247.10400000000001
 30
0.0
 11
59.169899999999998
 21
246.434
 31
0.0
  0
LINE
  5
89
  8
_________1
 62
     7
 10
58.494
 20
247.78
 30
0.0
 11
69.479699999999994
 21
236.79300000000001
 31
0.0
  0
ENDBLK
  5
8A
  8
_________1
  0
BLOCK
  8
_________2
  2
AIGNBL03010002
 70
     0
 10
0.0
 20
0.0
 30
0.0
  3
AIGNBL03010002
  1

  0
LINE
  5
8D
  8
_________2
 62
     7
 10
186.649
 20
51.052199999999999
 30
0.0
 11
184.46299999999999
 21
51.052199999999999
 31
0.0
  0
LINE
  5
8E
  8
_________2
 62
     7
 10
187.142
 20
51.052199999999999
 30
0.0
 11
186.88900000000001
 21
51.052199999999999
 31
0.0
  0
LINE
  5
8F
  8
_________2
 62
     7
 10
187.63399999999999
 20
51.052199999999999
 30
0.0
 11
190.559
 21
51.052199999999999
 31
0.0
  0
LINE
  5
90
  8
_________2
 62
     7
 10
187.142
 20
51.052199999999999
 30
0.0
 11
187.39400000000001
 21
51.052199999999999
 31
0.0
  0
LINE
  5
91
  8
_________2
 62
     7
 10
180.745
 20
51.052199999999999
 30
0.0
 11
178.55799999999999
 21
51.052199999999999
 31
0.0
  0
LINE
  5
92
  8
_________2
 62
     7
 10
181.23699999999999
 20
51.052199999999999
 30
0.0
 11
180.98599999999999
 21
51.052199999999999
 31
0.0
  0
LINE
  5
93
  8
_________2
 62
     7
 10
181.23699999999999
 20
51.544800000000002
 30
0.0
 11
181.23699999999999
 21
53.7318
 31
0.0
  0
LINE
  5
94
  8
_________2
 62
     7
 10
181.23699999999999
 20
51.052199999999999
 30
0.0
 11
181.23699999999999
 21
51.304299999999998
 31
0.0
  0
LINE
  5
95
  8
_________2
 62
     7
 10
181.72999999999999
 20
51.052199999999999
 30
0.0
 11
183.917
 21
51.052199999999999
 31
0.0
  0
LINE
  5
96
  8
_________2
 62
     7
 10
181.23699999999999
 20
51.052199999999999
 30
0.0
 11
181.489
 21
51.052199999999999
 31
0.0
  0
LINE
  5
97
  8
_________2
 62
     7
 10
181.23699999999999
 20
50.560200000000002
 30
0.0
 11
181.23699999999999
 21
48.373199999999997
 31
0.0
  0
LINE
  5
98
  8
_________2
 62
     7
 10
181.23699999999999
 20
51.052199999999999
 30
0.0
 11
181.23699999999999
 21
50.800699999999999
 31
0.0
  0
LINE
  5
99
  8
_________2
 62
     7
 10
184.94799999999989
 20
49.832599999999999
 30
0.0
 11
190.12599999999989
 21
48.9679
 31
0.0
  0
LINE
  5
9A
  8
_________2
 62
     7
 10
184.94799999999989
 20
52.271700000000003
 30
0.0
 11
190.12599999999989
 21
53.137099999999997
 31
0.0
  0
LINE
  5
9B
  8
_________2
 62
     7
 10
190.12599999999989
 20
48.9679
 30
0.0
 11
190.12599999999989
 21
53.137099999999997
 31
0.0
  0
LINE
  5
9C
  8
_________2
 62
     7
 10
184.94799999999989
 20
49.832599999999999
 30
0.0
 11
184.94799999999989
 21
52.271700000000003
 31
0.0
  0
ARC
  5
9D
  8
_________2
 62
     7
 10
181.190651
 20
51.004810999999989
 30
0.0
 40
1.2677780000000001
 50
2.1403449999999991
 51
87.892005999999995
  0
ARC
  5
9E
  8
_________2
 62
     7
 10
181.28420199999999
 20
51.005241999999988
 30
0.0
 40
1.2673579999999991
 50
92.121564999999975
 51
177.87840600000001
  0
ARC
  5
9F
  8
_________2
 62
     7
 10
181.28381400000001
 20
51.098689
 30
0.0
 40
1.2669559999999991
 50
182.10473099999999
 51
267.89529900000002
  0
ARC
  5
A0
  8
_________2
 62
     7
 10
181.19038399999999
 20
51.099775000000001
 30
0.0
 40
1.268054
 50
272.11960599999998
 51
357.84804300000002
  0
ARC
  5
A1
  8
_________2
 62
     7
 10
181.23728399999999
 20
51.05215900000001
 30
0.0
 40
2.0849849999999992
 50
0.00001
 51
89.999980000000008
  0
ARC
  5
A2
  8
_________2
 62
     7
 10
181.317331
 20
50.972827000000002
 30
0.0
 40
2.1657969999999991
 50
92.118111999999996
 51
177.90079600000001
  0
ARC
  5
A3
  8
_________2
 62
     7
 10
181.31728799999999
 20
51.132162999999998
 30
0.0
 40
2.1657779999999991
 50
182.11700400000001
 51
267.88302499999998
  0
ARC
  5
A4
  8
_________2
 62
     7
 10
181.15730300000001
 20
51.132855999999997
 30
0.0
 40
2.166469999999999
 50
272.115725
 51
357.86534699999999
  0
ENDBLK
  5
A5
  8
_________2
  0
ENDSEC
  0
SECTION
  2
ENTITIES
  0
TEXT
  5
A6
  8
____
 62
     7
 10
-14.200100000000001
 20
163.18600000000001
 30
0.0
 40
3.0923400000000001
  1
%%c26
 41
0.5
  0
TEXT
  5
A7
  8
____
 62
     7
 10
12.3428
 20
155.30783
 30
0.0
 40
3.0923400000000001
  1
100
 50
90.0
 41
0.5
 72
     1
 11
12.3428
 21
156.85400000000001
 31
0.0
  0
TEXT
  5
A8
  8
____
 62
     7
 10
7.0841899999999987
 20
151.68700000000001
 30
0.0
 40
3.0923400000000001
  1
max.45
 50
90.0
 41
0.5
  0
TEXT
  5
A9
  8
____
 62
     7
 10
33.59920000000001
 20
174.86552499999999
 30
0.0
 40
3.0923400000000001
  1
93
 50
90.0
 41
0.5
 72
     1
 11
33.59920000000001
 21
176.154
 31
0.0
  0
TEXT
  5
AA
  8
____
 62
     7
 10
44.175699999999999
 20
171.039525
 30
0.0
 40
3.0923400000000001
  1
55
 50
90.0
 41
0.5
 72
     1
 11
44.175699999999999
 21
172.328
 31
0.0
  0
TEXT
  5
AB
  8
____
 62
     7
 10
38.887500000000003
 20
171.9003725
 30
0.0
 40
3.0923400000000001
  1
60
 50
90.0
 41
0.5
 72
     1
 11
38.887500000000003
 21
173.06
 31
0.0
  0
TEXT
  5
AC
  8
____
 62
     7
 10
58.108800000000002
 20
168.524
 30
0.0
 40
3.0923400000000001
  1
26%%d
 41
0.5
  0
TEXT
  5
AD
  8
____
 62
     7
 10
66.633034999999992
 20
154.869
 30
0.0
 40
3.0923400000000001
  1
145
 41
0.5
 72
     1
 11
68.436899999999994
 21
154.869
 31
0.0
  0
TEXT
  5
AE
  8
____
 62
     7
 10
-57.834200000000003
 20
133.55113499999999
 30
0.0
 40
3.0923400000000001
  1
315
 50
90.0
 41
0.5
 72
     1
 11
-57.834200000000003
 21
135.35499999999999
 31
0.0
  0
TEXT
  5
AF
  8
____
 62
     7
 10
-31.2148
 20
122.056
 30
0.0
 40
3.0923400000000001
  1
%%c5
 41
0.5
  0
TEXT
  5
B0
  8
____
 62
     7
 10
-6.4375474999999991
 20
53.2712
 30
0.0
 40
3.0923400000000001
  1
190
 41
0.5
 72
     1
 11
-4.762529999999999
 21
53.2712
 31
0.0
  0
TEXT
  5
B1
  8
____
 62
     7
 10
-35.673200000000001
 20
71.334622499999995
 30
0.0
 40
3.0923400000000001
  1
max.50
 50
90.0
 41
0.5
 72
     1
 11
-35.673200000000001
 21
75.071200000000005
 31
0.0
  0
TEXT
  5
B2
  8
____
 62
     7
 10
-39.366999999999997
 20
58.16320000000001
 30
0.0
 40
3.0923400000000001
  1
G1 1/4
 41
0.5
  0
TEXT
  5
B3
  8
____
 62
     7
 10
-26.344460000000002
 20
84.182100000000005
 30
0.0
 40
3.0923400000000001
  1
%%c63
 41
0.5
 72
     1
 11
-24.282900000000001
 21
84.182100000000005
 31
0.0
  0
TEXT
  5
B4
  8
____
 62
     7
 10
-1.02837
 20
68.128550000000004
 30
0.0
 40
3.0923400000000001
  1
%%c5
 50
90.0
 41
0.5
 72
     2
 11
-1.02837
 21
70.705500000000001
 31
0.0
  0
TEXT
  5
B5
  8
____
 62
     7
 10
71.40558
 20
237.49299999999999
 30
0.0
 40
3.0923400000000001
  1
%%c35
 41
0.5
 72
     2
 11
75.528700000000001
 21
237.49299999999999
 31
0.0
  0
TEXT
  5
B6
  8
____
 62
     7
 10
56.942542000000003
 20
229.786
 30
0.0
 40
3.0923400000000001
  1
水栓金具取付穴
 41
0.5
 72
     1
 11
63.2303
 21
229.786
 31
0.0
  0
TEXT
  5
B7
  8
____
 62
     7
 10
-15.447570000000001
 20
258.161
 30
0.0
 40
3.0923400000000001
  1
100
 41
0.5
 72
     1
 11
-13.901400000000001
 21
258.161
 31
0.0
  0
TEXT
  5
B8
  8
____
 62
     7
 10
-35.813670000000002
 20
258.161
 30
0.0
 40
3.0923400000000001
  1
100
 41
0.5
 72
     1
 11
-34.267499999999998
 21
258.161
 31
0.0
  0
TEXT
  5
B9
  8
____
 62
     7
 10
71.544730000000001
 20
255.137
 30
0.0
 40
3.0923400000000001
  1
100
 41
0.5
 72
     1
 11
73.090900000000005
 21
255.137
 31
0.0
  0
TEXT
  5
BA
  8
____
 62
     7
 10
1.7446579999999989
 20
136.07900000000001
 30
0.0
 40
3.0923400000000001
  1
NPT 1/2
 41
0.5
 72
     2
 11
10.9186
 21
136.07900000000001
 31
0.0
  0
TEXT
  5
BB
  8
____
 62
     7
 10
-5.8232799999999987
 20
191.089
 30
0.0
 40
3.0923400000000001
  1
%%c62
 41
0.5
 72
     1
 11
-3.7617199999999991
 21
191.089
 31
0.0
  0
TEXT
  5
BC
  8
____
 62
     7
 10
-25.694712500000001
 20
191.089
 30
0.0
 40
3.0923400000000001
  1
%%c70
 41
0.5
 72
     1
 11
-23.762
 21
191.089
 31
0.0
  0
TEXT
  5
BD
  8
____
 62
     7
 10
51.178629999999991
 20
255.137
 30
0.0
 40
3.0923400000000001
  1
100
 41
0.5
 72
     1
 11
52.724800000000002
 21
255.137
 31
0.0
  0
TEXT
  5
BE
  8
____
 62
     7
 10
-77.847200000000001
 20
27.7056
 30
0.0
 40
3.6545800000000002
  1
※国産洗面器とのセットの場合は、国産の排水ヘッド部を別途準備してください。
 41
0.5
  0
TEXT
  5
BF
  8
____
 62
     7
 10
-77.847200000000001
 20
23.1374
 30
0.0
 40
3.6545800000000002
  1
※止水栓への接続は、別途フレキ管（2本）と接続アダプター（CET19・2個）が必要になります。
 41
0.5
  0
TEXT
  5
C0
  8
____
 62
     7
 10
-45.411548000000003
 20
141.483
 30
0.0
 40
3.0923400000000001
  1
湯側
 41
0.5
 72
     1
 11
-43.762300000000003
 21
141.483
 31
0.0
  0
TEXT
  5
C1
  8
____
 62
     7
 10
-0.943618
 20
142.57499999999999
 30
0.0
 40
3.0923400000000001
  1
水側
 41
0.5
  0
LINE
  5
C2
  8
_________1
 62
     7
 10
0.6066850000000001
 20
162.96000000000001
 30
0.0
 11
-1.1620399999999991
 21
162.48599999999999
 31
0.0
  0
LINE
  5
C3
  8
_________1
 62
     7
 10
-1.1620399999999991
 20
162.48599999999999
 30
0.0
 11
0.6066850000000001
 21
162.012
 31
0.0
  0
LINE
  5
C4
  8
_________1
 62
     7
 10
0.6066850000000001
 20
162.012
 30
0.0
 11
0.6066850000000001
 21
162.96000000000001
 31
0.0
  0
LINE
  5
C5
  8
_________1
 62
     7
 10
-8.2389999999999972
 20
162.018
 30
0.0
 11
-6.4709599999999989
 21
162.49199999999999
 31
0.0
  0
LINE
  5
C6
  8
_________1
 62
     7
 10
-6.4709599999999989
 20
162.49199999999999
 30
0.0
 11
-8.2389999999999972
 21
162.96600000000001
 31
0.0
  0
LINE
  5
C7
  8
_________1
 62
     7
 10
-8.2389999999999972
 20
162.96600000000001
 30
0.0
 11
-8.2389999999999972
 21
162.018
 31
0.0
  0
LINE
  5
C8
  8
_________1
 62
     7
 10
-14.200100000000001
 20
162.48599999999999
 30
0.0
 11
2.0336500000000002
 21
162.48599999999999
 31
0.0
  0
ARC
  5
C9
  8
_________1
  6
AIGENLINE001
 62
     7
 10
-34.294711999999997
 20
145.207583
 30
0.0
 40
9.0327009999999994
 50
338.33178099999998
 51
359.97798999999998
  0
ARC
  5
CA
  8
_________1
  6
AIGENLINE001
 62
     7
 10
-32.842196999999999
 20
144.712908
 30
0.0
 40
7.5005660000000001
 50
320.777244
 51
337.74667899999997
  0
ARC
  5
CB
  8
_________1
  6
AIGENLINE001
 62
     7
 10
-31.620850999999998
 20
143.79263499999999
 30
0.0
 40
5.9727699999999988
 50
303.25285200000008
 51
320.20767999999998
  0
ARC
  5
CC
  8
_________1
  6
AIGENLINE001
 62
     7
 10
-30.927306999999999
 20
142.828092
 30
0.0
 40
4.7861399999999996
 50
279.04167000000001
 51
302.64123499999999
  0
ARC
  5
CD
  8
_________1
  6
AIGENLINE001
 62
     7
 10
-30.811845999999999
 20
142.42610099999999
 30
0.0
 40
4.371294999999999
 50
269.99222200000003
 51
278.37511699999999
  0
ARC
  5
CE
  8
_________1
  6
AIGENLINE001
 62
     7
 10
-30.80434
 20
142.53593699999999
 30
0.0
 40
4.4811379999999987
 50
238.31897000000001
 51
269.89644600000003
  0
ARC
  5
CF
  8
_________1
  6
AIGENLINE001
 62
     7
 10
-30.314377
 20
143.43608499999999
 30
0.0
 40
5.5047579999999989
 50
220.58766199999999
 51
238.899744
  0
ARC
  5
D0
  8
_________1
  6
AIGENLINE001
 62
     7
 10
-29.263701000000001
 20
144.420017
 30
0.0
 40
6.9431009999999986
 50
202.88034500000001
 51
221.112742
  0
ARC
  5
D1
  8
_________1
  6
AIGENLINE001
 62
     7
 10
-27.868603000000011
 20
145.09214499999999
 30
0.0
 40
8.4901070000000001
 50
182.34384299999991
 51
203.39877100000001
  0
ARC
  5
D2
  8
_________1
  6
AIGENLINE001
 62
     7
 10
-27.025511999999999
 20
145.20338000000001
 30
0.0
 40
9.3373559999999998
 50
179.99548200000001
 51
182.81426999999999
  0
ARC
  5
D3
  8
_________1
  6
AIGENLINE001
 62
     7
 10
-27.332509999999999
 20
145.20118099999999
 30
0.0
 40
9.0303589999999971
 50
158.32901299999989
 51
179.98137500000001
  0
ARC
  5
D4
  8
_________1
  6
AIGENLINE001
 62
     7
 10
-28.782755000000002
 20
145.69539
 30
0.0
 40
7.5005059999999988
 50
140.77691899999999
 51
157.746441
  0
ARC
  5
D5
  8
_________1
  6
AIGENLINE001
 62
     7
 10
-30.005268999999998
 20
146.61692400000001
 30
0.0
 40
5.971006
 50
123.24976599999999
 51
140.20939199999989
  0
ARC
  5
D6
  8
_________1
  6
AIGENLINE001
 62
     7
 10
-30.697225
 20
147.579014
 30
0.0
 40
4.7873010000000003
 50
99.043654000000004
 51
122.637332
  0
ARC
  5
D7
  8
_________1
  6
AIGENLINE001
 62
     7
 10
-30.813033999999998
 20
147.98212599999999
 30
0.0
 40
4.371294999999999
 50
89.992202000000006
 51
98.375096999999997
  0
ARC
  5
D8
  8
_________1
  6
AIGENLINE001
 62
     7
 10
-13.230171
 20
145.20705100000001
 30
0.0
 40
9.0318330000000007
 50
180.018654
 51
201.66679400000001
  0
ARC
  5
D9
  8
_________1
  6
AIGENLINE001
 62
     7
 10
-14.681741000000001
 20
144.712514
 30
0.0
 40
7.5006229999999992
 50
202.24991299999999
 51
219.218538
  0
ARC
  5
DA
  8
_________1
  6
AIGENLINE001
 62
     7
 10
-15.904648999999999
 20
143.79101
 30
0.0
 40
5.9708319999999988
 50
219.78753
 51
236.74708100000001
  0
ARC
  5
DB
  8
_________1
  6
AIGENLINE001
 62
     7
 10
-16.597166999999999
 20
142.828047
 30
0.0
 40
4.7860870000000002
 50
237.358778
 51
260.95891699999999
  0
ARC
  5
DC
  8
_________1
  6
AIGENLINE001
 62
     7
 10
-16.712523999999998
 20
142.42676499999999
 30
0.0
 40
4.3719589999999986
 50
261.62554
 51
270.00793599999997
  0
ARC
  5
DD
  8
_________1
  6
AIGENLINE001
 62
     7
 10
-16.720019000000001
 20
142.536676
 30
0.0
 40
4.481878
 50
270.10355499999997
 51
301.67836699999998
  0
ARC
  5
DE
  8
_________1
  6
AIGENLINE001
 62
     7
 10
-17.209927
 20
143.436545
 30
0.0
 40
5.5052310000000002
 50
301.099174
 51
319.41027400000007
  0
ARC
  5
DF
  8
_________1
  6
AIGENLINE001
 62
     7
 10
-18.260014999999999
 20
144.41995900000001
 30
0.0
 40
6.9427929999999991
 50
318.885694
 51
337.11912000000001
  0
ARC
  5
E0
  8
_________1
  6
AIGENLINE001
 62
     7
 10
-19.655577999999998
 20
145.09220999999999
 30
0.0
 40
8.4902750000000005
 50
336.60125799999997
 51
357.65577999999999
  0
ARC
  5
E1
  8
_________1
  6
AIGENLINE001
 62
     7
 10
-20.498633999999999
 20
145.203384
 30
0.0
 40
9.3374869999999994
 50
357.18576999999999
 51
0.004478
  0
ARC
  5
E2
  8
_________1
  6
AIGENLINE001
 62
     7
 10
-20.191376999999999
 20
145.201179
 30
0.0
 40
9.0302310000000006
 50
0.018621
 51
21.671308
  0
ARC
  5
E3
  8
_________1
  6
AIGENLINE001
 62
     7
 10
-18.740513
 20
145.69570899999999
 30
0.0
 40
7.4996839999999994
 50
22.253475999999999
 51
39.225042000000002
  0
ARC
  5
E4
  8
_________1
  6
AIGENLINE001
 62
     7
 10
-17.518795999999998
 20
146.61671699999999
 30
0.0
 40
5.9711349999999994
 50
39.792133
 51
56.751934000000013
  0
ARC
  5
E5
  8
_________1
  6
AIGENLINE001
 62
     7
 10
-16.826933
 20
147.57881499999999
 30
0.0
 40
4.7874769999999991
 50
57.363795000000003
 51
80.958318000000006
  0
ARC
  5
E6
  8
_________1
  6
AIGENLINE001
 62
     7
 10
-16.711309
 20
147.981461
 30
0.0
 40
4.3719599999999987
 50
81.625519999999995
 51
90.007985999999988
  0
ARC
  5
E7
  8
_________1
 62
     7
 10
-8.9872289999999992
 20
150.42196899999999
 30
0.0
 40
1.1748359999999991
 50
151.71289300000001
 51
179.88494800000001
  0
ARC
  5
E8
  8
_________1
 62
     7
 10
-9.5363820000000015
 20
150.699175
 30
0.0
 40
0.5601270000000002
 50
125.586401
 51
150.06224599999999
  0
ARC
  5
E9
  8
_________1
 62
     7
 10
-9.1384240000000005
 20
150.42509699999999
 30
0.0
 40
1.0236389999999991
 50
180.04309599999999
 51
203.84749500000001
  0
ARC
  5
EA
  8
_________1
 62
     7
 10
-9.4656399999999987
 20
150.29896299999999
 30
0.0
 40
0.6735760000000001
 50
205.28771800000001
 51
233.91799599999999
  0
ARC
  5
EB
  8
_________1
 62
     7
 10
-5.8404720000000001
 20
152.35200900000001
 30
0.0
 40
4.3215899999999996
 50
179.98126400000001
 51
185.30521999999999
  0
ARC
  5
EC
  8
_________1
 62
     7
 10
-7.7012720000000003
 20
152.190338
 30
0.0
 40
2.453838999999999
 50
185.56375600000001
 51
194.11532500000001
  0
ARC
  5
ED
  8
_________1
 62
     7
 10
-8.7508630000000007
 20
151.93661
 30
0.0
 40
1.3740959999999991
 50
194.528178
 51
205.82426100000001
  0
ARC
  5
EE
  8
_________1
 62
     7
 10
-9.2720950000000002
 20
151.692937
 30
0.0
 40
0.798808
 50
206.37776299999999
 51
222.36184900000001
  0
LINE
  5
EF
  8
_________1
 62
     7
 10
-10.162100000000001
 20
150.42400000000001
 30
0.0
 11
-10.162100000000001
 21
152.35300000000001
 31
0.0
  0
ARC
  5
F0
  8
_________1
 62
     7
 10
-9.1346240000000005
 20
150.42196899999999
 30
0.0
 40
1.172615999999999
 50
0.115228
 51
28.345443
  0
ARC
  5
F1
  8
_________1
 62
     7
 10
-8.5894449999999996
 20
150.69842
 30
0.0
 40
0.5617630000000001
 50
29.930527999999999
 51
54.312887999999987
  0
ARC
  5
F2
  8
_________1
 62
     7
 10
-8.9825289999999995
 20
150.425093
 30
0.0
 40
1.020518
 50
336.07528000000002
 51
359.956999
  0
ARC
  5
F3
  8
_________1
 62
     7
 10
-8.6608219999999996
 20
150.30024700000001
 30
0.0
 40
0.676021
 50
306.18154900000002
 51
334.68986899999999
  0
ARC
  5
F4
  8
_________1
 62
     7
 10
-12.283633
 20
152.352011
 30
0.0
 40
4.3216229999999998
 50
354.69481999999999
 51
0.018697
  0
ARC
  5
F5
  8
_________1
 62
     7
 10
-10.424464
 20
152.190662
 30
0.0
 40
2.455525999999999
 50
345.886796
 51
354.432502
  0
ARC
  5
F6
  8
_________1
 62
     7
 10
-9.3722750000000001
 20
151.936238
 30
0.0
 40
1.3730919999999991
 50
334.17272300000002
 51
345.4770180000001
  0
ARC
  5
F7
  8
_________1
 62
     7
 10
-8.851977999999999
 20
151.692937
 30
0.0
 40
0.798808
 50
317.638171
 51
333.62225699999999
  0
LINE
  5
F8
  8
_________1
 62
     7
 10
-9.8623399999999997
 20
151.155
 30
0.0
 11
-8.2617399999999996
 21
151.155
 31
0.0
  0
LINE
  5
F9
  8
_________1
 62
     7
 10
-9.8623399999999997
 20
149.755
 30
0.0
 11
-8.2617399999999996
 21
149.755
 31
0.0
  0
LINE
  5
FA
  8
_________1
 62
     7
 10
-7.9620100000000003
 20
150.42400000000001
 30
0.0
 11
-7.9620100000000003
 21
152.35300000000001
 31
0.0
  0
ARC
  5
FB
  8
_________1
 62
     7
 10
-8.9860209999999991
 20
154.28642600000001
 30
0.0
 40
1.1760440000000001
 50
180.115073
 51
208.27227400000001
  0
ARC
  5
FC
  8
_________1
 62
     7
 10
-9.538689999999999
 20
154.00760199999999
 30
0.0
 40
0.5574720000000001
 50
209.939179
 51
234.50993399999999
  0
ARC
  5
FD
  8
_________1
 62
     7
 10
-9.1395579999999992
 20
154.283287
 30
0.0
 40
1.0225049999999991
 50
156.13908499999999
 51
179.95640800000001
  0
ARC
  5
FE
  8
_________1
 62
     7
 10
-9.4639350000000011
 20
154.408297
 30
0.0
 40
0.675494
 50
126.142315
 51
154.706244
  0
ARC
  5
FF
  8
_________1
 62
     7
 10
-5.8286429999999996
 20
152.35483400000001
 30
0.0
 40
4.3334190000000001
 50
174.70203100000001
 51
180.01870400000001
  0
ARC
  5
100
  8
_________1
 62
     7
 10
-7.6966369999999991
 20
152.51685699999999
 30
0.0
 40
2.458470999999999
 50
165.89831699999999
 51
174.442173
  0
ARC
  5
101
  8
_________1
 62
     7
 10
-8.7471320000000006
 20
152.77046200000001
 30
0.0
 40
1.3778799999999991
 50
154.20681400000001
 51
165.483181
  0
ARC
  5
102
  8
_________1
 62
     7
 10
-9.2698590000000003
 20
153.01459399999999
 30
0.0
 40
0.80104
 50
137.70039499999999
 51
153.66019900000001
  0
LINE
  5
103
  8
_________1
 62
     7
 10
-10.162100000000001
 20
154.28399999999999
 30
0.0
 11
-10.162100000000001
 21
152.35300000000001
 31
0.0
  0
ARC
  5
104
  8
_________1
 62
     7
 10
-9.1358289999999993
 20
154.28642600000001
 30
0.0
 40
1.173821
 50
331.66941700000012
 51
359.88475099999999
  0
ARC
  5
105
  8
_________1
 62
     7
 10
-8.5871220000000008
 20
154.00834900000001
 30
0.0
 40
0.559091
 50
305.590779
 51
330.068063
  0
ARC
  5
106
  8
_________1
 62
     7
 10
-10.862069999999999
 20
152.35186899999999
 30
0.0
 40
4.9326790000000003
 50
354.96064200000001
 51
0.018023
  0
ARC
  5
107
  8
_________1
 62
     7
 10
-8.4026479999999992
 20
152.15140299999999
 30
0.0
 40
2.4652090000000002
 50
342.03984800000001
 51
354.580758
  0
ARC
  5
108
  8
_________1
 62
     7
 10
-7.6415629999999997
 20
151.93474699999999
 30
0.0
 40
1.674647
 50
319.819929
 51
341.06176900000003
  0
ARC
  5
109
  8
_________1
 62
     7
 10
-8.9813980000000004
 20
154.28329099999999
 30
0.0
 40
1.0193879999999991
 50
0.043498
 51
23.938182000000008
  0
ARC
  5
10A
  8
_________1
 62
     7
 10
-8.6625390000000007
 20
154.407006
 30
0.0
 40
0.677954
 50
25.316175000000008
 51
53.758147999999991
  0
ARC
  5
10B
  8
_________1
 62
     7
 10
-12.295462000000001
 20
152.35483199999999
 30
0.0
 40
4.3334519999999994
 50
359.981336
 51
5.297928999999999
  0
ARC
  5
10C
  8
_________1
 62
     7
 10
-10.429102
 20
152.51653300000001
 30
0.0
 40
2.4601609999999998
 50
5.561566
 51
14.099564000000001
  0
ARC
  5
10D
  8
_________1
 62
     7
 10
-9.3760019999999997
 20
152.77083500000001
 30
0.0
 40
1.376871999999999
 50
14.511627000000001
 51
25.796199000000001
  0
ARC
  5
10E
  8
_________1
 62
     7
 10
-8.8542129999999997
 20
153.01459399999999
 30
0.0
 40
0.80104
 50
26.339780999999999
 51
42.299585999999991
  0
ARC
  5
10F
  8
_________1
 62
     7
 10
-10.871392
 20
152.354972
 30
0.0
 40
4.9420010000000003
 50
359.98202099999997
 51
5.0346000000000002
  0
ARC
  5
110
  8
_________1
 62
     7
 10
-8.4081279999999996
 20
152.55556799999999
 30
0.0
 40
2.4706899999999998
 50
5.4136949999999988
 51
17.940197000000001
  0
ARC
  5
111
  8
_________1
 62
     7
 10
-7.6441020000000002
 20
152.772761
 30
0.0
 40
1.677157
 50
18.920888999999999
 51
40.147171999999991
  0
LINE
  5
112
  8
_________1
 62
     7
 10
-12.462
 20
151.054
 30
0.0
 11
-13.5624
 21
151.054
 31
0.0
  0
ARC
  5
113
  8
_________1
 62
     7
 10
-12.258395999999999
 20
151.150193
 30
0.0
 40
0.103788
 50
92.103763999999984
 51
177.89620600000001
  0
ARC
  5
114
  8
_________1
 62
     7
 10
-12.465833
 20
151.157813
 30
0.0
 40
0.103788
 50
272.10380099999998
 51
357.896209
  0
ARC
  5
115
  8
_________1
 62
     7
 10
-11.065708000000001
 20
151.15022200000001
 30
0.0
 40
0.103759
 50
2.0884999999999989
 51
87.911490000000001
  0
LINE
  5
116
  8
_________1
 62
     7
 10
-10.3619
 20
151.054
 30
0.0
 11
-10.8621
 21
151.054
 31
0.0
  0
ARC
  5
117
  8
_________1
 62
     7
 10
-10.858305
 20
151.15780799999999
 30
0.0
 40
0.103783
 50
182.10112100000001
 51
267.89890800000001
  0
LINE
  5
118
  8
_________1
 62
     7
 10
-12.2622
 20
151.25399999999999
 30
0.0
 11
-11.0619
 21
151.25399999999999
 31
0.0
  0
LINE
  5
119
  8
_________1
 62
     7
 10
-12.462
 20
153.654
 30
0.0
 11
-13.5624
 21
153.654
 31
0.0
  0
ARC
  5
11A
  8
_________1
 62
     7
 10
-12.258400999999999
 20
153.55750499999999
 30
0.0
 40
0.103783
 50
182.10112100000001
 51
267.89890800000001
  0
ARC
  5
11B
  8
_________1
 62
     7
 10
-12.465852999999999
 20
153.55058199999999
 30
0.0
 40
0.103786
 50
1.7213719999999999
 51
87.884833999999998
  0
ARC
  5
11C
  8
_________1
 62
     7
 10
-11.065737
 20
153.55751000000001
 30
0.0
 40
0.103788
 50
272.10380099999998
 51
357.896209
  0
LINE
  5
11D
  8
_________1
 62
     7
 10
-10.3619
 20
153.654
 30
0.0
 11
-10.8621
 21
153.654
 31
0.0
  0
ARC
  5
11E
  8
_________1
 62
     7
 10
-10.857627000000001
 20
153.54993400000001
 30
0.0
 40
0.10446
 50
92.459861000000004
 51
177.93389400000001
  0
LINE
  5
11F
  8
_________1
 62
     7
 10
-10.162100000000001
 20
151.154
 30
0.0
 11
-10.3619
 21
151.154
 31
0.0
  0
LINE
  5
120
  8
_________1
 62
     7
 10
-10.162100000000001
 20
153.554
 30
0.0
 11
-10.3619
 21
153.554
 31
0.0
  0
LINE
  5
121
  8
_________1
 62
     7
 10
-13.5624
 20
151.154
 30
0.0
 11
-16.9269
 21
151.154
 31
0.0
  0
LINE
  5
122
  8
_________1
 62
     7
 10
-13.5624
 20
153.554
 30
0.0
 11
-16.9269
 21
153.554
 31
0.0
  0
LINE
  5
123
  8
_________1
 62
     7
 10
-12.2622
 20
153.45400000000001
 30
0.0
 11
-11.0619
 21
153.45400000000001
 31
0.0
  0
LINE
  5
124
  8
_________1
 62
     7
 10
-13.5624
 20
153.654
 30
0.0
 11
-13.5624
 21
151.054
 31
0.0
  0
LINE
  5
125
  8
_________1
 62
     7
 10
-10.3619
 20
153.654
 30
0.0
 11
-10.3619
 21
151.054
 31
0.0
  0
LINE
  5
126
  8
_________1
 62
     7
 10
-9.8623399999999997
 20
153.554
 30
0.0
 11
-8.2617399999999996
 21
153.554
 31
0.0
  0
LINE
  5
127
  8
_________1
 62
     7
 10
-9.8623399999999997
 20
154.95400000000001
 30
0.0
 11
-8.2617399999999996
 21
154.95400000000001
 31
0.0
  0
LINE
  5
128
  8
_________1
 62
     7
 10
-7.9620100000000003
 20
150.85400000000001
 30
0.0
 11
-6.362099999999999
 21
150.85400000000001
 31
0.0
  0
LINE
  5
129
  8
_________1
 62
     7
 10
-7.9620100000000003
 20
153.85400000000001
 30
0.0
 11
-6.362099999999999
 21
153.85400000000001
 31
0.0
  0
LINE
  5
12A
  8
_________1
 62
     7
 10
-7.9620100000000003
 20
154.28399999999999
 30
0.0
 11
-7.9620100000000003
 21
152.35300000000001
 31
0.0
  0
LINE
  5
12B
  8
_________1
  6
AIGENLINE001
 62
     7
 10
-43.762300000000003
 20
152.35300000000001
 30
0.0
 11
-3.76241
 21
152.35300000000001
 31
0.0
  0
ARC
  5
12C
  8
_________1
 62
     7
 10
-38.537475000000001
 20
150.42196899999999
 30
0.0
 40
1.1748359999999991
 50
0.115032
 51
28.287087
  0
ARC
  5
12D
  8
_________1
 62
     7
 10
-37.988320999999999
 20
150.699175
 30
0.0
 40
0.5601270000000002
 50
29.93773400000001
 51
54.413578999999991
  0
ARC
  5
12E
  8
_________1
 62
     7
 10
-38.386221999999997
 20
150.42509699999999
 30
0.0
 40
1.023580999999999
 50
336.151094
 51
359.9569259999999
  0
ARC
  5
12F
  8
_________1
 62
     7
 10
-38.058881999999997
 20
150.2988
 30
0.0
 40
0.673337
 50
306.07770699999998
 51
334.71804500000002
  0
ARC
  5
130
  8
_________1
 62
     7
 10
-41.744495999999998
 20
152.35485
 30
0.0
 40
4.3818549999999998
 50
354.73066699999998
 51
359.981314
  0
ARC
  5
131
  8
_________1
 62
     7
 10
-39.823436999999998
 20
152.190338
 30
0.0
 40
2.453838999999999
 50
345.88469500000002
 51
354.43626400000011
  0
ARC
  5
132
  8
_________1
 62
     7
 10
-38.774172999999998
 20
151.93670399999999
 30
0.0
 40
1.3744359999999991
 50
334.178268
 51
345.471473
  0
ARC
  5
133
  8
_________1
 62
     7
 10
-38.252609
 20
151.692937
 30
0.0
 40
0.798808
 50
317.638171
 51
333.62225699999999
  0
LINE
  5
134
  8
_________1
 62
     7
 10
-37.3626
 20
150.42400000000001
 30
0.0
 11
-37.3626
 21
152.35300000000001
 31
0.0
  0
ARC
  5
135
  8
_________1
 62
     7
 10
-38.389498000000003
 20
150.42196899999999
 30
0.0
 40
1.1728529999999999
 50
151.660788
 51
179.884773
  0
ARC
  5
136
  8
_________1
 62
     7
 10
-38.935873999999998
 20
150.69855999999999
 30
0.0
 40
0.5608890000000001
 50
125.587166
 51
150.03453500000001
  0
ARC
  5
137
  8
_________1
 62
     7
 10
-38.540909999999997
 20
150.425094
 30
0.0
 40
1.0214389999999991
 50
180.04302300000001
 51
203.90187499999999
  0
ARC
  5
138
  8
_________1
 62
     7
 10
-38.865134999999988
 20
150.299665
 30
0.0
 40
0.6744060000000001
 50
205.32034299999989
 51
233.922459
  0
ARC
  5
139
  8
_________1
 62
     7
 10
-35.260956999999998
 20
152.35199700000001
 30
0.0
 40
4.301391999999999
 50
179.981008
 51
185.33003500000001
  0
ARC
  5
13A
  8
_________1
 62
     7
 10
-37.102201999999998
 20
152.19113400000001
 30
0.0
 40
2.4531890000000001
 50
185.583932
 51
194.13833199999999
  0
ARC
  5
13B
  8
_________1
 62
     7
 10
-38.149477000000012
 20
151.937535
 30
0.0
 40
1.3757280000000001
 50
194.5503709999999
 51
205.83417600000001
  0
ARC
  5
13C
  8
_________1
 62
     7
 10
-38.671379999999999
 20
151.693533
 30
0.0
 40
0.799695
 50
206.39393699999999
 51
222.36171899999999
  0
LINE
  5
13D
  8
_________1
 62
     7
 10
-37.662399999999998
 20
151.155
 30
0.0
 11
-39.262300000000003
 21
151.155
 31
0.0
  0
LINE
  5
13E
  8
_________1
 62
     7
 10
-37.662399999999998
 20
149.755
 30
0.0
 11
-39.262300000000003
 21
149.755
 31
0.0
  0
LINE
  5
13F
  8
_________1
 62
     7
 10
-39.5623
 20
150.42400000000001
 30
0.0
 11
-39.5623
 21
152.35300000000001
 31
0.0
  0
ARC
  5
140
  8
_________1
 62
     7
 10
-38.538682999999999
 20
154.28642600000001
 30
0.0
 40
1.1760440000000001
 50
331.72774600000002
 51
359.88494600000001
  0
ARC
  5
141
  8
_________1
 62
     7
 10
-37.986014000000011
 20
154.00760199999999
 30
0.0
 40
0.5574720000000001
 50
305.49008600000002
 51
330.0608410000001
  0
ARC
  5
142
  8
_________1
 62
     7
 10
-38.38508800000001
 20
154.283287
 30
0.0
 40
1.022446999999999
 50
0.043571
 51
23.862327000000001
  0
ARC
  5
143
  8
_________1
 62
     7
 10
-38.060586000000001
 20
154.40846099999999
 30
0.0
 40
0.6752550000000001
 50
25.287994000000001
 51
53.86198199999999
  0
ARC
  5
144
  8
_________1
 62
     7
 10
-41.756495000000001
 20
152.351989
 30
0.0
 40
4.3938540000000001
 50
0.01867
 51
5.2621279999999988
  0
ARC
  5
145
  8
_________1
 62
     7
 10
-39.828071999999999
 20
152.51685699999999
 30
0.0
 40
2.458470999999999
 50
5.5578070000000004
 51
14.101663
  0
ARC
  5
146
  8
_________1
 62
     7
 10
-38.777904999999997
 20
152.77036799999999
 30
0.0
 40
1.378220999999999
 50
14.517168
 51
25.790659000000002
  0
ARC
  5
147
  8
_________1
 62
     7
 10
-38.254843999999999
 20
153.01459399999999
 30
0.0
 40
0.80104
 50
26.339780999999999
 51
42.299585999999991
  0
LINE
  5
148
  8
_________1
 62
     7
 10
-37.3626
 20
154.28399999999999
 30
0.0
 11
-37.3626
 21
152.35300000000001
 31
0.0
  0
ARC
  5
149
  8
_________1
 62
     7
 10
-38.388292
 20
154.28642600000001
 30
0.0
 40
1.1740589999999991
 50
180.11524700000001
 51
208.324354
  0
ARC
  5
14A
  8
_________1
 62
     7
 10
-38.938186999999999
 20
154.0082139999999
 30
0.0
 40
0.558228
 50
209.96689599999999
 51
234.50916799999999
  0
ARC
  5
14B
  8
_________1
 62
     7
 10
-36.649484000000001
 20
152.35188199999999
 30
0.0
 40
4.9454849999999988
 50
179.98214999999999
 51
185.026442
  0
ARC
  5
14C
  8
_________1
 62
     7
 10
-39.122447000000001
 20
152.15080599999999
 30
0.0
 40
2.4644680000000001
 50
185.40695600000001
 51
197.95116399999989
  0
ARC
  5
14D
  8
_________1
 62
     7
 10
-39.885303999999998
 20
151.93376900000001
 30
0.0
 40
1.6721009999999989
 50
198.932759
 51
220.20991699999999
  0
ARC
  5
14E
  8
_________1
 62
     7
 10
-38.54204
 20
154.28328999999999
 30
0.0
 40
1.020308999999999
 50
156.08469500000001
 51
179.95645999999999
  0
ARC
  5
14F
  8
_________1
 62
     7
 10
-38.863428000000013
 20
154.40759199999999
 30
0.0
 40
0.6763279999999999
 50
126.13785900000001
 51
154.673618
  0
ARC
  5
150
  8
_________1
 62
     7
 10
-35.249183000000002
 20
152.35484600000001
 30
0.0
 40
4.3131659999999998
 50
174.67724899999999
 51
180.018959
  0
ARC
  5
151
  8
_________1
 62
     7
 10
-37.097570000000012
 20
152.51606000000001
 30
0.0
 40
2.4578189999999989
 50
165.87532999999999
 51
174.42201700000001
  0
ARC
  5
152
  8
_________1
 62
     7
 10
-38.145740000000004
 20
152.76953499999999
 30
0.0
 40
1.379518
 50
154.196911
 51
165.461005
  0
ARC
  5
153
  8
_________1
 62
     7
 10
-38.669142000000001
 20
153.01399699999999
 30
0.0
 40
0.8019289999999999
 50
137.70052000000001
 51
153.64403999999999
  0
ARC
  5
154
  8
_________1
 62
     7
 10
-36.640137000000003
 20
152.35495900000001
 30
0.0
 40
4.9548309999999987
 50
174.97830400000001
 51
180.01780600000001
  0
ARC
  5
155
  8
_________1
 62
     7
 10
-39.116968999999997
 20
152.55616499999999
 30
0.0
 40
2.469948
 50
162.068782
 51
174.598578
  0
ARC
  5
156
  8
_________1
 62
     7
 10
-39.88276900000001
 20
152.77374
 30
0.0
 40
1.6746059999999989
 50
139.8229979999999
 51
161.08458099999999
  0
LINE
  5
157
  8
_________1
 62
     7
 10
-20.9618
 20
162.95400000000001
 30
0.0
 11
-20.9618
 21
161.85400000000001
 31
0.0
  0
ARC
  5
158
  8
_________1
 62
     7
 10
-21.058603000000002
 20
163.15818999999999
 30
0.0
 40
0.103788
 50
182.10379399999999
 51
267.89623599999999
  0
ARC
  5
159
  8
_________1
 62
     7
 10
-21.065908
 20
162.950367
 30
0.0
 40
0.104163
 50
2.119186
 51
88.077359000000001
  0
ARC
  5
15A
  8
_________1
 62
     7
 10
-21.058620999999999
 20
164.3503429999999
 30
0.0
 40
0.103777
 50
92.094504999999998
 51
177.80659399999999
  0
LINE
  5
15B
  8
_________1
 62
     7
 10
-20.9618
 20
165.054
 30
0.0
 11
-20.9618
 21
164.554
 31
0.0
  0
ARC
  5
15C
  8
_________1
 62
     7
 10
-21.066129
 20
164.55837
 30
0.0
 40
0.104386
 50
272.03992499999998
 51
357.86189200000001
  0
LINE
  5
15D
  8
_________1
 62
     7
 10
-21.162299999999998
 20
161.85400000000001
 30
0.0
 11
-20.9618
 21
161.85400000000001
 31
0.0
  0
LINE
  5
15E
  8
_________1
 62
     7
 10
-23.261800000000001
 20
161.85400000000001
 30
0.0
 11
-22.361899999999999
 21
161.85400000000001
 31
0.0
  0
LINE
  5
15F
  8
_________1
 62
     7
 10
-21.162299999999998
 20
165.054
 30
0.0
 11
-20.9618
 21
165.054
 31
0.0
  0
LINE
  5
160
  8
_________1
 62
     7
 10
-23.261800000000001
 20
165.054
 30
0.0
 11
-22.361899999999999
 21
165.054
 31
0.0
  0
LINE
  5
161
  8
_________1
 62
     7
 10
-21.0624
 20
160.85499999999999
 30
0.0
 11
-21.0624
 21
161.85400000000001
 31
0.0
  0
LINE
  5
162
  8
_________1
 62
     7
 10
-26.562200000000001
 20
162.95400000000001
 30
0.0
 11
-26.562200000000001
 21
161.85400000000001
 31
0.0
  0
ARC
  5
163
  8
_________1
 62
     7
 10
-26.46611
 20
163.158558
 30
0.0
 40
0.104156
 50
272.10159900000002
 51
357.70118000000002
  0
ARC
  5
164
  8
_________1
 62
     7
 10
-26.458461
 20
162.95074700000001
 30
0.0
 40
0.103796
 50
92.114307999999994
 51
178.08289300000001
  0
ARC
  5
165
  8
_________1
 62
     7
 10
-26.466186
 20
164.34988000000001
 30
0.0
 40
0.104243
 50
2.4380319999999989
 51
87.858058999999983
  0
LINE
  5
166
  8
_________1
 62
     7
 10
-26.562200000000001
 20
165.054
 30
0.0
 11
-26.562200000000001
 21
164.554
 31
0.0
  0
ARC
  5
167
  8
_________1
 62
     7
 10
-26.457953
 20
164.55827500000001
 30
0.0
 40
0.104315
 50
182.087433
 51
267.61700500000001
  0
LINE
  5
168
  8
_________1
 62
     7
 10
-26.361999999999998
 20
161.85400000000001
 30
0.0
 11
-26.562200000000001
 21
161.85400000000001
 31
0.0
  0
LINE
  5
169
  8
_________1
 62
     7
 10
-24.2622
 20
161.85400000000001
 30
0.0
 11
-25.162099999999999
 21
161.85400000000001
 31
0.0
  0
LINE
  5
16A
  8
_________1
 62
     7
 10
-26.361999999999998
 20
165.054
 30
0.0
 11
-26.562200000000001
 21
165.054
 31
0.0
  0
LINE
  5
16B
  8
_________1
 62
     7
 10
-24.2622
 20
165.054
 30
0.0
 11
-25.162099999999999
 21
165.054
 31
0.0
  0
LINE
  5
16C
  8
_________1
 62
     7
 10
-26.462299999999999
 20
160.85499999999999
 30
0.0
 11
-26.462299999999999
 21
161.85400000000001
 31
0.0
  0
LINE
  5
16D
  8
_________1
 62
     7
 10
-21.2622
 20
155.45400000000001
 30
0.0
 11
-21.2622
 21
159.85400000000001
 31
0.0
  0
LINE
  5
16E
  8
_________1
 62
     7
 10
-22.262
 20
155.45400000000001
 30
0.0
 11
-22.262
 21
159.85400000000001
 31
0.0
  0
LINE
  5
16F
  8
_________1
 62
     7
 10
-22.7622
 20
155.45400000000001
 30
0.0
 11
-20.762
 21
155.45400000000001
 31
0.0
  0
LINE
  5
170
  8
_________1
 62
     7
 10
-20.762
 20
159.85400000000001
 30
0.0
 11
-20.762
 21
155.45400000000001
 31
0.0
  0
LINE
  5
171
  8
_________1
 62
     7
 10
-22.7622
 20
159.85400000000001
 30
0.0
 11
-22.7622
 21
155.45400000000001
 31
0.0
  0
LINE
  5
172
  8
_________1
 62
     7
 10
-22.361899999999999
 20
150.85400000000001
 30
0.0
 11
-22.361899999999999
 21
155.45400000000001
 31
0.0
  0
LINE
  5
173
  8
_________1
 62
     7
 10
-22.361899999999999
 20
150.85400000000001
 30
0.0
 11
-21.162299999999998
 21
150.85400000000001
 31
0.0
  0
LINE
  5
174
  8
_________1
 62
     7
 10
-21.162299999999998
 20
150.85400000000001
 30
0.0
 11
-21.162299999999998
 21
155.45400000000001
 31
0.0
  0
LINE
  5
175
  8
_________1
 62
     7
 10
-21.162299999999998
 20
160.85400000000001
 30
0.0
 11
-21.162299999999998
 21
166.85400000000001
 31
0.0
  0
LINE
  5
176
  8
_________1
 62
     7
 10
-22.361899999999999
 20
160.85400000000001
 30
0.0
 11
-22.361899999999999
 21
166.85400000000001
 31
0.0
  0
LINE
  5
177
  8
_________1
  6
AIGENLINE001
 62
     7
 10
-21.762499999999999
 20
167.71100000000001
 30
0.0
 11
-21.762499999999999
 21
149.91399999999999
 31
0.0
  0
LINE
  5
178
  8
_________1
 62
     7
 10
-25.262
 20
155.45400000000001
 30
0.0
 11
-25.262
 21
159.85400000000001
 31
0.0
  0
LINE
  5
179
  8
_________1
 62
     7
 10
-26.262499999999999
 20
155.45400000000001
 30
0.0
 11
-26.262499999999999
 21
159.85400000000001
 31
0.0
  0
LINE
  5
17A
  8
_________1
 62
     7
 10
-26.762
 20
155.45400000000001
 30
0.0
 11
-24.7621
 21
155.45400000000001
 31
0.0
  0
LINE
  5
17B
  8
_________1
 62
     7
 10
-24.7621
 20
159.85400000000001
 30
0.0
 11
-24.7621
 21
155.45400000000001
 31
0.0
  0
LINE
  5
17C
  8
_________1
 62
     7
 10
-26.762
 20
159.85400000000001
 30
0.0
 11
-26.762
 21
155.45400000000001
 31
0.0
  0
LINE
  5
17D
  8
_________1
 62
     7
 10
-26.362400000000001
 20
150.85400000000001
 30
0.0
 11
-26.362400000000001
 21
155.45400000000001
 31
0.0
  0
LINE
  5
17E
  8
_________1
 62
     7
 10
-26.362400000000001
 20
150.85400000000001
 30
0.0
 11
-25.162099999999999
 21
150.85400000000001
 31
0.0
  0
LINE
  5
17F
  8
_________1
 62
     7
 10
-25.162099999999999
 20
150.85400000000001
 30
0.0
 11
-25.162099999999999
 21
155.45400000000001
 31
0.0
  0
LINE
  5
180
  8
_________1
 62
     7
 10
-25.162099999999999
 20
160.85400000000001
 30
0.0
 11
-25.162099999999999
 21
166.85400000000001
 31
0.0
  0
LINE
  5
181
  8
_________1
 62
     7
 10
-26.361999999999998
 20
160.85400000000001
 30
0.0
 11
-26.361999999999998
 21
166.85400000000001
 31
0.0
  0
LINE
  5
182
  8
_________1
  6
AIGENLINE001
 62
     7
 10
-25.7622
 20
167.71100000000001
 30
0.0
 11
-25.7622
 21
149.91399999999999
 31
0.0
  0
LINE
  5
183
  8
_________1
 62
     7
 10
-23.261800000000001
 20
160.85400000000001
 30
0.0
 11
-23.261800000000001
 21
166.85400000000001
 31
0.0
  0
LINE
  5
184
  8
_________1
 62
     7
 10
-24.2622
 20
160.85400000000001
 30
0.0
 11
-24.2622
 21
166.85400000000001
 31
0.0
  0
LINE
  5
185
  8
_________1
 62
     7
 10
-18.762499999999999
 20
160.85400000000001
 30
0.0
 11
-18.762499999999999
 21
159.85400000000001
 31
0.0
  0
LINE
  5
186
  8
_________1
 62
     7
 10
-28.7623
 20
160.85400000000001
 30
0.0
 11
-28.7623
 21
159.85400000000001
 31
0.0
  0
LINE
  5
187
  8
_________1
 62
     7
 10
-28.7623
 20
159.85400000000001
 30
0.0
 11
-18.762499999999999
 21
159.85400000000001
 31
0.0
  0
LINE
  5
188
  8
_________1
 62
     7
 10
-28.7623
 20
160.45400000000001
 30
0.0
 11
-18.762499999999999
 21
160.45400000000001
 31
0.0
  0
LINE
  5
189
  8
_________1
 62
     7
 10
-28.7623
 20
160.85400000000001
 30
0.0
 11
-18.762499999999999
 21
160.85400000000001
 31
0.0
  0
LINE
  5
18A
  8
_________1
 62
     7
 10
-35.061999999999998
 20
151.054
 30
0.0
 11
-33.962299999999999
 21
151.054
 31
0.0
  0
ARC
  5
18B
  8
_________1
 62
     7
 10
-35.265974999999997
 20
151.15016900000001
 30
0.0
 40
0.103801
 50
2.1170059999999991
 51
88.080214999999995
  0
ARC
  5
18C
  8
_________1
 62
     7
 10
-35.058515
 20
151.157838
 30
0.0
 40
0.103801
 50
182.11700899999991
 51
268.08025199999997
  0
ARC
  5
18D
  8
_________1
 62
     7
 10
-36.458320000000001
 20
151.149877
 30
0.0
 40
0.104103
 50
92.074277999999993
 51
177.72846100000001
  0
LINE
  5
18E
  8
_________1
 62
     7
 10
-37.162100000000002
 20
151.054
 30
0.0
 11
-36.662599999999998
 21
151.054
 31
0.0
  0
ARC
  5
18F
  8
_________1
 62
     7
 10
-36.666136000000002
 20
151.157903
 30
0.0
 40
0.103869
 50
271.95455500000003
 51
357.84822300000002
  0
LINE
  5
190
  8
_________1
 62
     7
 10
-35.262500000000003
 20
151.25399999999999
 30
0.0
 11
-36.4621
 21
151.25399999999999
 31
0.0
  0
LINE
  5
191
  8
_________1
 62
     7
 10
-35.061999999999998
 20
153.654
 30
0.0
 11
-33.962299999999999
 21
153.654
 31
0.0
  0
ARC
  5
192
  8
_________1
 62
     7
 10
-35.266294000000002
 20
153.55785399999999
 30
0.0
 40
0.104132
 50
272.08930099999998
 51
357.71347800000001
  0
ARC
  5
193
  8
_________1
 62
     7
 10
-35.058174999999999
 20
153.55024
 30
0.0
 40
0.104127
 50
92.100607999999994
 51
178.09591699999999
  0
ARC
  5
194
  8
_________1
 62
     7
 10
-36.45861
 20
153.557534
 30
0.0
 40
0.103801
 50
182.11700899999991
 51
268.08025199999997
  0
LINE
  5
195
  8
_________1
 62
     7
 10
-37.162100000000002
 20
153.654
 30
0.0
 11
-36.662599999999998
 21
153.654
 31
0.0
  0
ARC
  5
196
  8
_________1
 62
     7
 10
-36.666741999999999
 20
153.54990900000001
 30
0.0
 40
0.10447
 50
2.079210999999999
 51
87.724225000000004
  0
LINE
  5
197
  8
_________1
 62
     7
 10
-37.3626
 20
151.154
 30
0.0
 11
-37.162100000000002
 21
151.154
 31
0.0
  0
LINE
  5
198
  8
_________1
 62
     7
 10
-37.3626
 20
153.554
 30
0.0
 11
-37.162100000000002
 21
153.554
 31
0.0
  0
LINE
  5
199
  8
_________1
 62
     7
 10
-33.962299999999999
 20
151.154
 30
0.0
 11
-30.597100000000001
 21
151.154
 31
0.0
  0
LINE
  5
19A
  8
_________1
 62
     7
 10
-33.962299999999999
 20
153.554
 30
0.0
 11
-30.597100000000001
 21
153.554
 31
0.0
  0
LINE
  5
19B
  8
_________1
 62
     7
 10
-35.262500000000003
 20
153.45400000000001
 30
0.0
 11
-36.4621
 21
153.45400000000001
 31
0.0
  0
LINE
  5
19C
  8
_________1
 62
     7
 10
-33.962299999999999
 20
153.654
 30
0.0
 11
-33.962299999999999
 21
151.054
 31
0.0
  0
LINE
  5
19D
  8
_________1
 62
     7
 10
-37.162100000000002
 20
153.654
 30
0.0
 11
-37.162100000000002
 21
151.054
 31
0.0
  0
LINE
  5
19E
  8
_________1
 62
     7
 10
-37.662399999999998
 20
153.554
 30
0.0
 11
-39.262300000000003
 21
153.554
 31
0.0
  0
LINE
  5
19F
  8
_________1
 62
     7
 10
-37.662399999999998
 20
154.95400000000001
 30
0.0
 11
-39.262300000000003
 21
154.95400000000001
 31
0.0
  0
LINE
  5
1A0
  8
_________1
 62
     7
 10
-39.5623
 20
150.85400000000001
 30
0.0
 11
-41.162300000000002
 21
150.85400000000001
 31
0.0
  0
LINE
  5
1A1
  8
_________1
 62
     7
 10
-39.5623
 20
153.85400000000001
 30
0.0
 11
-41.162300000000002
 21
153.85400000000001
 31
0.0
  0
LINE
  5
1A2
  8
_________1
 62
     7
 10
-39.5623
 20
154.28399999999999
 30
0.0
 11
-39.5623
 21
152.35300000000001
 31
0.0
  0
LINE
  5
1A3
  8
_________1
  6
AIGENLINE001
 62
     7
 10
-22.262
 20
145.20400000000001
 30
0.0
 11
-22.262
 21
167.70400000000001
 31
0.0
  0
LINE
  5
1A4
  8
_________1
  6
AIGENLINE001
 62
     7
 10
-25.262
 20
145.20400000000001
 30
0.0
 11
-25.262
 21
167.70400000000001
 31
0.0
  0
LINE
  5
1A5
  8
_________1
 62
     7
 10
1.3046699999999991
 20
161.053
 30
0.0
 11
8.3192699999999995
 21
161.053
 31
0.0
  0
LINE
  5
1A6
  8
_________1
 62
     7
 10
-0.7958220000000001
 20
146.85400000000001
 30
0.0
 11
13.753299999999999
 21
146.85400000000001
 31
0.0
  0
LINE
  5
1A7
  8
_________1
 62
     7
 10
3.2821599999999989
 20
166.85400000000001
 30
0.0
 11
13.753299999999999
 21
166.85400000000001
 31
0.0
  0
LINE
  5
1A8
  8
_________1
 62
     7
 10
-19.962
 20
180.464
 30
0.0
 11
-19.962
 21
180.11799999999999
 31
0.0
  0
LINE
  5
1A9
  8
_________1
 62
     7
 10
-27.562000000000001
 20
180.464
 30
0.0
 11
-27.562000000000001
 21
180.11799999999999
 31
0.0
  0
ARC
  5
1AA
  8
_________1
 62
     7
 10
-20.784918999999999
 20
180.1189929999999
 30
0.0
 40
0.822877
 50
333.382476
 51
359.91643699999997
  0
ARC
  5
1AB
  8
_________1
 62
     7
 10
-21.103335000000001
 20
180.26438400000001
 30
0.0
 40
1.1727549999999991
 50
314.77497299999999
 51
334.00194599999998
  0
ARC
  5
1AC
  8
_________1
 62
     7
 10
-21.694106000000001
 20
180.81071499999999
 30
0.0
 40
1.97698
 50
301.4867779999999
 51
315.77722
  0
ARC
  5
1AD
  8
_________1
 62
     7
 10
-22.501360999999999
 20
182.03982199999999
 30
0.0
 40
3.4470580000000002
 50
289.20155899999997
 51
302.25856800000003
  0
ARC
  5
1AE
  8
_________1
 62
     7
 10
-24.721965000000001
 20
182.69694799999999
 30
0.0
 40
4.167084
 50
241.08158299999999
 51
249.885929
  0
ARC
  5
1AF
  8
_________1
 62
     7
 10
-25.486007000000001
 20
181.26710600000001
 30
0.0
 40
2.5461680000000002
 50
228.62787299999999
 51
240.57194799999999
  0
ARC
  5
1B0
  8
_________1
 62
     7
 10
-26.179252000000002
 20
180.450581
 30
0.0
 40
1.4753510000000001
 50
211.505347
 51
227.87266199999999
  0
ARC
  5
1B1
  8
_________1
 62
     7
 10
-26.654336000000001
 20
180.13950600000001
 30
0.0
 40
0.907895
 50
181.37039200000001
 51
210.435451
  0
ARC
  5
1B2
  8
_________1
 62
     7
 10
-26.570578999999999
 20
180.15365
 30
0.0
 40
0.7113070000000001
 50
148.72952599999999
 51
179.86346599999999
  0
ARC
  5
1B3
  8
_________1
 62
     7
 10
-26.255400999999999
 20
179.991378
 30
0.0
 40
1.0652209999999991
 50
136.708707
 51
150.069177
  0
ARC
  5
1B4
  8
_________1
 62
     7
 10
-25.856366000000001
 20
179.632836
 30
0.0
 40
1.6015749999999991
 50
126.25605
 51
137.16112699999999
  0
ARC
  5
1B5
  8
_________1
 62
     7
 10
-25.284375000000001
 20
178.87920199999999
 30
0.0
 40
2.547610999999999
 50
114.67925700000001
 51
126.605716
  0
ARC
  5
1B6
  8
_________1
 62
     7
 10
-24.535036999999999
 20
177.36545699999999
 30
0.0
 40
4.236248999999999
 50
105.544867
 51
115.33993
  0
ARC
  5
1B7
  8
_________1
 62
     7
 10
-23.929008
 20
175.36757900000001
 30
0.0
 40
6.3236429999999988
 50
94.390985999999984
 51
105.98379199999999
  0
ARC
  5
1B8
  8
_________1
 62
     7
 10
-23.764703999999998
 20
174.08187599999999
 30
0.0
 40
7.6184329999999996
 50
89.979712000000006
 51
94.882740000000027
  0
ARC
  5
1B9
  8
_________1
 62
     7
 10
-23.762392999999999
 20
174.22868099999999
 30
0.0
 40
7.4716269999999998
 50
78.098718999999988
 51
89.997031000000007
  0
ARC
  5
1BA
  8
_________1
 62
     7
 10
-23.380735999999999
 20
176.20047199999999
 30
0.0
 40
5.4636139999999989
 50
68.933818000000002
 51
77.750750999999994
  0
ARC
  5
1BB
  8
_________1
 62
     7
 10
-22.710529000000001
 20
178.00822700000001
 30
0.0
 40
3.535858999999999
 50
58.855652999999997
 51
68.538817000000009
  0
ARC
  5
1BC
  8
_________1
 62
     7
 10
-21.950133999999998
 20
179.30343199999999
 30
0.0
 40
2.0341520000000002
 50
44.900404999999999
 51
58.318313000000011
  0
ARC
  5
1BD
  8
_________1
 62
     7
 10
-21.313213999999999
 20
179.96471199999999
 30
0.0
 40
1.116376
 50
25.640426000000001
 51
43.934420000000003
  0
ARC
  5
1BE
  8
_________1
 62
     7
 10
-20.969850999999998
 20
180.147008
 30
0.0
 40
0.728112
 50
0.656027
 51
24.399799000000002
  0
ARC
  5
1BF
  8
_________1
 62
     7
 10
-26.735008000000001
 20
180.4628779999999
 30
0.0
 40
0.8269649999999998
 50
151.926174
 51
179.896501
  0
ARC
  5
1C0
  8
_________1
 62
     7
 10
-26.405114000000001
 20
180.306104
 30
0.0
 40
1.1919439999999999
 50
134.806228
 51
152.73961600000001
  0
ARC
  5
1C1
  8
_________1
 62
     7
 10
-25.895962000000001
 20
179.83723000000001
 30
0.0
 40
1.8836649999999999
 50
125.426058
 51
135.7437149999999
  0
ARC
  5
1C2
  8
_________1
 62
     7
 10
-25.302295000000001
 20
179.02775399999999
 30
0.0
 40
2.8874339999999989
 50
114.09441799999991
 51
125.71465600000001
  0
ARC
  5
1C3
  8
_________1
 62
     7
 10
-24.578616
 20
177.53086399999989
 30
0.0
 40
4.5496119999999998
 50
105.70588499999999
 51
114.71824100000001
  0
ARC
  5
1C4
  8
_________1
 62
     7
 10
-23.995562
 20
175.61598499999999
 30
0.0
 40
6.5509699999999986
 50
95.471596999999988
 51
106.08135
  0
ARC
  5
1C5
  8
_________1
 62
     7
 10
-23.771916000000001
 20
173.976945
 30
0.0
 40
8.2041350000000008
 50
89.930793000000008
 51
95.93490899999999
  0
ARC
  5
1C6
  8
_________1
 62
     7
 10
-23.763055999999999
 20
174.03084999999999
 30
0.0
 40
8.1502239999999997
 50
78.929943000000009
 51
89.992621000000014
  0
ARC
  5
1C7
  8
_________1
 62
     7
 10
-23.355217
 20
176.32583500000001
 30
0.0
 40
5.8197729999999996
 50
67.982027000000002
 51
78.532122000000001
  0
ARC
  5
1C8
  8
_________1
 62
     7
 10
-22.551696
 20
178.424779
 30
0.0
 40
3.572921
 50
57.592168999999991
 51
67.308951000000008
  0
ARC
  5
1C9
  8
_________1
 62
     7
 10
-21.797543000000001
 20
179.64646400000001
 30
0.0
 40
2.1374019999999998
 50
43.334127000000002
 51
57.108184000000001
  0
ARC
  5
1CA
  8
_________1
 62
     7
 10
-21.158594000000001
 20
180.277762
 30
0.0
 40
1.2395969999999989
 50
25.444997000000001
 51
42.377138000000002
  0
ARC
  5
1CB
  8
_________1
 62
     7
 10
-20.818118999999999
 20
180.45495600000001
 30
0.0
 40
0.8561280000000001
 50
0.630146
 51
24.526555999999999
  0
LINE
  5
1CC
  8
_________1
 62
     7
 10
80.282600000000016
 20
169.85400000000001
 30
0.0
 11
83.282600000000002
 21
169.85400000000001
 31
0.0
  0
ARC
  5
1CD
  8
_________1
 62
     7
 10
80.297922999999997
 20
170.26904300000001
 30
0.0
 40
0.41557
 50
182.06369900000001
 51
267.887002
  0
ARC
  5
1CE
  8
_________1
 62
     7
 10
80.297899000000001
 20
170.23877999999999
 30
0.0
 40
0.415558
 50
92.109700000000004
 51
177.89027100000001
  0
LINE
  5
1CF
  8
_________1
 62
     7
 10
81.582400000000007
 20
174.95400000000001
 30
0.0
 11
81.582400000000007
 21
174.709
 31
0.0
  0
LINE
  5
1D0
  8
_________1
 62
     7
 10
81.448400000000007
 20
174.209
 30
0.0
 11
80.550600000000003
 21
172.654
 31
0.0
  0
ARC
  5
1D1
  8
_________1
 62
     7
 10
80.57323199999999
 20
174.711353
 30
0.0
 40
1.0092139999999989
 50
330.174915
 51
359.883622
  0
LINE
  5
1D2
  8
_________1
 62
     7
 10
80.282600000000016
 20
171.642
 30
0.0
 11
80.282600000000016
 21
170.654
 31
0.0
  0
ARC
  5
1D3
  8
_________1
 62
     7
 10
82.292931999999979
 20
171.651038
 30
0.0
 40
2.0103330000000001
 50
150.07425499999999
 51
179.920424
  0
LINE
  5
1D4
  8
_________1
 62
     7
 10
80.282600000000016
 20
170.654
 30
0.0
 11
83.282600000000002
 21
170.654
 31
0.0
  0
LINE
  5
1D5
  8
_________1
 62
     7
 10
81.582400000000007
 20
174.95400000000001
 30
0.0
 11
81.420900000000003
 21
176.03200000000001
 31
0.0
  0
LINE
  5
1D6
  8
_________1
 62
     7
 10
79.893999999999991
 20
177.054
 30
0.0
 11
80.234399999999994
 21
177.054
 31
0.0
  0
ARC
  5
1D7
  8
_________1
 62
     7
 10
80.200231000000016
 20
175.81450599999999
 30
0.0
 40
1.2398420000000001
 50
10.097692
 51
88.422165000000007
  0
LINE
  5
1D8
  8
_________1
 62
     7
 10
81.432599999999994
 20
175.95400000000001
 30
0.0
 11
83.282600000000002
 21
175.95400000000001
 31
0.0
  0
LINE
  5
1D9
  8
_________1
 62
     7
 10
77.436599999999999
 20
176.67400000000001
 30
0.0
 11
79.703500000000005
 21
177.03899999999999
 31
0.0
  0
ARC
  5
1DA
  8
_________1
 62
     7
 10
79.893063999999995
 20
175.86074300000001
 30
0.0
 40
1.1931359999999991
 50
89.955448000000004
 51
99.142956000000027
  0
ARC
  5
1DB
  8
_________1
 62
     7
 10
77.233377000000004
 20
178.32434599999999
 30
0.0
 40
1.6625859999999999
 50
191.25298599999999
 51
277.02066200000002
  0
ARC
  5
1DC
  8
_________1
 62
     7
 10
77.220022999999983
 20
178.25714099999999
 30
0.0
 40
1.6375989999999989
 50
180.11043799999999
 51
189.03744299999991
  0
LINE
  5
1DD
  8
_________1
 62
     7
 10
79.893999999999991
 20
179.45400000000001
 30
0.0
 11
80.208500000000015
 21
179.45400000000001
 31
0.0
  0
LINE
  5
1DE
  8
_________1
 62
     7
 10
77.436599999999999
 20
179.834
 30
0.0
 11
79.703500000000005
 21
179.46899999999999
 31
0.0
  0
ARC
  5
1DF
  8
_________1
 62
     7
 10
79.892549000000002
 20
180.64058199999999
 30
0.0
 40
1.186663
 50
260.83193599999998
 51
270.069661
  0
ARC
  5
1E0
  8
_________1
 62
     7
 10
80.208048000000005
 20
180.65552199999999
 30
0.0
 40
1.2016029999999991
 50
270.02304400000003
 51
293.26069000000001
  0
ARC
  5
1E1
  8
_________1
 62
     7
 10
77.182513
 20
178.25381200000001
 30
0.0
 40
1.6000849999999991
 50
89.993831999999998
 51
179.99380199999999
  0
ARC
  5
1E2
  8
_________1
 62
     7
 10
77.183611999999997
 20
178.269486
 30
0.0
 40
1.5844119999999999
 50
80.812436000000019
 51
90.033522000000005
  0
LINE
  5
1E3
  8
_________1
 62
     7
 10
80.682599999999994
 20
179.554
 30
0.0
 11
82.349999999999994
 21
179.554
 31
0.0
  0
LINE
  5
1E4
  8
_________1
 62
     7
 10
81.082599999999985
 20
180.554
 30
0.0
 11
83.282600000000002
 21
180.554
 31
0.0
  0
LINE
  5
1E5
  8
_________1
 62
     7
 10
80.682599999999994
 20
180.154
 30
0.0
 11
80.682599999999994
 21
179.554
 31
0.0
  0
ARC
  5
1E6
  8
_________1
 62
     7
 10
81.097854999999996
 20
180.13866899999999
 30
0.0
 40
0.415558
 50
92.109700000000004
 51
177.89027100000001
  0
LINE
  5
1E7
  8
_________1
 62
     7
 10
86.282600000000002
 20
169.85400000000001
 30
0.0
 11
83.282600000000002
 21
169.85400000000001
 31
0.0
  0
ARC
  5
1E8
  8
_________1
 62
     7
 10
86.267319000000015
 20
170.23877999999999
 30
0.0
 40
0.415558
 50
2.109726999999999
 51
87.890263000000004
  0
ARC
  5
1E9
  8
_________1
 62
     7
 10
86.266981000000001
 20
170.26934299999999
 30
0.0
 40
0.415894
 50
272.20212500000002
 51
357.89658500000002
  0
LINE
  5
1EA
  8
_________1
 62
     7
 10
86.282999999999987
 20
169.85400000000001
 30
0.0
 11
86.282600000000002
 21
169.85400000000001
 31
0.0
  0
LINE
  5
1EB
  8
_________1
 62
     7
 10
84.982799999999983
 20
174.95400000000001
 30
0.0
 11
84.982799999999983
 21
174.709
 31
0.0
  0
LINE
  5
1EC
  8
_________1
 62
     7
 10
85.116799999999998
 20
174.209
 30
0.0
 11
86.014600000000016
 21
172.654
 31
0.0
  0
ARC
  5
1ED
  8
_________1
 62
     7
 10
85.986058999999997
 20
174.71036799999999
 30
0.0
 40
1.0032849999999991
 50
180.06079500000001
 51
209.95439999999999
  0
LINE
  5
1EE
  8
_________1
 62
     7
 10
86.282600000000002
 20
171.642
 30
0.0
 11
86.282600000000002
 21
170.654
 31
0.0
  0
ARC
  5
1EF
  8
_________1
 62
     7
 10
84.271186999999983
 20
171.65074300000001
 30
0.0
 40
2.0114320000000001
 50
0.087901
 51
29.917380999999999
  0
LINE
  5
1F0
  8
_________1
 62
     7
 10
86.282600000000002
 20
170.654
 30
0.0
 11
83.282600000000002
 21
170.654
 31
0.0
  0
LINE
  5
1F1
  8
_________1
 62
     7
 10
84.982799999999983
 20
174.95400000000001
 30
0.0
 11
85.144400000000005
 21
176.03200000000001
 31
0.0
  0
LINE
  5
1F2
  8
_________1
 62
     7
 10
86.671199999999999
 20
177.054
 30
0.0
 11
86.331199999999995
 21
177.054
 31
0.0
  0
ARC
  5
1F3
  8
_________1
 62
     7
 10
86.365234999999998
 20
175.81420700000001
 30
0.0
 40
1.2401379999999991
 50
91.572956000000019
 51
169.89069799999999
  0
LINE
  5
1F4
  8
_________1
 62
     7
 10
85.132599999999996
 20
175.95400000000001
 30
0.0
 11
83.282600000000002
 21
175.95400000000001
 31
0.0
  0
LINE
  5
1F5
  8
_________1
 62
     7
 10
89.128600000000006
 20
176.67400000000001
 30
0.0
 11
86.861699999999999
 21
177.03899999999999
 31
0.0
  0
ARC
  5
1F6
  8
_________1
 62
     7
 10
86.671717999999998
 20
175.85525699999999
 30
0.0
 40
1.198620999999999
 50
80.878090999999984
 51
90.023464999999987
  0
ARC
  5
1F7
  8
_________1
 62
     7
 10
89.382619999999989
 20
178.25407100000001
 30
0.0
 40
1.600171
 50
269.99693600000001
 51
359.99690600000002
  0
ARC
  5
1F8
  8
_________1
 62
     7
 10
89.381608999999983
 20
178.23834500000001
 30
0.0
 40
1.5844450000000001
 50
260.81255399999998
 51
270.03344399999997
  0
LINE
  5
1F9
  8
_________1
  6
AIGENLINE001
 62
     7
 10
92.304699999999997
 20
178.25399999999999
 30
0.0
 11
74.907200000000003
 21
178.25399999999999
 31
0.0
  0
LINE
  5
1FA
  8
_________1
 62
     7
 10
86.671199999999999
 20
179.45400000000001
 30
0.0
 11
86.356700000000004
 21
179.45400000000001
 31
0.0
  0
LINE
  5
1FB
  8
_________1
 62
     7
 10
89.128600000000006
 20
179.834
 30
0.0
 11
86.861699999999999
 21
179.46899999999999
 31
0.0
  0
ARC
  5
1FC
  8
_________1
 62
     7
 10
86.668446000000003
 20
180.69366500000001
 30
0.0
 40
1.2397489999999991
 50
270.12853899999999
 51
278.96990499999998
  0
ARC
  5
1FD
  8
_________1
 62
     7
 10
86.359013999999988
 20
180.664468
 30
0.0
 40
1.210550999999999
 50
246.82639499999999
 51
269.88991199999998
  0
ARC
  5
1FE
  8
_________1
 62
     7
 10
89.331842000000009
 20
178.18345099999999
 30
0.0
 40
1.6625859999999999
 50
11.252966000000001
 51
97.020643000000007
  0
ARC
  5
1FF
  8
_________1
 62
     7
 10
89.345168999999999
 20
178.250652
 30
0.0
 40
1.637626
 50
0.116594
 51
9.0374269999999992
  0
LINE
  5
200
  8
_________1
 62
     7
 10
85.882599999999996
 20
179.554
 30
0.0
 11
84.215199999999996
 21
179.554
 31
0.0
  0
LINE
  5
201
  8
_________1
 62
     7
 10
85.482699999999994
 20
180.554
 30
0.0
 11
83.282600000000002
 21
180.554
 31
0.0
  0
LINE
  5
202
  8
_________1
 62
     7
 10
85.882599999999996
 20
180.154
 30
0.0
 11
85.882599999999996
 21
179.554
 31
0.0
  0
ARC
  5
203
  8
_________1
 62
     7
 10
85.467363000000006
 20
180.13866899999999
 30
0.0
 40
0.415558
 50
2.109726999999999
 51
87.890263000000004
  0
ARC
  5
204
  8
_________1
 62
     7
 10
83.282609999999991
 20
178.253984
 30
0.0
 40
1.599912999999999
 50
90.0
 51
179.99996999999999
  0
ARC
  5
205
  8
_________1
 62
     7
 10
83.282608999999994
 20
178.253984
 30
0.0
 40
1.599912999999999
 50
0.00001
 51
89.999980000000008
  0
ARC
  5
206
  8
_________1
 62
     7
 10
83.282522999999998
 20
178.25389899999999
 30
0.0
 40
1.5999989999999991
 50
270.00310400000001
 51
0.003074
  0
ARC
  5
207
  8
_________1
 62
     7
 10
83.28269499999999
 20
178.25389799999999
 30
0.0
 40
1.599998
 50
179.99688599999999
 51
269.99693600000001
  0
LINE
  5
208
  8
_________1
 62
     7
 10
88.426900000000003
 20
168.035
 30
0.0
 11
88.778599999999997
 21
167.964
 31
0.0
  0
LINE
  5
209
  8
_________1
 62
     7
 10
89.410399999999996
 20
167.3059999999999
 30
0.0
 11
89.482799999999997
 21
166.85400000000001
 31
0.0
  0
ARC
  5
20A
  8
_________1
 62
     7
 10
88.601489999999984
 20
167.16126499999999
 30
0.0
 40
0.8218110000000001
 50
10.150099000000001
 51
77.554081000000011
  0
ARC
  5
20B
  8
_________1
 62
     7
 10
88.779981000000006
 20
169.638666
 30
0.0
 40
1.6423449999999999
 50
190.120386
 51
257.58383400000002
  0
LINE
  5
20C
  8
_________1
 62
     7
 10
86.570999999999984
 20
169.85400000000001
 30
0.0
 11
83.282600000000002
 21
169.85400000000001
 31
0.0
  0
ARC
  5
20D
  8
_________1
 62
     7
 10
86.553886000000006
 20
169.233566
 30
0.0
 40
0.620424
 50
10.694602
 51
88.421779999999998
  0
LINE
  5
20E
  8
_________1
 62
     7
 10
89.482799999999997
 20
166.85400000000001
 30
0.0
 11
83.282600000000002
 21
166.85400000000001
 31
0.0
  0
LINE
  5
20F
  8
_________1
 62
     7
 10
78.138400000000004
 20
168.035
 30
0.0
 11
77.786600000000007
 21
167.964
 31
0.0
  0
LINE
  5
210
  8
_________1
 62
     7
 10
77.154799999999994
 20
167.3059999999999
 30
0.0
 11
77.082400000000007
 21
166.85400000000001
 31
0.0
  0
ARC
  5
211
  8
_________1
 62
     7
 10
77.963082999999983
 20
167.16188500000001
 30
0.0
 40
0.821067
 50
102.411235
 51
169.884545
  0
ARC
  5
212
  8
_________1
 62
     7
 10
77.786604999999994
 20
169.63735299999999
 30
0.0
 40
1.640768
 50
282.379411
 51
349.91640799999999
  0
LINE
  5
213
  8
_________1
 62
     7
 10
79.994200000000006
 20
169.85400000000001
 30
0.0
 11
83.282600000000002
 21
169.85400000000001
 31
0.0
  0
ARC
  5
214
  8
_________1
 62
     7
 10
80.011452000000006
 20
169.23342600000001
 30
0.0
 40
0.620568
 50
91.588921999999997
 51
169.294657
  0
LINE
  5
215
  8
_________1
 62
     7
 10
77.082400000000007
 20
166.85400000000001
 30
0.0
 11
83.282600000000002
 21
166.85400000000001
 31
0.0
  0
ARC
  5
216
  8
_________1
 62
     7
 10
85.148244000000005
 20
180.130335
 30
0.0
 40
0.48419
 50
61.031221000000002
 51
68.081271000000001
  0
ARC
  5
217
  8
_________1
 62
     7
 10
84.698143999999999
 20
179.09657200000001
 30
0.0
 40
1.611554999999999
 50
66.955246999999986
 51
71.696540999999996
  0
ARC
  5
218
  8
_________1
 62
     7
 10
84.240483999999995
 20
177.70739800000001
 30
0.0
 40
3.074174999999999
 50
71.729422
 51
79.338474000000005
  0
ARC
  5
219
  8
_________1
 62
     7
 10
83.726709999999997
 20
175.233487
 30
0.0
 40
5.600630999999999
 50
78.855451000000002
 51
84.371765999999994
  0
ARC
  5
21A
  8
_________1
 62
     7
 10
83.350568999999993
 20
171.7492179999999
 30
0.0
 40
9.1050500000000003
 50
84.166531000000006
 51
90.427650000000014
  0
ARC
  5
21B
  8
_________1
 62
     7
 10
81.444423999999998
 20
180.07475400000001
 30
0.0
 40
0.5461200000000001
 50
111.851563
 51
118.663984
  0
ARC
  5
21C
  8
_________1
 62
     7
 10
81.889578
 20
179.03686500000001
 30
0.0
 40
1.6753400000000001
 50
108.05914900000001
 51
112.770355
  0
ARC
  5
21D
  8
_________1
 62
     7
 10
82.344187000000005
 20
177.63583
 30
0.0
 40
3.148285
 50
100.442448
 51
108.020831
  0
ARC
  5
21E
  8
_________1
 62
     7
 10
82.855768999999995
 20
175.12299899999999
 30
0.0
 40
5.7124189999999997
 50
95.434118999999995
 51
100.920512
  0
ARC
  5
21F
  8
_________1
 62
     7
 10
83.219777000000008
 20
171.62644299999999
 30
0.0
 40
9.227786
 50
89.609859999999998
 51
95.628114999999994
  0
LINE
  5
220
  8
_________1
 62
     7
 10
83.782499999999985
 20
103.855
 30
0.0
 11
82.782000000000011
 21
103.855
 31
0.0
  0
LINE
  5
221
  8
_________1
 62
     7
 10
13.016299999999999
 20
166.85400000000001
 30
0.0
 11
13.016299999999999
 21
146.85400000000001
 31
0.0
  0
LINE
  5
222
  8
_________1
 62
     7
 10
12.5426
 20
165.0859999999999
 30
0.0
 11
13.016299999999999
 21
166.85400000000001
 31
0.0
  0
LINE
  5
223
  8
_________1
 62
     7
 10
13.016299999999999
 20
166.85400000000001
 30
0.0
 11
13.490399999999999
 21
165.0859999999999
 31
0.0
  0
LINE
  5
224
  8
_________1
 62
     7
 10
13.490399999999999
 20
165.0859999999999
 30
0.0
 11
12.5426
 21
165.0859999999999
 31
0.0
  0
LINE
  5
225
  8
_________1
 62
     7
 10
12.5426
 20
148.62200000000001
 30
0.0
 11
13.016299999999999
 21
146.85400000000001
 31
0.0
  0
LINE
  5
226
  8
_________1
 62
     7
 10
13.016299999999999
 20
146.85400000000001
 30
0.0
 11
13.490399999999999
 21
148.62200000000001
 31
0.0
  0
LINE
  5
227
  8
_________1
 62
     7
 10
13.490399999999999
 20
148.62200000000001
 30
0.0
 11
12.5426
 21
148.62200000000001
 31
0.0
  0
LINE
  5
228
  8
_________1
 62
     7
 10
7.7577199999999991
 20
166.85400000000001
 30
0.0
 11
7.7577199999999991
 21
151.60400000000001
 31
0.0
  0
LINE
  5
229
  8
_________1
 62
     7
 10
7.2840100000000003
 20
165.0859999999999
 30
0.0
 11
7.7577199999999991
 21
166.85400000000001
 31
0.0
  0
LINE
  5
22A
  8
_________1
 62
     7
 10
7.7577199999999991
 20
166.85400000000001
 30
0.0
 11
8.2317600000000013
 21
165.0859999999999
 31
0.0
  0
LINE
  5
22B
  8
_________1
 62
     7
 10
8.2317600000000013
 20
165.0859999999999
 30
0.0
 11
7.2840100000000003
 21
165.0859999999999
 31
0.0
  0
LINE
  5
22C
  8
_________1
 62
     7
 10
7.2840100000000003
 20
162.821
 30
0.0
 11
7.7577199999999991
 21
161.053
 31
0.0
  0
LINE
  5
22D
  8
_________1
 62
     7
 10
7.7577199999999991
 20
161.053
 30
0.0
 11
8.2317600000000013
 21
162.821
 31
0.0
  0
LINE
  5
22E
  8
_________1
 62
     7
 10
8.2317600000000013
 20
162.821
 30
0.0
 11
7.2840100000000003
 21
162.821
 31
0.0
  0
LINE
  5
22F
  8
_________1
 62
     7
 10
-30.761800000000001
 20
191.06
 30
0.0
 11
-30.761800000000001
 21
168.53
 31
0.0
  0
LINE
  5
230
  8
_________1
 62
     7
 10
2.4381099999999991
 20
191.06
 30
0.0
 11
2.4381099999999991
 21
168.53
 31
0.0
  0
LINE
  5
231
  8
_________1
 62
     7
 10
-9.9622499999999992
 20
191.06
 30
0.0
 11
-9.9622499999999992
 21
168.53
 31
0.0
  0
LINE
  5
232
  8
_________1
 62
     7
 10
-16.7622
 20
191.06
 30
0.0
 11
-16.7622
 21
168.53
 31
0.0
  0
LINE
  5
233
  8
_________1
 62
     7
 10
34.2727
 20
185.45400000000001
 30
0.0
 11
34.2727
 21
166.85400000000001
 31
0.0
  0
LINE
  5
234
  8
_________1
 62
     7
 10
33.798999999999999
 20
183.68599999999989
 30
0.0
 11
34.2727
 21
185.45400000000001
 31
0.0
  0
LINE
  5
235
  8
_________1
 62
     7
 10
34.2727
 20
185.45400000000001
 30
0.0
 11
34.7468
 21
183.68599999999989
 31
0.0
  0
LINE
  5
236
  8
_________1
 62
     7
 10
34.7468
 20
183.68599999999989
 30
0.0
 11
33.798999999999999
 21
183.68599999999989
 31
0.0
  0
LINE
  5
237
  8
_________1
 62
     7
 10
33.798999999999999
 20
168.62200000000001
 30
0.0
 11
34.2727
 21
166.85400000000001
 31
0.0
  0
LINE
  5
238
  8
_________1
 62
     7
 10
34.2727
 20
166.85400000000001
 30
0.0
 11
34.7468
 21
168.62200000000001
 31
0.0
  0
LINE
  5
239
  8
_________1
 62
     7
 10
34.7468
 20
168.62200000000001
 30
0.0
 11
33.798999999999999
 21
168.62200000000001
 31
0.0
  0
LINE
  5
23A
  8
_________1
 62
     7
 10
44.849200000000003
 20
177.80199999999999
 30
0.0
 11
44.849200000000003
 21
166.85400000000001
 31
0.0
  0
LINE
  5
23B
  8
_________1
 62
     7
 10
44.375500000000002
 20
176.03399999999999
 30
0.0
 11
44.849200000000003
 21
177.80199999999999
 31
0.0
  0
LINE
  5
23C
  8
_________1
 62
     7
 10
44.849200000000003
 20
177.80199999999999
 30
0.0
 11
45.323300000000003
 21
176.03399999999999
 31
0.0
  0
LINE
  5
23D
  8
_________1
 62
     7
 10
45.323300000000003
 20
176.03399999999999
 30
0.0
 11
44.375500000000002
 21
176.03399999999999
 31
0.0
  0
LINE
  5
23E
  8
_________1
 62
     7
 10
44.375500000000002
 20
168.62200000000001
 30
0.0
 11
44.849200000000003
 21
166.85400000000001
 31
0.0
  0
LINE
  5
23F
  8
_________1
 62
     7
 10
44.849200000000003
 20
166.85400000000001
 30
0.0
 11
45.323300000000003
 21
168.62200000000001
 31
0.0
  0
LINE
  5
240
  8
_________1
 62
     7
 10
45.323300000000003
 20
168.62200000000001
 30
0.0
 11
44.375500000000002
 21
168.62200000000001
 31
0.0
  0
LINE
  5
241
  8
_________1
 62
     7
 10
39.561
 20
178.85400000000001
 30
0.0
 11
39.561
 21
166.85400000000001
 31
0.0
  0
LINE
  5
242
  8
_________1
 62
     7
 10
55.739199999999997
 20
177.80199999999999
 30
0.0
 11
44.1492
 21
177.80199999999999
 31
0.0
  0
LINE
  5
243
  8
_________1
 62
     7
 10
52.863900000000001
 20
178.85400000000001
 30
0.0
 11
38.537399999999998
 21
178.85400000000001
 31
0.0
  0
LINE
  5
244
  8
_________1
 62
     7
 10
53.067599999999999
 20
185.45400000000001
 30
0.0
 11
33.283999999999999
 21
185.45400000000001
 31
0.0
  0
LINE
  5
245
  8
_________1
 62
     7
 10
75.7316
 20
166.85400000000001
 30
0.0
 11
33.283999999999999
 21
166.85400000000001
 31
0.0
  0
LINE
  5
246
  8
_________1
 62
     7
 10
49.509799999999998
 20
169.06899999999999
 30
0.0
 11
53.786499999999997
 21
177.83799999999999
 31
0.0
  0
ARC
  5
247
  8
_________1
 62
     7
 10
54.281804999999999
 20
178.857371
 30
0.0
 40
10.288989000000001
 50
270.002771
 51
286.51441599999998
  0
ARC
  5
248
  8
_________1
 62
     7
 10
54.288361999999999
 20
178.86402200000001
 30
0.0
 40
10.297013
 50
227.387936
 51
243.99096800000001
  0
LINE
  5
249
  8
_________1
  6
AIGENLINE001
 62
     7
 10
56.261200000000002
 20
182.91200000000001
 30
0.0
 11
53.92369999999999
 21
178.119
 31
0.0
  0
ARC
  5
24A
  8
_________1
 62
     7
 10
54.292616000000002
 20
178.89599699999999
 30
0.0
 40
10.32762
 50
244.04754299999999
 51
269.94278600000001
  0
LINE
  5
24B
  8
_________1
 62
     7
 10
59.695599999999999
 20
180.36500000000001
 30
0.0
 11
77.611599999999996
 21
171.53399999999999
 31
0.0
  0
LINE
  5
24C
  8
_________1
 62
     7
 10
58.2149
 20
179.16099999999989
 30
0.0
 11
58.623100000000001
 21
179.99799999999999
 31
0.0
  0
ARC
  5
24D
  8
_________1
 62
     7
 10
59.341973000000003
 20
179.64736199999999
 30
0.0
 40
0.7998690000000001
 50
63.760523999999997
 51
153.76049399999999
  0
LINE
  5
24E
  8
_________1
 62
     7
 10
58.624499999999991
 20
180.001
 30
0.0
 11
58.623100000000001
 21
179.99799999999999
 31
0.0
  0
ARC
  5
24F
  8
_________1
 62
     7
 10
77.291922999999997
 20
170.800693
 30
0.0
 40
0.806478
 50
315.19520899999998
 51
359.81305600000002
  0
ARC
  5
250
  8
_________1
 62
     7
 10
77.278817000000004
 20
170.78484599999999
 30
0.0
 40
0.8196870000000001
 50
0.923827
 51
66.046780999999996
  0
LINE
  5
251
  8
_________1
 62
     7
 10
79.803399999999996
 20
176.68700000000001
 30
0.0
 11
79.128500000000003
 21
176.946
 31
0.0
  0
LINE
  5
252
  8
_________1
 62
     7
 10
75.584800000000001
 20
178.30600000000001
 30
0.0
 11
57.6509
 21
185.18899999999999
 31
0.0
  0
LINE
  5
253
  8
_________1
 62
     7
 10
52.10329999999999
 20
182.142
 30
0.0
 11
52.622799999999998
 21
183.208
 31
0.0
  0
ARC
  5
254
  8
_________1
 62
     7
 10
56.288502999999999
 20
181.27536499999999
 30
0.0
 40
4.143845999999999
 50
70.804957000000002
 51
152.204374
  0
ARC
  5
255
  8
_________1
 62
     7
 10
79.970947999999993
 20
177.18011300000001
 30
0.0
 40
0.5204520000000001
 50
251.17870500000001
 51
336.80861499999997
  0
ARC
  5
256
  8
_________1
 62
     7
 10
79.925612999999998
 20
177.17070699999999
 30
0.0
 40
0.559048
 50
339.52550200000002
 51
345.52495299999998
  0
LINE
  5
257
  8
_________1
 62
     7
 10
52.10329999999999
 20
182.142
 30
0.0
 11
58.2149
 21
179.16099999999989
 31
0.0
  0
ARC
  5
258
  8
_________1
 62
     7
 10
58.032691999999997
 20
178.82200900000001
 30
0.0
 40
0.415454
 50
246.07213200000001
 51
331.91199899999998
  0
ARC
  5
259
  8
_________1
 62
     7
 10
58.036386
 20
178.80211399999999
 30
0.0
 40
0.4031380000000001
 50
334.1599589999999
 51
359.94948199999999
  0
ARC
  5
25A
  8
_________1
 62
     7
 10
58.030156999999988
 20
178.796076
 30
0.0
 40
0.409406
 50
0.7953010000000002
 51
63.175984999999997
  0
ARC
  5
25B
  8
_________1
 62
     7
 10
51.934915999999987
 20
181.7621199999999
 30
0.0
 40
0.415801
 50
66.116538000000006
 51
151.86755400000001
  0
ARC
  5
25C
  8
_________1
 62
     7
 10
51.927740999999997
 20
181.78276399999999
 30
0.0
 40
0.400015
 50
153.99100300000001
 51
243.97146699999999
  0
LINE
  5
25D
  8
_________1
 62
     7
 10
51.752200000000002
 20
181.423
 30
0.0
 11
57.86419999999999
 21
178.44200000000001
 31
0.0
  0
LINE
  5
25E
  8
_________1
 62
     7
 10
52.125
 20
179.90600000000001
 30
0.0
 11
52.651000000000003
 21
180.98500000000001
 31
0.0
  0
LINE
  5
25F
  8
_________1
 62
     7
 10
56.43930000000001
 20
177.80199999999999
 30
0.0
 11
56.965400000000002
 21
178.88099999999989
 31
0.0
  0
LINE
  5
260
  8
_________1
 62
     7
 10
52.125
 20
179.90600000000001
 30
0.0
 11
56.43930000000001
 21
177.80199999999999
 31
0.0
  0
LINE
  5
261
  8
_________1
 62
     7
 10
77.282600000000002
 20
168.822
 30
0.0
 11
77.282600000000002
 21
167.85400000000001
 31
0.0
  0
ARC
  5
262
  8
_________1
 62
     7
 10
79.306081000000006
 20
168.81268299999999
 30
0.0
 40
2.0235110000000001
 50
135.28017299999999
 51
179.72805299999999
  0
LINE
  5
263
  8
_________1
 62
     7
 10
89.282300000000006
 20
168.822
 30
0.0
 11
89.282300000000006
 21
167.85400000000001
 31
0.0
  0
ARC
  5
264
  8
_________1
 62
     7
 10
87.255624999999995
 20
168.81072
 30
0.0
 40
2.0266889999999989
 50
0.327017
 51
46.831434999999992
  0
ARC
  5
265
  8
_________1
 62
     7
 10
94.188014999999993
 20
176.200489
 30
0.0
 40
8.1056910000000002
 50
180.3273199999999
 51
226.86475799999999
  0
LINE
  5
266
  8
_________1
 62
     7
 10
86.082499999999996
 20
177.02699999999999
 30
0.0
 11
86.082499999999996
 21
176.154
 31
0.0
  0
ARC
  5
267
  8
_________1
 62
     7
 10
89.244038999999987
 20
166.81586299999989
 30
0.0
 40
1.039062999999999
 50
2.1084629999999991
 51
87.871786999999998
  0
ARC
  5
268
  8
_________1
 62
     7
 10
77.320897000000002
 20
166.81580099999999
 30
0.0
 40
1.0391269999999999
 50
92.131505000000004
 51
177.888205
  0
LINE
  5
269
  8
_________1
 62
     7
 10
77.282200000000003
 20
167.85400000000001
 30
0.0
 11
77.518900000000002
 21
167.85400000000001
 31
0.0
  0
LINE
  5
26A
  8
_________1
 62
     7
 10
89.046300000000002
 20
167.85400000000001
 30
0.0
 11
89.282300000000006
 21
167.85400000000001
 31
0.0
  0
ARC
  5
26B
  8
_________1
 62
     7
 10
83.250793000000002
 20
180.95757900000001
 30
0.0
 40
2.331779
 50
349.89426900000001
 51
359.91863499999999
  0
ARC
  5
26C
  8
_________1
 62
     7
 10
83.282608999999994
 20
180.95426699999999
 30
0.0
 40
2.2999610000000001
 50
0.00001
 51
89.999980000000008
  0
ARC
  5
26D
  8
_________1
 62
     7
 10
83.282436999999987
 20
180.954095
 30
0.0
 40
2.3001330000000002
 50
89.995709000000005
 51
179.995679
  0
ARC
  5
26E
  8
_________1
 62
     7
 10
83.261279000000016
 20
180.95287999999999
 30
0.0
 40
2.2789749999999991
 50
179.965091
 51
189.51466500000001
  0
LINE
  5
26F
  8
_________1
 62
     7
 10
76.282499999999999
 20
166.85400000000001
 30
0.0
 11
90.282399999999996
 21
166.85400000000001
 31
0.0
  0
LINE
  5
270
  8
_________1
 62
     7
 10
-26.0303
 20
121.836
 30
0.0
 11
-24.2622
 21
121.36199999999999
 31
0.0
  0
LINE
  5
271
  8
_________1
 62
     7
 10
-24.2622
 20
121.36199999999999
 30
0.0
 11
-26.0303
 21
120.88800000000001
 31
0.0
  0
LINE
  5
272
  8
_________1
 62
     7
 10
-26.0303
 20
120.88800000000001
 30
0.0
 11
-26.0303
 21
121.836
 31
0.0
  0
LINE
  5
273
  8
_________1
 62
     7
 10
-21.494399999999999
 20
121.83
 30
0.0
 11
-23.262499999999999
 21
121.35599999999999
 31
0.0
  0
LINE
  5
274
  8
_________1
 62
     7
 10
-23.262499999999999
 20
121.35599999999999
 30
0.0
 11
-21.494399999999999
 21
120.88200000000001
 31
0.0
  0
LINE
  5
275
  8
_________1
 62
     7
 10
-21.494399999999999
 20
120.88200000000001
 30
0.0
 11
-21.494399999999999
 21
121.83
 31
0.0
  0
LINE
  5
276
  8
_________1
 62
     7
 10
81.514600000000002
 20
154.72900000000001
 30
0.0
 11
83.282600000000002
 21
154.255
 31
0.0
  0
LINE
  5
277
  8
_________1
 62
     7
 10
83.282600000000002
 20
154.255
 30
0.0
 11
81.514600000000002
 21
153.78100000000001
 31
0.0
  0
LINE
  5
278
  8
_________1
 62
     7
 10
81.514600000000002
 20
153.78100000000001
 30
0.0
 11
81.514600000000002
 21
154.72900000000001
 31
0.0
  0
LINE
  5
279
  8
_________1
 62
     7
 10
48.020499999999998
 20
170.14099999999999
 30
0.0
 11
49.773000000000003
 21
169.61000000000001
 31
0.0
  0
LINE
  5
27A
  8
_________1
 62
     7
 10
49.773000000000003
 20
169.61000000000001
 30
0.0
 11
48.520699999999998
 21
170.946
 31
0.0
  0
LINE
  5
27B
  8
_________1
 62
     7
 10
48.520699999999998
 20
170.946
 30
0.0
 11
48.020499999999998
 21
170.14099999999999
 31
0.0
  0
LINE
  5
27C
  8
_________1
 62
     7
 10
55.980699999999992
 20
169.25200000000001
 30
0.0
 11
54.282299999999999
 21
168.56800000000001
 31
0.0
  0
LINE
  5
27D
  8
_________1
 62
     7
 10
54.282299999999999
 20
168.56800000000001
 30
0.0
 11
56.095100000000002
 21
168.31200000000001
 31
0.0
  0
LINE
  5
27E
  8
_________1
 62
     7
 10
56.095100000000002
 20
168.31200000000001
 30
0.0
 11
55.980699999999992
 21
169.25200000000001
 31
0.0
  0
LINE
  5
27F
  8
_________1
  6
AIGENLINE001
 62
     7
 10
83.282300000000006
 20
102.968
 30
0.0
 11
83.282300000000006
 21
184.82900000000001
 31
0.0
  0
LINE
  5
280
  8
_________1
 62
     7
 10
81.382599999999996
 20
149.25399999999999
 30
0.0
 11
81.182100000000005
 21
149.453
 31
0.0
  0
LINE
  5
281
  8
_________1
 62
     7
 10
85.182599999999994
 20
149.25399999999999
 30
0.0
 11
85.382400000000004
 21
149.453
 31
0.0
  0
LINE
  5
282
  8
_________1
 62
     7
 10
85.382400000000004
 20
147.053
 30
0.0
 11
85.182599999999994
 21
146.85400000000001
 31
0.0
  0
LINE
  5
283
  8
_________1
 62
     7
 10
81.182100000000005
 20
147.053
 30
0.0
 11
81.382599999999996
 21
146.85400000000001
 31
0.0
  0
LINE
  5
284
  8
_________1
 62
     7
 10
85.382400000000004
 20
147.053
 30
0.0
 11
81.182100000000005
 21
147.053
 31
0.0
  0
LINE
  5
285
  8
_________1
 62
     7
 10
81.382599999999996
 20
149.25399999999999
 30
0.0
 11
81.382599999999996
 21
146.85400000000001
 31
0.0
  0
LINE
  5
286
  8
_________1
 62
     7
 10
85.182599999999994
 20
146.85400000000001
 30
0.0
 11
85.182599999999994
 21
149.25399999999999
 31
0.0
  0
LINE
  5
287
  8
_________1
 62
     7
 10
85.382400000000004
 20
147.053
 30
0.0
 11
85.382400000000004
 21
150.25399999999999
 31
0.0
  0
LINE
  5
288
  8
_________1
 62
     7
 10
81.182100000000005
 20
150.25399999999999
 30
0.0
 11
81.182100000000005
 21
147.053
 31
0.0
  0
LINE
  5
289
  8
_________1
 62
     7
 10
85.182599999999994
 20
146.85400000000001
 30
0.0
 11
81.382599999999996
 21
146.85400000000001
 31
0.0
  0
LINE
  5
28A
  8
_________1
 62
     7
 10
85.382400000000004
 20
149.25399999999999
 30
0.0
 11
81.182100000000005
 21
149.25399999999999
 31
0.0
  0
LINE
  5
28B
  8
_________1
 62
     7
 10
85.882599999999996
 20
150.25399999999999
 30
0.0
 11
80.682599999999994
 21
150.25399999999999
 31
0.0
  0
LINE
  5
28C
  8
_________1
 62
     7
 10
85.882599999999996
 20
156.054
 30
0.0
 11
85.682799999999986
 21
156.25399999999999
 31
0.0
  0
LINE
  5
28D
  8
_________1
 62
     7
 10
80.682599999999994
 20
156.054
 30
0.0
 11
80.882400000000004
 21
156.25399999999999
 31
0.0
  0
LINE
  5
28E
  8
_________1
 62
     7
 10
85.682799999999986
 20
156.25399999999999
 30
0.0
 11
85.682799999999986
 21
159.654
 31
0.0
  0
LINE
  5
28F
  8
_________1
 62
     7
 10
85.882599999999996
 20
150.25399999999999
 30
0.0
 11
85.882599999999996
 21
159.654
 31
0.0
  0
LINE
  5
290
  8
_________1
 62
     7
 10
80.882400000000004
 20
156.25399999999999
 30
0.0
 11
80.882400000000004
 21
159.654
 31
0.0
  0
LINE
  5
291
  8
_________1
 62
     7
 10
80.682599999999994
 20
150.25399999999999
 30
0.0
 11
80.682599999999994
 21
159.654
 31
0.0
  0
LINE
  5
292
  8
_________1
 62
     7
 10
85.882599999999996
 20
156.25399999999999
 30
0.0
 11
80.682599999999994
 21
156.25399999999999
 31
0.0
  0
LINE
  5
293
  8
_________1
 62
     7
 10
86.282300000000006
 20
159.654
 30
0.0
 11
80.282300000000006
 21
159.654
 31
0.0
  0
LINE
  5
294
  8
_________1
 62
     7
 10
86.282300000000006
 20
160.654
 30
0.0
 11
86.282300000000006
 21
159.654
 31
0.0
  0
LINE
  5
295
  8
_________1
 62
     7
 10
83.282300000000006
 20
160.654
 30
0.0
 11
83.282300000000006
 21
159.654
 31
0.0
  0
LINE
  5
296
  8
_________1
 62
     7
 10
80.282300000000006
 20
160.654
 30
0.0
 11
80.282300000000006
 21
159.654
 31
0.0
  0
LINE
  5
297
  8
_________1
 62
     7
 10
78.782300000000006
 20
160.654
 30
0.0
 11
78.782300000000006
 21
160.85400000000001
 31
0.0
  0
LINE
  5
298
  8
_________1
 62
     7
 10
87.782999999999987
 20
160.654
 30
0.0
 11
87.782999999999987
 21
160.85400000000001
 31
0.0
  0
LINE
  5
299
  8
_________1
 62
     7
 10
87.782999999999987
 20
160.654
 30
0.0
 11
78.782300000000006
 21
160.654
 31
0.0
  0
LINE
  5
29A
  8
_________1
 62
     7
 10
85.682799999999986
 20
161.054
 30
0.0
 11
85.682799999999986
 21
166.85400000000001
 31
0.0
  0
LINE
  5
29B
  8
_________1
 62
     7
 10
85.882599999999996
 20
161.054
 30
0.0
 11
85.882599999999996
 21
166.85400000000001
 31
0.0
  0
LINE
  5
29C
  8
_________1
 62
     7
 10
80.882400000000004
 20
161.054
 30
0.0
 11
80.882400000000004
 21
166.85400000000001
 31
0.0
  0
LINE
  5
29D
  8
_________1
 62
     7
 10
80.682599999999994
 20
161.054
 30
0.0
 11
80.682599999999994
 21
166.85400000000001
 31
0.0
  0
LINE
  5
29E
  8
_________1
 62
     7
 10
87.482600000000005
 20
160.85400000000001
 30
0.0
 11
87.482600000000005
 21
161.054
 31
0.0
  0
LINE
  5
29F
  8
_________1
 62
     7
 10
79.082700000000003
 20
160.85400000000001
 30
0.0
 11
79.082700000000003
 21
161.054
 31
0.0
  0
LINE
  5
2A0
  8
_________1
 62
     7
 10
87.782999999999987
 20
160.85400000000001
 30
0.0
 11
78.782300000000006
 21
160.85400000000001
 31
0.0
  0
LINE
  5
2A1
  8
_________1
 62
     7
 10
87.482600000000005
 20
161.054
 30
0.0
 11
79.082700000000003
 21
161.054
 31
0.0
  0
LINE
  5
2A2
  8
_________1
 62
     7
 10
83.782499999999985
 20
103.855
 30
0.0
 11
83.782499999999985
 21
146.85400000000001
 31
0.0
  0
LINE
  5
2A3
  8
_________1
 62
     7
 10
82.782000000000011
 20
103.855
 30
0.0
 11
82.782000000000011
 21
146.85400000000001
 31
0.0
  0
LINE
  5
2A4
  8
_________1
 62
     7
 10
78.882199999999997
 20
160.85400000000001
 30
0.0
 11
78.882199999999997
 21
161.054
 31
0.0
  0
LINE
  5
2A5
  8
_________1
 62
     7
 10
78.882199999999997
 20
160.654
 30
0.0
 11
83.282300000000006
 21
160.654
 31
0.0
  0
LINE
  5
2A6
  8
_________1
 62
     7
 10
83.282300000000006
 20
160.654
 30
0.0
 11
86.482100000000003
 21
160.654
 31
0.0
  0
LINE
  5
2A7
  8
_________1
 62
     7
 10
78.882199999999997
 20
161.054
 30
0.0
 11
83.282300000000006
 21
161.054
 31
0.0
  0
LINE
  5
2A8
  8
_________1
 62
     7
 10
83.282300000000006
 20
161.054
 30
0.0
 11
86.482100000000003
 21
161.054
 31
0.0
  0
LINE
  5
2A9
  8
_________1
 62
     7
 10
39.087299999999999
 20
177.08600000000001
 30
0.0
 11
39.561
 21
178.85400000000001
 31
0.0
  0
LINE
  5
2AA
  8
_________1
 62
     7
 10
39.561
 20
178.85400000000001
 30
0.0
 11
40.034999999999989
 21
177.08600000000001
 31
0.0
  0
LINE
  5
2AB
  8
_________1
 62
     7
 10
40.034999999999989
 20
177.08600000000001
 30
0.0
 11
39.087299999999999
 21
177.08600000000001
 31
0.0
  0
LINE
  5
2AC
  8
_________1
 62
     7
 10
39.087299999999999
 20
168.62200000000001
 30
0.0
 11
39.561
 21
166.85400000000001
 31
0.0
  0
LINE
  5
2AD
  8
_________1
 62
     7
 10
39.561
 20
166.85400000000001
 30
0.0
 11
40.034999999999989
 21
168.62200000000001
 31
0.0
  0
LINE
  5
2AE
  8
_________1
 62
     7
 10
40.034999999999989
 20
168.62200000000001
 30
0.0
 11
39.087299999999999
 21
168.62200000000001
 31
0.0
  0
LINE
  5
2AF
  8
_________1
 62
     7
 10
56.051000000000002
 20
154.72399999999999
 30
0.0
 11
54.283000000000001
 21
154.25
 31
0.0
  0
LINE
  5
2B0
  8
_________1
 62
     7
 10
54.283000000000001
 20
154.25
 30
0.0
 11
56.051000000000002
 21
153.77600000000001
 31
0.0
  0
LINE
  5
2B1
  8
_________1
 62
     7
 10
56.051000000000002
 20
153.77600000000001
 30
0.0
 11
56.051000000000002
 21
154.72399999999999
 31
0.0
  0
LINE
  5
2B2
  8
_________1
 62
     7
 10
54.283000000000001
 20
154.255
 30
0.0
 11
83.282600000000002
 21
154.255
 31
0.0
  0
INSERT
  5
2B3
  8
_________1
 62
     7
  2
AIGNBL02010002
 10
0.0
 20
0.0
 30
0.0
  0
LINE
  5
2B4
  8
_________1
 62
     7
 10
-46.762300000000003
 20
169.85400000000001
 30
0.0
 11
-43.762300000000003
 21
169.85400000000001
 31
0.0
  0
ARC
  5
2B5
  8
_________1
 62
     7
 10
-46.746996000000003
 20
170.26938100000001
 30
0.0
 40
0.4159080000000001
 50
182.10868600000001
 51
267.891344
  0
ARC
  5
2B6
  8
_________1
 62
     7
 10
-46.747334000000002
 20
170.238756
 30
0.0
 40
0.41557
 50
92.063668999999976
 51
177.88697199999999
  0
LINE
  5
2B7
  8
_________1
 62
     7
 10
-45.462800000000001
 20
174.95400000000001
 30
0.0
 11
-45.462800000000001
 21
174.709
 31
0.0
  0
LINE
  5
2B8
  8
_________1
 62
     7
 10
-45.596499999999999
 20
174.209
 30
0.0
 11
-46.494300000000003
 21
172.654
 31
0.0
  0
ARC
  5
2B9
  8
_________1
 62
     7
 10
-46.472012999999997
 20
174.711353
 30
0.0
 40
1.0092139999999989
 50
330.174915
 51
359.883622
  0
LINE
  5
2BA
  8
_________1
 62
     7
 10
-46.762300000000003
 20
171.642
 30
0.0
 11
-46.762300000000003
 21
170.654
 31
0.0
  0
ARC
  5
2BB
  8
_________1
 62
     7
 10
-44.751967999999991
 20
171.651038
 30
0.0
 40
2.0103330000000001
 50
150.07425499999999
 51
179.920424
  0
LINE
  5
2BC
  8
_________1
 62
     7
 10
-46.762300000000003
 20
170.654
 30
0.0
 11
-43.762300000000003
 21
170.654
 31
0.0
  0
LINE
  5
2BD
  8
_________1
 62
     7
 10
-45.462800000000001
 20
174.95400000000001
 30
0.0
 11
-45.623999999999988
 21
176.03200000000001
 31
0.0
  0
LINE
  5
2BE
  8
_________1
 62
     7
 10
-47.1509
 20
177.054
 30
0.0
 11
-46.81049999999999
 21
177.054
 31
0.0
  0
ARC
  5
2BF
  8
_________1
 62
     7
 10
-46.844670000000001
 20
175.81450599999999
 30
0.0
 40
1.2398420000000001
 50
10.097692
 51
88.422165000000007
  0
LINE
  5
2C0
  8
_________1
 62
     7
 10
-45.612299999999998
 20
175.95400000000001
 30
0.0
 11
-43.762300000000003
 21
175.95400000000001
 31
0.0
  0
LINE
  5
2C1
  8
_________1
 62
     7
 10
-49.608699999999992
 20
176.67400000000001
 30
0.0
 11
-47.341799999999999
 21
177.03899999999999
 31
0.0
  0
ARC
  5
2C2
  8
_________1
 62
     7
 10
-47.151410999999989
 20
175.85108199999999
 30
0.0
 40
1.2027959999999991
 50
89.976039999999998
 51
99.106009999999984
  0
ARC
  5
2C3
  8
_________1
 62
     7
 10
-49.811903000000001
 20
178.3238739999999
 30
0.0
 40
1.6621209999999991
 50
191.239577
 51
277.02384899999998
  0
ARC
  5
2C4
  8
_________1
 62
     7
 10
-49.904949000000002
 20
178.252847
 30
0.0
 40
1.5578689999999991
 50
179.95813799999999
 51
189.344077
  0
LINE
  5
2C5
  8
_________1
 62
     7
 10
-47.1509
 20
179.45400000000001
 30
0.0
 11
-46.8367
 21
179.45400000000001
 31
0.0
  0
LINE
  5
2C6
  8
_________1
 62
     7
 10
-49.608699999999992
 20
179.834
 30
0.0
 11
-47.341799999999999
 21
179.46899999999999
 31
0.0
  0
ARC
  5
2C7
  8
_________1
 62
     7
 10
-47.152358999999997
 20
180.64478
 30
0.0
 40
1.1908620000000001
 50
260.84814299999999
 51
270.06980800000002
  0
ARC
  5
2C8
  8
_________1
 62
     7
 10
-46.835872999999999
 20
180.64909800000001
 30
0.0
 40
1.1951789999999991
 50
269.959721
 51
293.32401299999998
  0
ARC
  5
2C9
  8
_________1
 62
     7
 10
-49.862560000000002
 20
178.25363999999999
 30
0.0
 40
1.600257
 50
89.987665000000007
 51
179.98763500000001
  0
ARC
  5
2CA
  8
_________1
 62
     7
 10
-49.861290999999987
 20
178.27373600000001
 30
0.0
 40
1.5801609999999999
 50
80.800062999999994
 51
90.033512000000016
  0
LINE
  5
2CB
  8
_________1
 62
     7
 10
-46.36269999999999
 20
179.554
 30
0.0
 11
-44.6952
 21
179.554
 31
0.0
  0
LINE
  5
2CC
  8
_________1
 62
     7
 10
-45.962299999999999
 20
180.554
 30
0.0
 11
-43.762300000000003
 21
180.554
 31
0.0
  0
LINE
  5
2CD
  8
_________1
 62
     7
 10
-46.36269999999999
 20
180.154
 30
0.0
 11
-46.36269999999999
 21
179.554
 31
0.0
  0
ARC
  5
2CE
  8
_________1
 62
     7
 10
-45.947377999999993
 20
180.138644
 30
0.0
 40
0.41557
 50
92.063668999999976
 51
177.88697199999999
  0
LINE
  5
2CF
  8
_________1
 62
     7
 10
-40.762300000000003
 20
169.85400000000001
 30
0.0
 11
-43.762300000000003
 21
169.85400000000001
 31
0.0
  0
ARC
  5
2D0
  8
_________1
 62
     7
 10
-40.7776
 20
170.23911799999999
 30
0.0
 40
0.41522
 50
2.0647029999999988
 51
87.885914999999997
  0
ARC
  5
2D1
  8
_________1
 62
     7
 10
-40.778264
 20
170.26934299999999
 30
0.0
 40
0.415894
 50
272.20212500000002
 51
357.89658500000002
  0
LINE
  5
2D2
  8
_________1
 62
     7
 10
-42.062499999999993
 20
174.95400000000001
 30
0.0
 11
-42.062499999999993
 21
174.709
 31
0.0
  0
LINE
  5
2D3
  8
_________1
 62
     7
 10
-41.928100000000001
 20
174.209
 30
0.0
 11
-41.03029999999999
 21
172.654
 31
0.0
  0
ARC
  5
2D4
  8
_________1
 62
     7
 10
-41.065027999999998
 20
174.709396
 30
0.0
 40
0.9974420000000001
 50
180.00534400000001
 51
210.083516
  0
LINE
  5
2D5
  8
_________1
 62
     7
 10
-40.762300000000003
 20
171.642
 30
0.0
 11
-40.762300000000003
 21
170.654
 31
0.0
  0
ARC
  5
2D6
  8
_________1
 62
     7
 10
-42.773713000000001
 20
171.65074300000001
 30
0.0
 40
2.0114320000000001
 50
0.087901
 51
29.917380999999999
  0
LINE
  5
2D7
  8
_________1
 62
     7
 10
-40.762300000000003
 20
170.654
 30
0.0
 11
-43.762300000000003
 21
170.654
 31
0.0
  0
LINE
  5
2D8
  8
_________1
 62
     7
 10
-42.062499999999993
 20
174.95400000000001
 30
0.0
 11
-41.900500000000001
 21
176.03200000000001
 31
0.0
  0
LINE
  5
2D9
  8
_________1
 62
     7
 10
-40.373699999999999
 20
177.054
 30
0.0
 11
-40.714100000000002
 21
177.054
 31
0.0
  0
ARC
  5
2DA
  8
_________1
 62
     7
 10
-40.680548999999992
 20
175.815245
 30
0.0
 40
1.2390859999999999
 50
91.549334000000016
 51
169.93077
  0
LINE
  5
2DB
  8
_________1
 62
     7
 10
-41.912300000000002
 20
175.95400000000001
 30
0.0
 11
-43.762300000000003
 21
175.95400000000001
 31
0.0
  0
LINE
  5
2DC
  8
_________1
 62
     7
 10
-37.916600000000003
 20
176.67400000000001
 30
0.0
 11
-40.183500000000002
 21
177.03899999999999
 31
0.0
  0
ARC
  5
2DD
  8
_________1
 62
     7
 10
-40.37321
 20
175.85923299999999
 30
0.0
 40
1.194645
 50
80.862898000000015
 51
90.022244999999998
  0
ARC
  5
2DE
  8
_________1
 62
     7
 10
-37.724114999999998
 20
178.31555499999999
 30
0.0
 40
1.6628019999999999
 50
272.12819999999999
 51
357.87797799999998
  0
ARC
  5
2DF
  8
_________1
 62
     7
 10
-37.663291000000001
 20
178.24263400000001
 30
0.0
 40
1.5887349999999989
 50
260.82499200000001
 51
270.03335700000002
  0
LINE
  5
2E0
  8
_________1
  6
AIGENLINE001
 62
     7
 10
-33.9589
 20
178.25399999999999
 30
0.0
 11
-53.538200000000003
 21
178.25399999999999
 31
0.0
  0
LINE
  5
2E1
  8
_________1
 62
     7
 10
-40.373699999999999
 20
179.45400000000001
 30
0.0
 11
-40.688599999999987
 21
179.45400000000001
 31
0.0
  0
LINE
  5
2E2
  8
_________1
 62
     7
 10
-37.916600000000003
 20
179.834
 30
0.0
 11
-40.183500000000002
 21
179.46899999999999
 31
0.0
  0
ARC
  5
2E3
  8
_________1
 62
     7
 10
-40.375739000000003
 20
180.680297
 30
0.0
 40
1.22638
 50
270.09650299999998
 51
279.01835299999999
  0
ARC
  5
2E4
  8
_________1
 62
     7
 10
-40.686223999999989
 20
180.66450399999999
 30
0.0
 40
1.2105879999999991
 50
246.82675
 51
269.88955600000003
  0
ARC
  5
2E5
  8
_________1
 62
     7
 10
-37.713391000000001
 20
178.183044
 30
0.0
 40
1.662990999999999
 50
11.264471
 51
97.019358000000011
  0
ARC
  5
2E6
  8
_________1
 62
     7
 10
-37.728231999999998
 20
178.250631
 30
0.0
 40
1.665781999999999
 50
0.115351
 51
8.8841610000000006
  0
LINE
  5
2E7
  8
_________1
 62
     7
 10
-41.162599999999991
 20
179.554
 30
0.0
 11
-42.829999999999998
 21
179.554
 31
0.0
  0
LINE
  5
2E8
  8
_________1
 62
     7
 10
-41.562199999999997
 20
180.554
 30
0.0
 11
-43.762300000000003
 21
180.554
 31
0.0
  0
LINE
  5
2E9
  8
_________1
 62
     7
 10
-41.162599999999991
 20
180.154
 30
0.0
 11
-41.162599999999991
 21
179.554
 31
0.0
  0
ARC
  5
2EA
  8
_________1
 62
     7
 10
-41.577556000000001
 20
180.13900699999999
 30
0.0
 40
0.41522
 50
2.0647029999999988
 51
87.885914999999997
  0
LINE
  5
2EB
  8
_________1
  6
AIGENLINE001
 62
     7
 10
-43.762300000000003
 20
182.74100000000001
 30
0.0
 11
-43.762300000000003
 21
145.334
 31
0.0
  0
ARC
  5
2EC
  8
_________1
 62
     7
 10
-43.701109000000002
 20
178.192803
 30
0.0
 40
1.6622209999999991
 50
92.109369000000001
 51
177.890601
  0
ARC
  5
2ED
  8
_________1
 62
     7
 10
-43.823483000000003
 20
178.192792
 30
0.0
 40
1.662231999999999
 50
2.109726999999999
 51
87.890263000000004
  0
ARC
  5
2EE
  8
_________1
 62
     7
 10
-43.824039999999997
 20
178.31555499999999
 30
0.0
 40
1.6628019999999999
 50
272.12819999999999
 51
357.87797799999998
  0
ARC
  5
2EF
  8
_________1
 62
     7
 10
-43.701101999999999
 20
178.31499500000001
 30
0.0
 40
1.6622220000000001
 50
182.103477
 51
267.89038399999998
  0
LINE
  5
2F0
  8
_________1
 62
     7
 10
-45.662599999999991
 20
149.25299999999999
 30
0.0
 11
-45.862400000000001
 21
149.453
 31
0.0
  0
LINE
  5
2F1
  8
_________1
 62
     7
 10
-41.86269999999999
 20
149.25399999999999
 30
0.0
 11
-41.66279999999999
 21
149.453
 31
0.0
  0
LINE
  5
2F2
  8
_________1
 62
     7
 10
-41.66279999999999
 20
147.053
 30
0.0
 11
-41.86269999999999
 21
146.85400000000001
 31
0.0
  0
LINE
  5
2F3
  8
_________1
 62
     7
 10
-45.862400000000001
 20
147.053
 30
0.0
 11
-45.662599999999991
 21
146.85400000000001
 31
0.0
  0
LINE
  5
2F4
  8
_________1
 62
     7
 10
-41.66279999999999
 20
147.053
 30
0.0
 11
-45.862400000000001
 21
147.053
 31
0.0
  0
LINE
  5
2F5
  8
_________1
 62
     7
 10
-45.662599999999991
 20
149.25299999999999
 30
0.0
 11
-45.662599999999991
 21
146.85400000000001
 31
0.0
  0
LINE
  5
2F6
  8
_________1
 62
     7
 10
-41.86269999999999
 20
146.85400000000001
 30
0.0
 11
-41.86269999999999
 21
149.25399999999999
 31
0.0
  0
LINE
  5
2F7
  8
_________1
 62
     7
 10
-41.66279999999999
 20
147.053
 30
0.0
 11
-41.66279999999999
 21
150.25299999999999
 31
0.0
  0
LINE
  5
2F8
  8
_________1
 62
     7
 10
-45.862400000000001
 20
150.25299999999999
 30
0.0
 11
-45.862400000000001
 21
147.053
 31
0.0
  0
LINE
  5
2F9
  8
_________1
 62
     7
 10
-41.86269999999999
 20
146.85400000000001
 30
0.0
 11
-45.662599999999991
 21
146.85400000000001
 31
0.0
  0
LINE
  5
2FA
  8
_________1
 62
     7
 10
-41.66279999999999
 20
149.25399999999999
 30
0.0
 11
-45.862400000000001
 21
149.25399999999999
 31
0.0
  0
LINE
  5
2FB
  8
_________1
 62
     7
 10
-41.162599999999991
 20
150.25299999999999
 30
0.0
 11
-46.36269999999999
 21
150.25299999999999
 31
0.0
  0
LINE
  5
2FC
  8
_________1
 62
     7
 10
-41.162599999999991
 20
156.054
 30
0.0
 11
-41.362399999999987
 21
156.25399999999999
 31
0.0
  0
LINE
  5
2FD
  8
_________1
 62
     7
 10
-46.36269999999999
 20
156.054
 30
0.0
 11
-46.16279999999999
 21
156.25399999999999
 31
0.0
  0
LINE
  5
2FE
  8
_________1
 62
     7
 10
-41.362399999999987
 20
156.25399999999999
 30
0.0
 11
-41.362399999999987
 21
159.65299999999999
 31
0.0
  0
LINE
  5
2FF
  8
_________1
 62
     7
 10
-41.162599999999991
 20
153.85400000000001
 30
0.0
 11
-41.162599999999991
 21
159.65299999999999
 31
0.0
  0
LINE
  5
300
  8
_________1
 62
     7
 10
-41.162599999999991
 20
150.25299999999999
 30
0.0
 11
-41.162599999999991
 21
150.85400000000001
 31
0.0
  0
LINE
  5
301
  8
_________1
 62
     7
 10
-46.16279999999999
 20
156.25399999999999
 30
0.0
 11
-46.16279999999999
 21
159.65299999999999
 31
0.0
  0
LINE
  5
302
  8
_________1
 62
     7
 10
-46.36269999999999
 20
150.25299999999999
 30
0.0
 11
-46.36269999999999
 21
159.65299999999999
 31
0.0
  0
LINE
  5
303
  8
_________1
 62
     7
 10
-41.162599999999991
 20
156.25399999999999
 30
0.0
 11
-46.36269999999999
 21
156.25399999999999
 31
0.0
  0
LINE
  5
304
  8
_________1
 62
     7
 10
-40.2986
 20
159.65299999999999
 30
0.0
 11
-47.226699999999987
 21
159.65299999999999
 31
0.0
  0
LINE
  5
305
  8
_________1
 62
     7
 10
-40.2986
 20
160.654
 30
0.0
 11
-40.2986
 21
159.65299999999999
 31
0.0
  0
LINE
  5
306
  8
_________1
 62
     7
 10
-42.03009999999999
 20
160.654
 30
0.0
 11
-42.03009999999999
 21
159.65299999999999
 31
0.0
  0
LINE
  5
307
  8
_________1
 62
     7
 10
-45.494500000000002
 20
160.654
 30
0.0
 11
-45.494500000000002
 21
159.65299999999999
 31
0.0
  0
LINE
  5
308
  8
_________1
 62
     7
 10
-47.226699999999987
 20
160.654
 30
0.0
 11
-47.226699999999987
 21
159.65299999999999
 31
0.0
  0
LINE
  5
309
  8
_________1
 62
     7
 10
-48.262999999999998
 20
160.654
 30
0.0
 11
-48.262999999999998
 21
160.85400000000001
 31
0.0
  0
LINE
  5
30A
  8
_________1
 62
     7
 10
-39.262300000000003
 20
160.654
 30
0.0
 11
-39.262300000000003
 21
160.85400000000001
 31
0.0
  0
LINE
  5
30B
  8
_________1
 62
     7
 10
-39.262300000000003
 20
160.654
 30
0.0
 11
-48.262999999999998
 21
160.654
 31
0.0
  0
LINE
  5
30C
  8
_________1
 62
     7
 10
-41.362399999999987
 20
161.053
 30
0.0
 11
-41.362399999999987
 21
166.85400000000001
 31
0.0
  0
LINE
  5
30D
  8
_________1
 62
     7
 10
-41.162599999999991
 20
161.053
 30
0.0
 11
-41.162599999999991
 21
166.85400000000001
 31
0.0
  0
LINE
  5
30E
  8
_________1
 62
     7
 10
-46.16279999999999
 20
161.053
 30
0.0
 11
-46.16279999999999
 21
166.85400000000001
 31
0.0
  0
LINE
  5
30F
  8
_________1
 62
     7
 10
-46.36269999999999
 20
161.053
 30
0.0
 11
-46.36269999999999
 21
166.85400000000001
 31
0.0
  0
LINE
  5
310
  8
_________1
 62
     7
 10
-39.5627
 20
160.85400000000001
 30
0.0
 11
-39.5627
 21
161.053
 31
0.0
  0
LINE
  5
311
  8
_________1
 62
     7
 10
-47.962600000000002
 20
160.85400000000001
 30
0.0
 11
-47.962600000000002
 21
161.053
 31
0.0
  0
LINE
  5
312
  8
_________1
 62
     7
 10
-39.262300000000003
 20
160.85400000000001
 30
0.0
 11
-48.262999999999998
 21
160.85400000000001
 31
0.0
  0
LINE
  5
313
  8
_________1
 62
     7
 10
-39.5627
 20
161.053
 30
0.0
 11
-47.962600000000002
 21
161.053
 31
0.0
  0
LINE
  5
314
  8
_________1
 62
     7
 10
-38.618000000000002
 20
168.035
 30
0.0
 11
-38.266599999999997
 21
167.964
 31
0.0
  0
LINE
  5
315
  8
_________1
 62
     7
 10
-37.634799999999998
 20
167.3059999999999
 30
0.0
 11
-37.5625
 21
166.85400000000001
 31
0.0
  0
ARC
  5
316
  8
_________1
 62
     7
 10
-38.443755000000003
 20
167.16126499999999
 30
0.0
 40
0.8218110000000001
 50
10.150099000000001
 51
77.554081000000011
  0
ARC
  5
317
  8
_________1
 62
     7
 10
-38.266253000000013
 20
169.63738499999999
 30
0.0
 40
1.640806999999999
 50
190.084519
 51
257.61970100000002
  0
LINE
  5
318
  8
_________1
 62
     7
 10
-40.474299999999999
 20
169.85400000000001
 30
0.0
 11
-43.762300000000003
 21
169.85400000000001
 31
0.0
  0
ARC
  5
319
  8
_________1
 62
     7
 10
-40.491359000000003
 20
169.233566
 30
0.0
 40
0.620424
 50
10.694602
 51
88.421779999999998
  0
LINE
  5
31A
  8
_________1
 62
     7
 10
-37.5625
 20
166.85400000000001
 30
0.0
 11
-43.762300000000003
 21
166.85400000000001
 31
0.0
  0
LINE
  5
31B
  8
_________1
 62
     7
 10
-48.906500000000001
 20
168.035
 30
0.0
 11
-49.258600000000001
 21
167.964
 31
0.0
  0
LINE
  5
31C
  8
_________1
 62
     7
 10
-49.890500000000003
 20
167.3059999999999
 30
0.0
 11
-49.962800000000001
 21
166.85400000000001
 31
0.0
  0
ARC
  5
31D
  8
_________1
 62
     7
 10
-49.082161999999997
 20
167.16188500000001
 30
0.0
 40
0.821067
 50
102.411235
 51
169.884545
  0
ARC
  5
31E
  8
_________1
 62
     7
 10
-49.258434999999999
 20
169.63748699999999
 30
0.0
 40
1.6409290000000001
 50
282.383174
 51
349.912645
  0
LINE
  5
31F
  8
_________1
 62
     7
 10
-47.051000000000002
 20
169.85400000000001
 30
0.0
 11
-43.762300000000003
 21
169.85400000000001
 31
0.0
  0
ARC
  5
320
  8
_________1
 62
     7
 10
-47.033793000000003
 20
169.23342600000001
 30
0.0
 40
0.620568
 50
91.588921999999997
 51
169.294657
  0
LINE
  5
321
  8
_________1
 62
     7
 10
-49.962800000000001
 20
166.85400000000001
 30
0.0
 11
-43.762300000000003
 21
166.85400000000001
 31
0.0
  0
ARC
  5
322
  8
_________1
 62
     7
 10
-41.895988000000003
 20
180.13155
 30
0.0
 40
0.482803
 50
61.030760999999998
 51
68.103977
  0
ARC
  5
323
  8
_________1
 62
     7
 10
-42.347136999999989
 20
179.095114
 30
0.0
 40
1.6130359999999999
 50
66.963967000000011
 51
71.702518000000012
  0
ARC
  5
324
  8
_________1
 62
     7
 10
-42.805036999999992
 20
177.704925
 30
0.0
 40
3.0766949999999991
 50
71.734224999999995
 51
79.338202999999993
  0
ARC
  5
325
  8
_________1
 62
     7
 10
-43.318615000000001
 20
175.231516
 30
0.0
 40
5.602619999999999
 50
78.856487000000001
 51
84.370896000000002
  0
ARC
  5
326
  8
_________1
 62
     7
 10
-43.694402999999987
 20
171.750563
 30
0.0
 40
9.1037039999999987
 50
84.16613000000001
 51
90.427261000000016
  0
ARC
  5
327
  8
_________1
 62
     7
 10
-45.599566999999993
 20
180.07306399999999
 30
0.0
 40
0.5480380000000001
 50
111.87720400000001
 51
118.662689
  0
ARC
  5
328
  8
_________1
 62
     7
 10
-45.156009999999988
 20
179.03909100000001
 30
0.0
 40
1.673033999999999
 50
108.062842
 51
112.77916399999999
  0
ARC
  5
329
  8
_________1
 62
     7
 10
-44.701318999999998
 20
177.638282
 30
0.0
 40
3.1457889999999988
 50
100.442195
 51
108.025458
  0
ARC
  5
32A
  8
_________1
 62
     7
 10
-44.189546
 20
175.12494799999999
 30
0.0
 40
5.7104540000000004
 50
95.433281000000008
 51
100.921511
  0
ARC
  5
32B
  8
_________1
 62
     7
 10
-43.825170999999997
 20
171.624526
 30
0.0
 40
9.2297030000000007
 50
89.609642000000008
 51
95.627548000000004
  0
LINE
  5
32C
  8
_________1
 62
     7
 10
-23.762
 20
103.854
 30
0.0
 11
-24.2622
 21
103.854
 31
0.0
  0
LINE
  5
32D
  8
_________1
 62
     7
 10
-24.2622
 20
103.854
 30
0.0
 11
-24.2622
 21
159.85400000000001
 31
0.0
  0
ARC
  5
32E
  8
_________1
 62
     7
 10
-23.644748
 20
182.13350399999999
 30
0.0
 40
3.322673
 50
92.022418000000016
 51
176.47742099999999
  0
ARC
  5
32F
  8
_________1
 62
     7
 10
-42.266688999999992
 20
177.88663
 30
0.0
 40
15.104379
 50
328.014612
 51
359.88800900000001
  0
LINE
  5
330
  8
_________1
 62
     7
 10
-23.762
 20
167.85400000000001
 30
0.0
 11
-29.762
 21
167.85400000000001
 31
0.0
  0
LINE
  5
331
  8
_________1
 62
     7
 10
-23.762
 20
166.85400000000001
 30
0.0
 11
-30.761800000000001
 21
166.85400000000001
 31
0.0
  0
LINE
  5
332
  8
_________1
 62
     7
 10
-29.762
 20
168.822
 30
0.0
 11
-29.762
 21
167.85400000000001
 31
0.0
  0
ARC
  5
333
  8
_________1
 62
     7
 10
-27.745774000000001
 20
168.81736100000001
 30
0.0
 40
2.0162550000000001
 50
148.02370300000001
 51
179.86979500000001
  0
ARC
  5
334
  8
_________1
 62
     7
 10
-29.723385
 20
166.815811
 30
0.0
 40
1.0391170000000001
 50
92.13095899999999
 51
177.88875100000001
  0
LINE
  5
335
  8
_________1
 62
     7
 10
-26.961099999999998
 20
182.33799999999999
 30
0.0
 11
-27.005199999999999
 21
181.35900000000001
 31
0.0
  0
LINE
  5
336
  8
_________1
 62
     7
 10
-27.0976
 20
179.29599999999999
 30
0.0
 11
-27.162299999999998
 21
177.857
 31
0.0
  0
LINE
  5
337
  8
_________1
 62
     7
 10
-20.562899999999999
 20
182.33799999999999
 30
0.0
 11
-20.518799999999999
 21
181.35900000000001
 31
0.0
  0
LINE
  5
338
  8
_________1
 62
     7
 10
-20.426400000000001
 20
179.29599999999999
 30
0.0
 11
-20.361699999999999
 21
177.857
 31
0.0
  0
ARC
  5
339
  8
_________1
 62
     7
 10
-23.879072000000001
 20
182.13370399999999
 30
0.0
 40
3.3224659999999999
 50
3.5193270000000001
 51
87.980793999999975
  0
ARC
  5
33A
  8
_________1
 62
     7
 10
-5.2651309999999993
 20
177.88438500000001
 30
0.0
 40
15.09657
 50
180.10354699999999
 51
211.99387200000001
  0
LINE
  5
33B
  8
_________1
 62
     7
 10
-23.762
 20
167.85400000000001
 30
0.0
 11
-17.762
 21
167.85400000000001
 31
0.0
  0
LINE
  5
33C
  8
_________1
 62
     7
 10
-23.762
 20
166.85400000000001
 30
0.0
 11
-16.7622
 21
166.85400000000001
 31
0.0
  0
LINE
  5
33D
  8
_________1
 62
     7
 10
-17.762
 20
168.822
 30
0.0
 11
-17.762
 21
167.85400000000001
 31
0.0
  0
ARC
  5
33E
  8
_________1
 62
     7
 10
-19.776651999999999
 20
168.81781899999999
 30
0.0
 40
2.014664999999999
 50
0.117286
 51
31.989176
  0
ARC
  5
33F
  8
_________1
 62
     7
 10
-17.800577000000001
 20
166.81586299999989
 30
0.0
 40
1.039062999999999
 50
2.1084629999999991
 51
87.871786999999998
  0
LINE
  5
340
  8
_________1
 62
     7
 10
-26.161899999999999
 20
179.93299999999999
 30
0.0
 11
-26.161899999999999
 21
178.85400000000001
 31
0.0
  0
LINE
  5
341
  8
_________1
 62
     7
 10
-21.362100000000002
 20
178.85400000000001
 30
0.0
 11
-21.362100000000002
 21
179.93299999999999
 31
0.0
  0
ARC
  5
342
  8
_________1
 62
     7
 10
-21.872582000000001
 20
179.930823
 30
0.0
 40
0.510447
 50
0.220834
 51
36.341513999999997
  0
ARC
  5
343
  8
_________1
 62
     7
 10
-22.162056
 20
179.75364999999999
 30
0.0
 40
0.8490999999999999
 50
34.395795999999997
 51
48.438943999999992
  0
ARC
  5
344
  8
_________1
 62
     7
 10
-22.501056999999999
 20
179.390186
 30
0.0
 40
1.3460199999999991
 50
47.90562700000001
 51
59.687027999999998
  0
ARC
  5
345
  8
_________1
 62
     7
 10
-22.924538999999999
 20
178.70487700000001
 30
0.0
 40
2.1514649999999991
 50
59.162596000000001
 51
68.244181000000012
  0
ARC
  5
346
  8
_________1
 62
     7
 10
-23.372305000000001
 20
177.628218
 30
0.0
 40
3.317442999999999
 50
67.953896
 51
78.685593999999995
  0
ARC
  5
347
  8
_________1
 62
     7
 10
-23.724903999999999
 20
176.08662200000001
 30
0.0
 40
4.8984480000000001
 50
78.179153999999997
 51
90.433977999999996
  0
ARC
  5
348
  8
_________1
 62
     7
 10
-23.762454000000002
 20
175.81303800000001
 30
0.0
 40
5.1718909999999996
 50
89.995039000000006
 51
103.63560200000001
  0
ARC
  5
349
  8
_________1
 62
     7
 10
-24.180035
 20
177.715867
 30
0.0
 40
3.224534999999999
 50
104.395663
 51
114.916663
  0
ARC
  5
34A
  8
_________1
 62
     7
 10
-24.715226999999999
 20
178.92030800000001
 30
0.0
 40
1.906852999999999
 50
115.57932099999999
 51
125.20374
  0
ARC
  5
34B
  8
_________1
 62
     7
 10
-25.184096
 20
179.59216000000001
 30
0.0
 40
1.0875900000000001
 50
125.42484399999999
 51
143.87724399999999
  0
ARC
  5
34C
  8
_________1
 62
     7
 10
-25.594147
 20
179.91190700000001
 30
0.0
 40
0.568113
 50
145.546133
 51
177.89332999999999
  0
ARC
  5
34D
  8
_________1
 62
     7
 10
-21.872582000000001
 20
178.85215700000001
 30
0.0
 40
0.510447
 50
0.220834
 51
36.341513999999997
  0
ARC
  5
34E
  8
_________1
 62
     7
 10
-22.162056
 20
178.67498399999999
 30
0.0
 40
0.8490999999999999
 50
34.395795999999997
 51
48.438943999999992
  0
ARC
  5
34F
  8
_________1
 62
     7
 10
-22.501056999999999
 20
178.31152
 30
0.0
 40
1.3460199999999991
 50
47.90562700000001
 51
59.687027999999998
  0
ARC
  5
350
  8
_________1
 62
     7
 10
-22.924538999999999
 20
177.62620999999999
 30
0.0
 40
2.1514649999999991
 50
59.162596000000001
 51
68.244181000000012
  0
ARC
  5
351
  8
_________1
 62
     7
 10
-23.371261000000001
 20
176.553234
 30
0.0
 40
3.3136389999999989
 50
67.946737999999996
 51
78.690846999999991
  0
ARC
  5
352
  8
_________1
 62
     7
 10
-23.724800999999999
 20
175.00849700000001
 30
0.0
 40
4.897907
 50
78.179068000000001
 51
90.435237999999998
  0
ARC
  5
353
  8
_________1
 62
     7
 10
-23.762445
 20
174.736818
 30
0.0
 40
5.1694449999999987
 50
89.995136000000002
 51
103.63884400000001
  0
ARC
  5
354
  8
_________1
 62
     7
 10
-24.177600000000002
 20
176.63082199999999
 30
0.0
 40
3.2312439999999989
 50
104.404189
 51
114.90427699999999
  0
ARC
  5
355
  8
_________1
 62
     7
 10
-24.714696
 20
177.840565
 30
0.0
 40
1.907948
 50
115.57317
 51
125.194288
  0
ARC
  5
356
  8
_________1
 62
     7
 10
-25.183558999999999
 20
178.51274100000001
 30
0.0
 40
1.088422999999999
 50
125.418227
 51
143.86024900000001
  0
ARC
  5
357
  8
_________1
 62
     7
 10
-25.594221999999998
 20
178.833181
 30
0.0
 40
0.5680410000000001
 50
145.533872
 51
177.88708600000001
  0
ARC
  5
358
  8
_________1
 62
     7
 10
-25.652640999999999
 20
178.85587799999999
 30
0.0
 40
0.509238
 50
180.197305
 51
216.39519700000011
  0
ARC
  5
359
  8
_________1
 62
     7
 10
-25.361408000000001
 20
179.03419199999999
 30
0.0
 40
0.8499709999999998
 50
214.42168899999999
 51
228.45162099999999
  0
ARC
  5
35A
  8
_________1
 62
     7
 10
-25.013107000000002
 20
179.41052300000001
 30
0.0
 40
1.362673
 50
227.98639900000001
 51
239.62607199999999
  0
ARC
  5
35B
  8
_________1
 62
     7
 10
-24.597574000000002
 20
180.08573100000001
 30
0.0
 40
2.155383
 50
239.17188999999999
 51
248.23886100000001
  0
ARC
  5
35C
  8
_________1
 62
     7
 10
-24.151463
 20
181.15753100000001
 30
0.0
 40
3.3162370000000001
 50
247.94578999999999
 51
258.68240600000001
  0
ARC
  5
35D
  8
_________1
 62
     7
 10
-23.798829999999999
 20
182.69770199999999
 30
0.0
 40
4.8958550000000001
 50
258.17307599999998
 51
270.43094600000001
  0
ARC
  5
35E
  8
_________1
 62
     7
 10
-23.761558999999998
 20
182.97126800000001
 30
0.0
 40
5.1692830000000001
 50
269.99504200000001
 51
283.64262000000002
  0
ARC
  5
35F
  8
_________1
 62
     7
 10
-23.345939000000001
 20
181.07561799999999
 30
0.0
 40
3.2293759999999989
 50
284.40951200000001
 51
294.91499299999998
  0
ARC
  5
360
  8
_________1
 62
     7
 10
-22.808077999999998
 20
179.86546100000001
 30
0.0
 40
1.9053839999999991
 50
295.57664699999998
 51
305.20880399999999
  0
ARC
  5
361
  8
_________1
 62
     7
 10
-22.341100999999998
 20
179.196168
 30
0.0
 40
1.0893040000000001
 50
305.43706300000002
 51
323.85875800000002
  0
ARC
  5
362
  8
_________1
 62
     7
 10
-21.929662
 20
178.87507500000001
 30
0.0
 40
0.56791
 50
325.538388
 51
357.88580899999999
  0
LINE
  5
363
  8
_________1
  6
AIGENLINE001
 62
     7
 10
-23.762
 20
101.854
 30
0.0
 11
-23.762
 21
187.643
 31
0.0
  0
LINE
  5
364
  8
_________1
 62
     7
 10
-23.762
 20
103.854
 30
0.0
 11
-23.262499999999999
 21
103.854
 31
0.0
  0
LINE
  5
365
  8
_________1
 62
     7
 10
-23.262499999999999
 20
103.854
 30
0.0
 11
-23.262499999999999
 21
159.85400000000001
 31
0.0
  0
LINE
  5
366
  8
_________1
 62
     7
 10
-0.373106
 20
244.24299999999999
 30
0.0
 11
-0.6879900000000001
 21
244.24299999999999
 31
0.0
  0
LINE
  5
367
  8
_________1
 62
     7
 10
2.0839500000000002
 20
244.62299999999999
 30
0.0
 11
-0.182936
 21
244.25899999999999
 31
0.0
  0
ARC
  5
368
  8
_________1
 62
     7
 10
-0.372956
 20
245.428597
 30
0.0
 40
1.1852860000000001
 50
269.992749
 51
279.22524199999998
  0
ARC
  5
369
  8
_________1
 62
     7
 10
-0.680087
 20
245.459656
 30
0.0
 40
1.21637
 50
218.34913800000001
 51
269.62775399999998
  0
ARC
  5
36A
  8
_________1
 62
     7
 10
2.2865180000000001
 20
242.97173900000001
 30
0.0
 40
1.6637740000000001
 50
11.283590999999999
 51
96.993169000000009
  0
ARC
  5
36B
  8
_________1
 62
     7
 10
2.2903299999999991
 20
243.041439
 30
0.0
 40
1.6477849999999989
 50
0.067371
 51
8.9321399999999986
  0
LINE
  5
36C
  8
_________1
 62
     7
 10
-0.373106
 20
241.84299999999999
 30
0.0
 11
-0.6879900000000001
 21
241.84299999999999
 31
0.0
  0
LINE
  5
36D
  8
_________1
 62
     7
 10
2.0839500000000002
 20
241.464
 30
0.0
 11
-0.182936
 21
241.828
 31
0.0
  0
ARC
  5
36E
  8
_________1
 62
     7
 10
-0.374263
 20
240.62845899999999
 30
0.0
 40
1.2149840000000001
 50
80.939718999999997
 51
89.945424000000003
  0
ARC
  5
36F
  8
_________1
 62
     7
 10
-0.677076
 20
240.62092699999999
 30
0.0
 40
1.2225639999999991
 50
90.511479000000008
 51
141.51163
  0
ARC
  5
370
  8
_________1
 62
     7
 10
2.2770090000000001
 20
243.104569
 30
0.0
 40
1.662231999999999
 50
272.109737
 51
357.89027299999998
  0
ARC
  5
371
  8
_________1
 62
     7
 10
2.3372749999999991
 20
243.04559
 30
0.0
 40
1.6021259999999991
 50
260.902378
 51
270.03312
  0
LINE
  5
372
  8
_________1
 62
     7
 10
-4.9619999999999989
 20
246.43199999999999
 30
0.0
 11
-4.9619999999999989
 21
246.11699999999999
 31
0.0
  0
LINE
  5
373
  8
_________1
 62
     7
 10
-5.3416499999999987
 20
248.88900000000001
 30
0.0
 11
-4.9771599999999987
 21
246.62299999999999
 31
0.0
  0
ARC
  5
374
  8
_________1
 62
     7
 10
-6.1166869999999998
 20
246.435981
 30
0.0
 40
1.1546920000000001
 50
359.80217099999999
 51
9.2962530000000001
  0
ARC
  5
375
  8
_________1
 62
     7
 10
-6.181
 20
246.12682599999999
 30
0.0
 40
1.219033
 50
308.40910500000001
 51
359.55954200000002
  0
ARC
  5
376
  8
_________1
 62
     7
 10
-3.6777019999999991
 20
249.14808099999999
 30
0.0
 40
1.68394
 50
180.15677199999999
 51
188.83670299999989
  0
ARC
  5
377
  8
_________1
 62
     7
 10
-3.700531999999999
 20
249.08228199999999
 30
0.0
 40
1.662231
 50
92.109700000000004
 51
177.89027100000001
  0
LINE
  5
378
  8
_________1
 62
     7
 10
-2.5621299999999989
 20
246.43199999999999
 30
0.0
 11
-2.5621299999999989
 21
246.11699999999999
 31
0.0
  0
LINE
  5
379
  8
_________1
 62
     7
 10
-2.1824799999999991
 20
248.88900000000001
 30
0.0
 11
-2.54698
 21
246.62299999999999
 31
0.0
  0
ARC
  5
37A
  8
_________1
 62
     7
 10
-1.348090999999999
 20
246.43125800000001
 30
0.0
 40
1.2140429999999991
 50
170.93629200000001
 51
179.96524500000001
  0
ARC
  5
37B
  8
_________1
 62
     7
 10
-1.338922999999999
 20
246.128883
 30
0.0
 40
1.223265
 50
180.53529
 51
231.49610200000001
  0
ARC
  5
37C
  8
_________1
 62
     7
 10
-3.8229160000000002
 20
249.08228099999999
 30
0.0
 40
1.662231999999999
 50
2.109726999999999
 51
87.890263000000004
  0
ARC
  5
37D
  8
_________1
 62
     7
 10
-3.7752759999999999
 20
249.142539
 30
0.0
 40
1.613464999999999
 50
350.97336300000001
 51
0.033202
  0
LINE
  5
37E
  8
_________1
 62
     7
 10
-7.150339999999999
 20
241.84299999999999
 30
0.0
 11
-6.8361499999999991
 21
241.84299999999999
 31
0.0
  0
LINE
  5
37F
  8
_________1
 62
     7
 10
-9.6080899999999971
 20
241.464
 30
0.0
 11
-7.3411999999999988
 21
241.828
 31
0.0
  0
ARC
  5
380
  8
_________1
 62
     7
 10
-7.147460999999999
 20
240.59806
 30
0.0
 40
1.2453849999999991
 50
90.132465999999994
 51
98.949584000000002
  0
ARC
  5
381
  8
_________1
 62
     7
 10
-6.844036
 20
240.62712500000001
 30
0.0
 40
1.2163429999999991
 50
38.348492999999998
 51
89.628358999999989
  0
ARC
  5
382
  8
_________1
 62
     7
 10
-9.8106759999999991
 20
243.114136
 30
0.0
 40
1.6629039999999999
 50
191.25871399999991
 51
276.99764299999998
  0
ARC
  5
383
  8
_________1
 62
     7
 10
-9.9693979999999982
 20
243.03306699999999
 30
0.0
 40
1.492197999999999
 50
179.60412400000001
 51
189.395387
  0
LINE
  5
384
  8
_________1
 62
     7
 10
-7.150339999999999
 20
244.24299999999999
 30
0.0
 11
-6.8361499999999991
 21
244.24299999999999
 31
0.0
  0
LINE
  5
385
  8
_________1
 62
     7
 10
-9.6080899999999971
 20
244.62299999999999
 30
0.0
 11
-7.3411999999999988
 21
244.25899999999999
 31
0.0
  0
ARC
  5
386
  8
_________1
 62
     7
 10
-7.1517899999999992
 20
245.42097699999999
 30
0.0
 40
1.177667
 50
260.74465099999998
 51
270.07053300000013
  0
ARC
  5
387
  8
_________1
 62
     7
 10
-6.8453220000000004
 20
245.462264
 30
0.0
 40
1.2189879999999991
 50
270.43130400000001
 51
321.59184399999998
  0
ARC
  5
388
  8
_________1
 62
     7
 10
-9.800282000000001
 20
242.98218900000001
 30
0.0
 40
1.662404999999999
 50
92.115491000000006
 51
177.890648
  0
ARC
  5
389
  8
_________1
 62
     7
 10
-9.8607240000000012
 20
243.0633
 30
0.0
 40
1.5801609999999999
 50
80.800062999999994
 51
90.033512000000016
  0
LINE
  5
38A
  8
_________1
 62
     7
 10
-2.5621299999999989
 20
239.655
 30
0.0
 11
-2.5621299999999989
 21
239.96899999999999
 31
0.0
  0
LINE
  5
38B
  8
_________1
 62
     7
 10
-2.1824799999999991
 20
237.197
 30
0.0
 11
-2.54698
 21
239.464
 31
0.0
  0
ARC
  5
38C
  8
_________1
 62
     7
 10
-1.234022999999999
 20
239.664571
 30
0.0
 40
1.3281469999999991
 50
180.423305
 51
188.67515800000001
  0
ARC
  5
38D
  8
_________1
 62
     7
 10
-1.342781
 20
239.95992799999999
 30
0.0
 40
1.2193889999999989
 50
128.41716700000001
 51
179.559665
  0
ARC
  5
38E
  8
_________1
 62
     7
 10
-3.8324210000000001
 20
236.994787
 30
0.0
 40
1.663011999999999
 50
281.24370399999998
 51
6.9965399999999978
  0
ARC
  5
38F
  8
_________1
 62
     7
 10
-3.7550400000000002
 20
236.85169200000001
 30
0.0
 40
1.50834
 50
269.74614500000001
 51
279.42028099999999
  0
LINE
  5
390
  8
_________1
 62
     7
 10
-4.9619999999999989
 20
239.655
 30
0.0
 11
-4.9619999999999989
 21
239.96899999999999
 31
0.0
  0
LINE
  5
391
  8
_________1
 62
     7
 10
-5.3416499999999987
 20
237.197
 30
0.0
 11
-4.9771599999999987
 21
239.464
 31
0.0
  0
ARC
  5
392
  8
_________1
 62
     7
 10
-6.1760449999999993
 20
239.655495
 30
0.0
 40
1.2140429999999991
 50
350.93631099999999
 51
359.96526499999999
  0
ARC
  5
393
  8
_________1
 62
     7
 10
-6.1823870000000003
 20
239.95942400000001
 30
0.0
 40
1.2204239999999991
 50
0.463573
 51
51.559554999999989
  0
LINE
  5
394
  8
_________1
  6
AIGENLINE001
 62
     7
 10
-3.7617199999999991
 20
234.66800000000001
 30
0.0
 11
-3.7617199999999991
 21
243.04300000000001
 31
0.0
  0
LINE
  5
395
  8
_________1
  6
AIGENLINE001
 62
     7
 10
-3.7617199999999991
 20
243.04300000000001
 30
0.0
 11
-3.7617199999999991
 21
251.41900000000001
 31
0.0
  0
ARC
  5
396
  8
_________1
 62
     7
 10
-3.700534999999999
 20
237.00446199999999
 30
0.0
 40
1.6622220000000001
 50
182.103477
 51
267.89038399999998
  0
ARC
  5
397
  8
_________1
 62
     7
 10
-3.7502230000000001
 20
236.944377
 30
0.0
 40
1.611413999999999
 50
170.967589
 51
180.03290000000001
  0
ARC
  5
398
  8
_________1
 62
     7
 10
-3.6812219999999991
 20
242.962875
 30
0.0
 40
2.182131
 50
92.114187999999999
 51
177.885783
  0
ARC
  5
399
  8
_________1
 62
     7
 10
-3.842241
 20
242.96285900000001
 30
0.0
 40
2.1821470000000001
 50
2.114595
 51
87.885394999999974
  0
ARC
  5
39A
  8
_________1
 62
     7
 10
-3.8420519999999989
 20
243.123884
 30
0.0
 40
2.1819570000000001
 50
272.10981299999997
 51
357.88549799999998
  0
ARC
  5
39B
  8
_________1
 62
     7
 10
-3.6812239999999989
 20
243.124055
 30
0.0
 40
2.1821349999999988
 50
182.11885699999999
 51
267.885873
  0
ARC
  5
39C
  8
_________1
 62
     7
 10
-3.7618949999999991
 20
243.043204
 30
0.0
 40
2.600203
 50
89.996204000000006
 51
179.99617499999999
  0
ARC
  5
39D
  8
_________1
 62
     7
 10
-3.7618960000000001
 20
243.04354799999999
 30
0.0
 40
2.5998579999999998
 50
359.99621400000012
 51
89.996184000000014
  0
ARC
  5
39E
  8
_________1
 62
     7
 10
-3.7618960000000001
 20
243.043205
 30
0.0
 40
2.5998579999999998
 50
270.00381599999997
 51
0.003786
  0
ARC
  5
39F
  8
_________1
 62
     7
 10
-3.7618960000000001
 20
243.04354799999999
 30
0.0
 40
2.600201999999999
 50
180.003806
 51
270.00381599999997
  0
ARC
  5
3A0
  8
_________1
 62
     7
 10
-3.7436690000000001
 20
243.05958799999999
 30
0.0
 40
2.7240829999999998
 50
217.958359
 51
231.97869700000001
  0
ARC
  5
3A1
  8
_________1
 62
     7
 10
-3.781391999999999
 20
243.06366
 30
0.0
 40
2.727860999999999
 50
307.98395099999999
 51
321.99508300000002
  0
ARC
  5
3A2
  8
_________1
 62
     7
 10
-3.7637769999999988
 20
243.04010600000001
 30
0.0
 40
2.7036139999999991
 50
37.953561999999998
 51
52.088387999999988
  0
ARC
  5
3A3
  8
_________1
 62
     7
 10
-3.7691089999999989
 20
243.05275
 30
0.0
 40
2.688397999999999
 50
127.927775
 51
142.13516899999999
  0
ARC
  5
3A4
  8
_________1
 62
     7
 10
-3.7339139999999991
 20
243.07206600000001
 30
0.0
 40
3.237029999999999
 50
202.40489700000001
 51
247.61196000000001
  0
ARC
  5
3A5
  8
_________1
 62
     7
 10
-3.7927379999999991
 20
243.07409799999999
 30
0.0
 40
3.2401299999999988
 50
292.42676399999999
 51
337.57885599999997
  0
ARC
  5
3A6
  8
_________1
 62
     7
 10
-3.7943519999999991
 20
243.011335
 30
0.0
 40
3.242125999999999
 50
22.431839
 51
67.556931000000006
  0
ARC
  5
3A7
  8
_________1
 62
     7
 10
-3.7316910000000001
 20
243.01275799999999
 30
0.0
 40
3.239819999999999
 50
112.41022100000001
 51
157.578532
  0
ARC
  5
3A8
  8
_________1
 62
     7
 10
-3.6593010000000001
 20
243.14563799999999
 30
0.0
 40
6.3257430000000001
 50
195.57431500000001
 51
254.41448500000001
  0
ARC
  5
3A9
  8
_________1
 62
     7
 10
-3.8648820000000002
 20
243.14664099999999
 30
0.0
 40
6.326721
 50
285.58350799999999
 51
344.41874799999999
  0
ARC
  5
3AA
  8
_________1
 62
     7
 10
-3.8651659999999999
 20
242.939829
 30
0.0
 40
6.3270710000000001
 50
15.583038
 51
74.41470600000001
  0
ARC
  5
3AB
  8
_________1
 62
     7
 10
-3.658239
 20
242.940054
 30
0.0
 40
6.3270509999999991
 50
105.592195
 51
164.419005
  0
LINE
  5
3AC
  8
_________1
  6
AIGENLINE001
 62
     7
 10
-23.762
 20
209.005
 30
0.0
 11
-23.762
 21
252.071
 31
0.0
  0
LINE
  5
3AD
  8
_________1
  6
AIGENLINE001
 62
     7
 10
-53.809600000000003
 20
243.04300000000001
 30
0.0
 11
6.1708899999999991
 21
243.04300000000001
 31
0.0
  0
LINE
  5
3AE
  8
_________1
 62
     7
 10
-26.657299999999999
 20
215.977
 30
0.0
 11
-28.2834
 21
240.19999999999999
 31
0.0
  0
LINE
  5
3AF
  8
_________1
 62
     7
 10
-20.866700000000002
 20
215.977
 30
0.0
 11
-19.240600000000001
 21
240.19999999999999
 31
0.0
  0
ARC
  5
3B0
  8
_________1
 62
     7
 10
-24.191479999999999
 20
214.687703
 30
0.0
 40
3.3692639999999989
 50
138.64813799999999
 51
181.08372399999999
  0
ARC
  5
3B1
  8
_________1
 62
     7
 10
-24.290040999999999
 20
214.765434
 30
0.0
 40
3.273158
 50
182.47691399999999
 51
223.489689
  0
ARC
  5
3B2
  8
_________1
 62
     7
 10
-23.994005000000001
 20
215.0034
 30
0.0
 40
3.6518379999999988
 50
223.00180499999999
 51
233.86598799999999
  0
ARC
  5
3B3
  8
_________1
 62
     7
 10
-23.785287
 20
215.48809
 30
0.0
 40
4.168018
 50
235.477857
 51
315.66530799999998
  0
ARC
  5
3B4
  8
_________1
 62
     7
 10
-23.337962000000001
 20
214.80684600000001
 30
0.0
 40
3.3764949999999989
 50
318.63045099999999
 51
358.9418940000001
  0
ARC
  5
3B5
  8
_________1
 62
     7
 10
-23.212311
 20
214.73091400000001
 30
0.0
 40
3.2502970000000002
 50
0.23939
 51
42.188263999999997
  0
ARC
  5
3B6
  8
_________1
 62
     7
 10
-24.202351
 20
214.92887899999999
 30
0.0
 40
2.9284870000000001
 50
148.19236699999999
 51
224.73920699999999
  0
ARC
  5
3B7
  8
_________1
 62
     7
 10
-23.956727999999998
 20
215.21586400000001
 30
0.0
 40
3.305105999999999
 50
225.275948
 51
242.37226600000011
  0
ARC
  5
3B8
  8
_________1
 62
     7
 10
-23.777274999999999
 20
215.64956799999999
 30
0.0
 40
3.772810999999999
 50
243.01205899999999
 51
308.71739200000002
  0
ARC
  5
3B9
  8
_________1
 62
     7
 10
-23.481926000000001
 20
215.11545799999999
 30
0.0
 40
3.173033999999999
 50
310.589001
 51
326.57597800000002
  0
ARC
  5
3BA
  8
_________1
 62
     7
 10
-23.250737000000001
 20
214.94919300000001
 30
0.0
 40
2.888517999999999
 50
326.80253700000009
 51
359.42138999999997
  0
ARC
  5
3BB
  8
_________1
 62
     7
 10
-23.176331000000001
 20
214.913443
 30
0.0
 40
2.8139729999999989
 50
0.133987
 51
33.642085999999999
  0
ARC
  5
3BC
  8
_________1
 62
     7
 10
-23.850151
 20
242.95523299999999
 30
0.0
 40
2.3897300000000001
 50
2.113801
 51
87.886189000000016
  0
ARC
  5
3BD
  8
_________1
 62
     7
 10
-23.762350999999999
 20
243.04303200000001
 30
0.0
 40
2.3003049999999989
 50
89.991418999999993
 51
179.991389
  0
ARC
  5
3BE
  8
_________1
 62
     7
 10
-23.762266
 20
243.04363499999999
 30
0.0
 40
2.300390999999999
 50
180.0064449999999
 51
270.00645500000002
  0
ARC
  5
3BF
  8
_________1
 62
     7
 10
-23.850570999999999
 20
243.13176100000001
 30
0.0
 40
2.390158
 50
272.123493
 51
357.880808
  0
ARC
  5
3C0
  8
_________1
 62
     7
 10
-23.762266
 20
243.04363499999999
 30
0.0
 40
2.7997610000000002
 50
359.99472200000002
 51
89.994692000000001
  0
ARC
  5
3C1
  8
_________1
 62
     7
 10
-23.654159
 20
242.935349
 30
0.0
 40
2.910045999999999
 50
92.123906000000005
 51
177.87253899999999
  0
ARC
  5
3C2
  8
_________1
 62
     7
 10
-23.655100999999998
 20
243.150462
 30
0.0
 40
2.9090699999999998
 50
182.10960700000001
 51
267.89394800000002
  0
ARC
  5
3C3
  8
_________1
 62
     7
 10
-23.762266
 20
243.04311899999999
 30
0.0
 40
2.7997610000000002
 50
270.00530800000001
 51
0.005278
  0
ARC
  5
3C4
  8
_________1
 62
     7
 10
-23.830413
 20
243.070167
 30
0.0
 40
6.0684820000000004
 50
318.001284
 51
359.74705599999999
  0
ARC
  5
3C5
  8
_________1
 62
     7
 10
-23.762008000000002
 20
243.04337599999999
 30
0.0
 40
6.0000169999999988
 50
0.00001
 51
89.999980000000008
  0
ARC
  5
3C6
  8
_________1
 62
     7
 10
-23.762006
 20
243.04337599999999
 30
0.0
 40
6.0000169999999988
 50
90.0
 51
179.99996999999999
  0
ARC
  5
3C7
  8
_________1
 62
     7
 10
-23.69652
 20
243.06826899999999
 30
0.0
 40
6.0655549999999998
 50
180.23515999999989
 51
221.99950699999999
  0
ARC
  5
3C8
  8
_________1
 62
     7
 10
-23.870687
 20
243.095956
 30
0.0
 40
7.1086640000000001
 50
308.77899500000001
 51
359.57620700000001
  0
ARC
  5
3C9
  8
_________1
 62
     7
 10
-23.762094999999999
 20
243.04346200000001
 30
0.0
 40
6.9998769999999997
 50
359.99930500000011
 51
89.999274999999997
  0
ARC
  5
3CA
  8
_________1
 62
     7
 10
-23.762263999999998
 20
243.043117
 30
0.0
 40
7.0002209999999998
 50
89.997884999999997
 51
179.99785499999999
  0
ARC
  5
3CB
  8
_________1
 62
     7
 10
-23.654430999999999
 20
243.095755
 30
0.0
 40
7.1082479999999988
 50
180.42222000000001
 51
231.22261700000001
  0
LINE
  5
3CC
  8
_________1
 62
     7
 10
-0.7617149999999999
 20
169.85400000000001
 30
0.0
 11
-3.7617199999999991
 21
169.85400000000001
 31
0.0
  0
ARC
  5
3CD
  8
_________1
 62
     7
 10
-0.7770520000000002
 20
170.2687
 30
0.0
 40
0.4152280000000001
 50
272.11672399999998
 51
357.981987
  0
ARC
  5
3CE
  8
_________1
 62
     7
 10
-0.777347
 20
170.23880399999999
 30
0.0
 40
0.4155460000000001
 50
2.106428999999999
 51
87.844189999999983
  0
LINE
  5
3CF
  8
_________1
 62
     7
 10
-2.0619000000000001
 20
174.95400000000001
 30
0.0
 11
-2.0619000000000001
 21
174.709
 31
0.0
  0
LINE
  5
3D0
  8
_________1
 62
     7
 10
-1.92754
 20
174.209
 30
0.0
 11
-1.0297499999999991
 21
172.654
 31
0.0
  0
ARC
  5
3D1
  8
_________1
 62
     7
 10
-1.052691
 20
174.711353
 30
0.0
 40
1.0092139999999989
 50
180.116398
 51
209.82510500000001
  0
LINE
  5
3D2
  8
_________1
 62
     7
 10
-0.7617149999999999
 20
171.642
 30
0.0
 11
-0.7617149999999999
 21
170.654
 31
0.0
  0
ARC
  5
3D3
  8
_________1
 62
     7
 10
-2.7720489999999991
 20
171.651037
 30
0.0
 40
2.0103360000000001
 50
0.079576
 51
29.925705000000001
  0
LINE
  5
3D4
  8
_________1
 62
     7
 10
-0.7617149999999999
 20
170.654
 30
0.0
 11
-3.7617199999999991
 21
170.654
 31
0.0
  0
LINE
  5
3D5
  8
_________1
 62
     7
 10
-2.0619000000000001
 20
174.95400000000001
 30
0.0
 11
-1.89998
 21
176.03200000000001
 31
0.0
  0
LINE
  5
3D6
  8
_________1
 62
     7
 10
-0.373106
 20
177.054
 30
0.0
 11
-0.7134840000000001
 21
177.054
 31
0.0
  0
ARC
  5
3D7
  8
_________1
 62
     7
 10
-0.679345
 20
175.81450599999999
 30
0.0
 40
1.2398420000000001
 50
91.577815000000001
 51
169.902289
  0
LINE
  5
3D8
  8
_________1
 62
     7
 10
-1.9116999999999991
 20
175.95400000000001
 30
0.0
 11
-3.7617199999999991
 21
175.95400000000001
 31
0.0
  0
LINE
  5
3D9
  8
_________1
 62
     7
 10
2.0839500000000002
 20
176.67400000000001
 30
0.0
 11
-0.182936
 21
177.03899999999999
 31
0.0
  0
ARC
  5
3DA
  8
_________1
 62
     7
 10
-0.370833
 20
175.88192799999999
 30
0.0
 40
1.1719520000000001
 50
80.774023999999997
 51
90.111118999999974
  0
ARC
  5
3DB
  8
_________1
 62
     7
 10
2.2871769999999998
 20
178.32475299999999
 30
0.0
 40
1.662990999999999
 50
262.98064199999999
 51
348.73552899999999
  0
ARC
  5
3DC
  8
_________1
 62
     7
 10
2.2723619999999989
 20
178.25716199999999
 30
0.0
 40
1.665754
 50
351.11584299999998
 51
359.89072199999998
  0
LINE
  5
3DD
  8
_________1
 62
     7
 10
-0.373106
 20
179.45400000000001
 30
0.0
 11
-0.6879900000000001
 21
179.45400000000001
 31
0.0
  0
LINE
  5
3DE
  8
_________1
 62
     7
 10
2.0839500000000002
 20
179.834
 30
0.0
 11
-0.182936
 21
179.46899999999999
 31
0.0
  0
ARC
  5
3DF
  8
_________1
 62
     7
 10
-0.374263
 20
180.668902
 30
0.0
 40
1.2149840000000001
 50
270.054576
 51
279.06028099999997
  0
ARC
  5
3E0
  8
_________1
 62
     7
 10
-0.686842
 20
180.65874700000001
 30
0.0
 40
1.2048289999999999
 50
246.770872
 51
269.94543399999998
  0
ARC
  5
3E1
  8
_________1
 62
     7
 10
2.2770189999999988
 20
178.192802
 30
0.0
 40
1.6622209999999991
 50
2.1093959999999989
 51
87.890593999999993
  0
ARC
  5
3E2
  8
_________1
 62
     7
 10
2.337267999999999
 20
178.265264
 30
0.0
 40
1.5886340000000001
 50
89.966350000000006
 51
99.175301000000005
  0
LINE
  5
3E3
  8
_________1
 62
     7
 10
-1.1620399999999991
 20
179.554
 30
0.0
 11
-2.8294700000000002
 21
179.554
 31
0.0
  0
LINE
  5
3E4
  8
_________1
 62
     7
 10
-1.5616699999999999
 20
180.554
 30
0.0
 11
-3.7617199999999991
 21
180.554
 31
0.0
  0
LINE
  5
3E5
  8
_________1
 62
     7
 10
-1.1620399999999991
 20
180.154
 30
0.0
 11
-1.1620399999999991
 21
179.554
 31
0.0
  0
ARC
  5
3E6
  8
_________1
 62
     7
 10
-1.5773029999999999
 20
180.1386929999999
 30
0.0
 40
0.4155460000000001
 50
2.106428999999999
 51
87.844189999999983
  0
LINE
  5
3E7
  8
_________1
 62
     7
 10
-6.76173
 20
169.85400000000001
 30
0.0
 11
-3.7617199999999991
 21
169.85400000000001
 31
0.0
  0
ARC
  5
3E8
  8
_________1
 62
     7
 10
-6.7464529999999989
 20
170.23844099999999
 30
0.0
 40
0.415896
 50
92.105378000000002
 51
177.84526299999999
  0
ARC
  5
3E9
  8
_________1
 62
     7
 10
-6.7464399999999989
 20
170.26934199999999
 30
0.0
 40
0.415894
 50
182.10341700000001
 51
267.797912
  0
LINE
  5
3EA
  8
_________1
 62
     7
 10
-6.7624199999999988
 20
169.85400000000001
 30
0.0
 11
-6.76173
 21
169.85400000000001
 31
0.0
  0
LINE
  5
3EB
  8
_________1
 62
     7
 10
-5.462229999999999
 20
174.95400000000001
 30
0.0
 11
-5.462229999999999
 21
174.709
 31
0.0
  0
LINE
  5
3EC
  8
_________1
 62
     7
 10
-5.5959000000000003
 20
174.209
 30
0.0
 11
-6.4936999999999987
 21
172.654
 31
0.0
  0
ARC
  5
3ED
  8
_________1
 62
     7
 10
-6.467187
 20
174.71021500000001
 30
0.0
 40
1.0049539999999999
 50
330.11049100000002
 51
359.94804599999998
  0
LINE
  5
3EE
  8
_________1
 62
     7
 10
-6.76173
 20
171.642
 30
0.0
 11
-6.76173
 21
170.654
 31
0.0
  0
ARC
  5
3EF
  8
_________1
 62
     7
 10
-4.7503019999999987
 20
171.65074300000001
 30
0.0
 40
2.0114320000000001
 50
150.08259899999999
 51
179.91208
  0
LINE
  5
3F0
  8
_________1
 62
     7
 10
-6.76173
 20
170.654
 30
0.0
 11
-3.7617199999999991
 21
170.654
 31
0.0
  0
LINE
  5
3F1
  8
_________1
 62
     7
 10
-5.462229999999999
 20
174.95400000000001
 30
0.0
 11
-5.6234599999999988
 21
176.03200000000001
 31
0.0
  0
LINE
  5
3F2
  8
_________1
 62
     7
 10
-7.150339999999999
 20
177.054
 30
0.0
 11
-6.810649999999999
 21
177.054
 31
0.0
  0
ARC
  5
3F3
  8
_________1
 62
     7
 10
-6.8447959999999997
 20
175.81367700000001
 30
0.0
 40
1.240670999999999
 50
10.129778
 51
88.422972999999999
  0
LINE
  5
3F4
  8
_________1
 62
     7
 10
-5.6117499999999989
 20
175.95400000000001
 30
0.0
 11
-3.7617199999999991
 21
175.95400000000001
 31
0.0
  0
LINE
  5
3F5
  8
_________1
 62
     7
 10
-9.6080899999999971
 20
176.67400000000001
 30
0.0
 11
-7.3411999999999988
 21
177.03899999999999
 31
0.0
  0
ARC
  5
3F6
  8
_________1
 62
     7
 10
-7.1517919999999986
 20
175.86301700000001
 30
0.0
 40
1.1908620000000001
 50
89.930192000000019
 51
99.151856999999978
  0
ARC
  5
3F7
  8
_________1
 62
     7
 10
-9.8619070000000004
 20
178.254243
 30
0.0
 40
1.6003430000000001
 50
180.00926100000001
 51
270.00927100000013
  0
ARC
  5
3F8
  8
_________1
 62
     7
 10
-9.8607240000000012
 20
178.234061
 30
0.0
 40
1.5801609999999999
 50
269.96648800000003
 51
279.19993699999998
  0
LINE
  5
3F9
  8
_________1
  6
AIGENLINE001
 62
     7
 10
-13.4976
 20
178.25399999999999
 30
0.0
 11
6.081669999999999
 21
178.25399999999999
 31
0.0
  0
LINE
  5
3FA
  8
_________1
 62
     7
 10
-7.150339999999999
 20
179.45400000000001
 30
0.0
 11
-6.8361499999999991
 21
179.45400000000001
 31
0.0
  0
LINE
  5
3FB
  8
_________1
 62
     7
 10
-9.6080899999999971
 20
179.834
 30
0.0
 11
-7.3411999999999988
 21
179.46899999999999
 31
0.0
  0
ARC
  5
3FC
  8
_________1
 62
     7
 10
-7.1482119999999991
 20
180.68985599999999
 30
0.0
 40
1.235938999999999
 50
261.01665300000002
 51
269.901297
  0
ARC
  5
3FD
  8
_________1
 62
     7
 10
-6.838457
 20
180.66439399999999
 30
0.0
 40
1.210477
 50
270.10939999999999
 51
293.17433399999999
  0
ARC
  5
3FE
  8
_________1
 62
     7
 10
-9.8113360000000007
 20
178.18392299999999
 30
0.0
 40
1.6621209999999991
 50
82.976150999999987
 51
168.760423
  0
ARC
  5
3FF
  8
_________1
 62
     7
 10
-9.9043919999999996
 20
178.254952
 30
0.0
 40
1.5578579999999991
 50
170.65591699999999
 51
180.035585
  0
LINE
  5
400
  8
_________1
 62
     7
 10
-6.362099999999999
 20
179.554
 30
0.0
 11
-4.6946599999999989
 21
179.554
 31
0.0
  0
LINE
  5
401
  8
_________1
 62
     7
 10
-5.9617800000000001
 20
180.554
 30
0.0
 11
-3.7617199999999991
 21
180.554
 31
0.0
  0
LINE
  5
402
  8
_________1
 62
     7
 10
-6.362099999999999
 20
180.154
 30
0.0
 11
-6.362099999999999
 21
179.554
 31
0.0
  0
ARC
  5
403
  8
_________1
 62
     7
 10
-5.9464959999999989
 20
180.13833
 30
0.0
 40
0.415896
 50
92.105378000000002
 51
177.84526299999999
  0
LINE
  5
404
  8
_________1
  6
AIGENLINE001
 62
     7
 10
-3.7617199999999991
 20
182.74100000000001
 30
0.0
 11
-3.7617199999999991
 21
145.334
 31
0.0
  0
ARC
  5
405
  8
_________1
 62
     7
 10
-3.8229059999999988
 20
178.192802
 30
0.0
 40
1.6622209999999991
 50
2.1093959999999989
 51
87.890593999999993
  0
ARC
  5
406
  8
_________1
 62
     7
 10
-3.7005469999999998
 20
178.19280800000001
 30
0.0
 40
1.662215
 50
92.109204000000005
 51
177.89076700000001
  0
ARC
  5
407
  8
_________1
 62
     7
 10
-3.7003669999999991
 20
178.31516199999999
 30
0.0
 40
1.6623950000000001
 50
182.10902100000001
 51
267.88484
  0
ARC
  5
408
  8
_________1
 62
     7
 10
-3.8229280000000001
 20
178.31501
 30
0.0
 40
1.6622380000000001
 50
272.11014900000009
 51
357.896029
  0
LINE
  5
409
  8
_________1
 62
     7
 10
-47.1509
 20
244.24299999999999
 30
0.0
 11
-46.8367
 21
244.24299999999999
 31
0.0
  0
LINE
  5
40A
  8
_________1
 62
     7
 10
-49.608699999999992
 20
244.62299999999999
 30
0.0
 11
-47.341799999999999
 21
244.25899999999999
 31
0.0
  0
ARC
  5
40B
  8
_________1
 62
     7
 10
-47.149087999999992
 20
245.46168399999999
 30
0.0
 40
1.2183740000000001
 50
260.90077300000002
 51
269.91441099999997
  0
ARC
  5
40C
  8
_________1
 62
     7
 10
-46.844602999999999
 20
245.45962800000001
 30
0.0
 40
1.2163429999999991
 50
270.37164100000001
 51
321.65150699999998
  0
ARC
  5
40D
  8
_________1
 62
     7
 10
-49.811244000000002
 20
242.97261800000001
 30
0.0
 40
1.6629039999999999
 50
83.002356999999989
 51
168.741286
  0
ARC
  5
40E
  8
_________1
 62
     7
 10
-49.921475000000001
 20
243.04568800000001
 30
0.0
 40
1.541344
 50
170.60555500000001
 51
180.08594600000001
  0
LINE
  5
40F
  8
_________1
 62
     7
 10
-47.1509
 20
241.84299999999999
 30
0.0
 11
-46.8367
 21
241.84299999999999
 31
0.0
  0
LINE
  5
410
  8
_________1
 62
     7
 10
-49.608699999999992
 20
241.464
 30
0.0
 11
-47.341799999999999
 21
241.828
 31
0.0
  0
ARC
  5
411
  8
_________1
 62
     7
 10
-47.152358999999997
 20
240.652582
 30
0.0
 40
1.1908620000000001
 50
89.930192000000019
 51
99.151856999999978
  0
ARC
  5
412
  8
_________1
 62
     7
 10
-46.845889999999997
 20
240.62448900000001
 30
0.0
 40
1.2189879999999991
 50
38.408155999999998
 51
89.568696000000017
  0
ARC
  5
413
  8
_________1
 62
     7
 10
-49.862560000000002
 20
243.04372100000001
 30
0.0
 40
1.600257
 50
180.0123449999999
 51
270.01235500000001
  0
ARC
  5
414
  8
_________1
 62
     7
 10
-49.861289999999997
 20
243.03694400000001
 30
0.0
 40
1.59348
 50
269.96672699999999
 51
279.122344
  0
LINE
  5
415
  8
_________1
 62
     7
 10
-42.562699999999992
 20
246.43199999999999
 30
0.0
 11
-42.562699999999992
 21
246.11699999999999
 31
0.0
  0
LINE
  5
416
  8
_________1
 62
     7
 10
-42.183
 20
248.88900000000001
 30
0.0
 11
-42.547499999999999
 21
246.62299999999999
 31
0.0
  0
ARC
  5
417
  8
_________1
 62
     7
 10
-41.267073999999987
 20
246.424767
 30
0.0
 40
1.2956469999999991
 50
171.22116399999999
 51
179.680373
  0
ARC
  5
418
  8
_________1
 62
     7
 10
-41.343703999999988
 20
246.12682599999999
 30
0.0
 40
1.219033
 50
180.44047800000001
 51
231.59091499999991
  0
ARC
  5
419
  8
_________1
 62
     7
 10
-43.73693699999999
 20
249.14369400000001
 30
0.0
 40
1.574557999999999
 50
350.70579400000003
 51
359.99199099999998
  0
ARC
  5
41A
  8
_________1
 62
     7
 10
-43.823875999999998
 20
249.08188899999999
 30
0.0
 40
1.6626380000000001
 50
2.122736999999999
 51
87.877252999999996
  0
LINE
  5
41B
  8
_________1
 62
     7
 10
-44.962600000000002
 20
246.43199999999999
 30
0.0
 11
-44.962600000000002
 21
246.11699999999999
 31
0.0
  0
LINE
  5
41C
  8
_________1
 62
     7
 10
-45.342199999999998
 20
248.88900000000001
 30
0.0
 11
-44.977699999999999
 21
246.62299999999999
 31
0.0
  0
ARC
  5
41D
  8
_________1
 62
     7
 10
-46.176613000000003
 20
246.43125800000001
 30
0.0
 40
1.2140429999999991
 50
0.034735
 51
9.0636890000000001
  0
ARC
  5
41E
  8
_________1
 62
     7
 10
-46.182948000000003
 20
246.1275
 30
0.0
 40
1.2204189999999999
 50
308.44024400000001
 51
359.52840300000003
  0
ARC
  5
41F
  8
_________1
 62
     7
 10
-43.701113999999997
 20
249.08229700000001
 30
0.0
 40
1.662215
 50
92.109204000000005
 51
177.89076700000001
  0
ARC
  5
420
  8
_________1
 62
     7
 10
-43.748745999999997
 20
249.142538
 30
0.0
 40
1.6134580000000001
 50
179.966758
 51
189.02667700000001
  0
LINE
  5
421
  8
_________1
 62
     7
 10
-40.373699999999999
 20
241.84299999999999
 30
0.0
 11
-40.688599999999987
 21
241.84299999999999
 31
0.0
  0
LINE
  5
422
  8
_________1
 62
     7
 10
-37.916600000000003
 20
241.464
 30
0.0
 11
-40.183500000000002
 21
241.828
 31
0.0
  0
ARC
  5
423
  8
_________1
 62
     7
 10
-40.371400999999999
 20
240.671492
 30
0.0
 40
1.1719520000000001
 50
80.774023999999997
 51
90.111118999999974
  0
ARC
  5
424
  8
_________1
 62
     7
 10
-40.680658999999999
 20
240.627107
 30
0.0
 40
1.216361
 50
90.372038000000003
 51
141.651071
  0
ARC
  5
425
  8
_________1
 62
     7
 10
-37.713908000000011
 20
243.11481800000001
 30
0.0
 40
1.663595999999999
 50
263.001149
 51
348.72209099999998
  0
ARC
  5
426
  8
_________1
 62
     7
 10
-37.710237999999997
 20
243.04531399999999
 30
0.0
 40
1.6477849999999989
 50
351.06786
 51
359.93262900000002
  0
LINE
  5
427
  8
_________1
 62
     7
 10
-40.373699999999999
 20
244.24299999999999
 30
0.0
 11
-40.688599999999987
 21
244.24299999999999
 31
0.0
  0
LINE
  5
428
  8
_________1
 62
     7
 10
-37.916600000000003
 20
244.62299999999999
 30
0.0
 11
-40.183500000000002
 21
244.25899999999999
 31
0.0
  0
ARC
  5
429
  8
_________1
 62
     7
 10
-40.374394000000002
 20
245.439401
 30
0.0
 40
1.196089999999999
 50
270.03453400000001
 51
279.18345599999998
  0
ARC
  5
42A
  8
_________1
 62
     7
 10
-40.679381999999997
 20
245.462264
 30
0.0
 40
1.2189879999999991
 50
218.408176
 51
269.568715
  0
ARC
  5
42B
  8
_________1
 62
     7
 10
-37.724125000000001
 20
242.981797
 30
0.0
 40
1.6628119999999991
 50
2.122358999999999
 51
87.871461999999994
  0
ARC
  5
42C
  8
_________1
 62
     7
 10
-37.663299000000009
 20
243.05482799999999
 30
0.0
 40
1.5886340000000001
 50
89.966350000000006
 51
99.175301000000005
  0
LINE
  5
42D
  8
_________1
 62
     7
 10
-44.962600000000002
 20
239.655
 30
0.0
 11
-44.962600000000002
 21
239.96899999999999
 31
0.0
  0
LINE
  5
42E
  8
_________1
 62
     7
 10
-45.342199999999998
 20
237.197
 30
0.0
 11
-44.977699999999999
 21
239.464
 31
0.0
  0
ARC
  5
42F
  8
_________1
 62
     7
 10
-46.117255
 20
239.65077199999999
 30
0.0
 40
1.1546920000000001
 50
350.70374700000002
 51
0.197829
  0
ARC
  5
430
  8
_________1
 62
     7
 10
-46.181922999999991
 20
239.95992799999999
 30
0.0
 40
1.2193889999999989
 50
0.440315
 51
51.582812999999987
  0
ARC
  5
431
  8
_________1
 62
     7
 10
-43.692849000000002
 20
236.99375699999999
 30
0.0
 40
1.661891999999999
 50
172.96295000000001
 51
258.76853199999999
  0
ARC
  5
432
  8
_________1
 62
     7
 10
-43.767716
 20
236.87580700000001
 30
0.0
 40
1.5324489999999991
 50
260.65550000000002
 51
270.20285000000001
  0
LINE
  5
433
  8
_________1
 62
     7
 10
-42.562699999999992
 20
239.655
 30
0.0
 11
-42.562699999999992
 21
239.96899999999999
 31
0.0
  0
LINE
  5
434
  8
_________1
 62
     7
 10
-42.183
 20
237.197
 30
0.0
 11
-42.547499999999999
 21
239.464
 31
0.0
  0
ARC
  5
435
  8
_________1
 62
     7
 10
-41.376078
 20
239.65331399999999
 30
0.0
 40
1.186625
 50
179.93017800000001
 51
189.1682459999999
  0
ARC
  5
436
  8
_________1
 62
     7
 10
-41.342316999999987
 20
239.95942400000001
 30
0.0
 40
1.2204239999999991
 50
128.440425
 51
179.536407
  0
LINE
  5
437
  8
_________1
  6
AIGENLINE001
 62
     7
 10
-43.762300000000003
 20
234.66800000000001
 30
0.0
 11
-43.762300000000003
 21
243.04300000000001
 31
0.0
  0
LINE
  5
438
  8
_________1
  6
AIGENLINE001
 62
     7
 10
-43.762300000000003
 20
243.04300000000001
 30
0.0
 11
-43.762300000000003
 21
251.41900000000001
 31
0.0
  0
ARC
  5
439
  8
_________1
 62
     7
 10
-43.823495999999999
 20
237.00447800000001
 30
0.0
 40
1.6622380000000001
 50
272.11014900000009
 51
357.896029
  0
ARC
  5
43A
  8
_________1
 62
     7
 10
-43.720818999999999
 20
236.94437199999999
 30
0.0
 40
1.558441
 50
359.96619199999998
 51
9.3423059999999971
  0
ARC
  5
43B
  8
_________1
 62
     7
 10
-43.842793
 20
242.962874
 30
0.0
 40
2.182131
 50
2.1142150000000002
 51
87.885774999999995
  0
ARC
  5
43C
  8
_________1
 62
     7
 10
-43.681793999999996
 20
242.96288000000001
 30
0.0
 40
2.1821250000000001
 50
92.114060999999992
 51
177.885909
  0
ARC
  5
43D
  8
_________1
 62
     7
 10
-43.681964000000001
 20
243.12388300000001
 30
0.0
 40
2.1819570000000001
 50
182.11450500000001
 51
267.8902240000001
  0
ARC
  5
43E
  8
_________1
 62
     7
 10
-43.842796
 20
243.12406100000001
 30
0.0
 40
2.1821410000000001
 50
272.11429100000009
 51
357.88101899999998
  0
ARC
  5
43F
  8
_________1
 62
     7
 10
-43.762464000000001
 20
243.04354799999999
 30
0.0
 40
2.5998579999999998
 50
359.99621400000012
 51
89.996184000000014
  0
ARC
  5
440
  8
_________1
 62
     7
 10
-43.762462999999997
 20
243.043204
 30
0.0
 40
2.600203
 50
89.996204000000006
 51
179.99617499999999
  0
ARC
  5
441
  8
_________1
 62
     7
 10
-43.762464000000001
 20
243.04354799999999
 30
0.0
 40
2.600201999999999
 50
180.003806
 51
270.00381599999997
  0
ARC
  5
442
  8
_________1
 62
     7
 10
-43.762464000000001
 20
243.043205
 30
0.0
 40
2.5998579999999998
 50
270.00381599999997
 51
0.003786
  0
ARC
  5
443
  8
_________1
 62
     7
 10
-43.762189999999997
 20
243.04388299999999
 30
0.0
 40
2.700108999999999
 50
307.91158000000001
 51
322.067454
  0
ARC
  5
444
  8
_________1
 62
     7
 10
-43.769677000000001
 20
243.034176
 30
0.0
 40
2.688397999999999
 50
217.86483100000001
 51
232.072225
  0
ARC
  5
445
  8
_________1
 62
     7
 10
-43.77194999999999
 20
243.05424400000001
 30
0.0
 40
2.685686
 50
127.911384
 51
142.13057699999999
  0
ARC
  5
446
  8
_________1
 62
     7
 10
-43.781959000000001
 20
243.02326600000001
 30
0.0
 40
2.727860999999999
 50
38.004916999999999
 51
52.01604900000001
  0
ARC
  5
447
  8
_________1
 62
     7
 10
-43.791072999999997
 20
243.071866
 30
0.0
 40
3.2372149999999991
 50
292.40531499999997
 51
337.60030499999999
  0
ARC
  5
448
  8
_________1
 62
     7
 10
-43.731327999999998
 20
243.07522
 30
0.0
 40
3.2411469999999998
 50
202.43519800000001
 51
247.581659
  0
ARC
  5
449
  8
_________1
 62
     7
 10
-43.729458999999999
 20
243.00995800000001
 30
0.0
 40
3.2434759999999989
 50
112.437082
 51
157.55167
  0
ARC
  5
44A
  8
_________1
 62
     7
 10
-43.79522
 20
243.01103499999999
 30
0.0
 40
3.242518
 50
22.434718
 51
67.554051999999999
  0
ARC
  5
44B
  8
_________1
 62
     7
 10
-43.865732999999999
 20
243.14692500000001
 30
0.0
 40
6.3270710000000001
 50
285.58529399999998
 51
344.41696200000001
  0
ARC
  5
44C
  8
_________1
 62
     7
 10
-43.658807000000003
 20
243.14670000000001
 30
0.0
 40
6.3270509999999991
 50
195.580995
 51
254.40780499999991
  0
ARC
  5
44D
  8
_________1
 62
     7
 10
-43.659869
 20
242.941115
 30
0.0
 40
6.3257430000000001
 50
105.585515
 51
164.42568499999999
  0
ARC
  5
44E
  8
_________1
 62
     7
 10
-43.866306000000002
 20
242.939256
 30
0.0
 40
6.3277760000000001
 50
15.586638000000001
 51
74.411106000000004
  0
LINE
  5
44F
  8
_________1
 62
     7
 10
-1.86209
 20
149.25299999999999
 30
0.0
 11
-1.6615799999999989
 21
149.453
 31
0.0
  0
LINE
  5
450
  8
_________1
 62
     7
 10
-5.6620499999999989
 20
149.25399999999999
 30
0.0
 11
-5.8618699999999988
 21
149.453
 31
0.0
  0
LINE
  5
451
  8
_________1
 62
     7
 10
-5.8618699999999988
 20
147.053
 30
0.0
 11
-5.6620499999999989
 21
146.85400000000001
 31
0.0
  0
LINE
  5
452
  8
_________1
 62
     7
 10
-1.6615799999999989
 20
147.053
 30
0.0
 11
-1.86209
 21
146.85400000000001
 31
0.0
  0
LINE
  5
453
  8
_________1
 62
     7
 10
-5.8618699999999988
 20
147.053
 30
0.0
 11
-1.6615799999999989
 21
147.053
 31
0.0
  0
LINE
  5
454
  8
_________1
 62
     7
 10
-1.86209
 20
149.25299999999999
 30
0.0
 11
-1.86209
 21
146.85400000000001
 31
0.0
  0
LINE
  5
455
  8
_________1
 62
     7
 10
-5.6620499999999989
 20
146.85400000000001
 30
0.0
 11
-5.6620499999999989
 21
149.25399999999999
 31
0.0
  0
LINE
  5
456
  8
_________1
 62
     7
 10
-5.8618699999999988
 20
134.839
 30
0.0
 11
-5.8618699999999988
 21
146.23599999999999
 31
0.0
  0
LINE
  5
457
  8
_________1
 62
     7
 10
-1.6615799999999989
 20
146.23599999999999
 30
0.0
 11
-1.6615799999999989
 21
134.839
 31
0.0
  0
LINE
  5
458
  8
_________1
 62
     7
 10
-5.8618699999999988
 20
147.053
 30
0.0
 11
-5.8618699999999988
 21
150.25299999999999
 31
0.0
  0
LINE
  5
459
  8
_________1
 62
     7
 10
-1.6615799999999989
 20
150.25299999999999
 30
0.0
 11
-1.6615799999999989
 21
147.053
 31
0.0
  0
LINE
  5
45A
  8
_________1
 62
     7
 10
-5.6620499999999989
 20
146.85400000000001
 30
0.0
 11
-1.86209
 21
146.85400000000001
 31
0.0
  0
LINE
  5
45B
  8
_________1
 62
     7
 10
-5.8618699999999988
 20
149.25399999999999
 30
0.0
 11
-1.6615799999999989
 21
149.25399999999999
 31
0.0
  0
LINE
  5
45C
  8
_________1
 62
     7
 10
-6.362099999999999
 20
150.25299999999999
 30
0.0
 11
-1.1620399999999991
 21
150.25299999999999
 31
0.0
  0
LINE
  5
45D
  8
_________1
 62
     7
 10
-6.362099999999999
 20
156.054
 30
0.0
 11
-6.1622799999999991
 21
156.25399999999999
 31
0.0
  0
LINE
  5
45E
  8
_________1
 62
     7
 10
-1.1620399999999991
 20
156.054
 30
0.0
 11
-1.36185
 21
156.25399999999999
 31
0.0
  0
LINE
  5
45F
  8
_________1
 62
     7
 10
-6.1622799999999991
 20
156.25399999999999
 30
0.0
 11
-6.1622799999999991
 21
159.65299999999999
 31
0.0
  0
LINE
  5
460
  8
_________1
 62
     7
 10
-6.362099999999999
 20
153.85400000000001
 30
0.0
 11
-6.362099999999999
 21
159.65299999999999
 31
0.0
  0
LINE
  5
461
  8
_________1
 62
     7
 10
-6.362099999999999
 20
150.25299999999999
 30
0.0
 11
-6.362099999999999
 21
150.85499999999999
 31
0.0
  0
LINE
  5
462
  8
_________1
 62
     7
 10
-1.36185
 20
156.25399999999999
 30
0.0
 11
-1.36185
 21
159.65299999999999
 31
0.0
  0
LINE
  5
463
  8
_________1
 62
     7
 10
-1.1620399999999991
 20
150.25299999999999
 30
0.0
 11
-1.1620399999999991
 21
159.65299999999999
 31
0.0
  0
LINE
  5
464
  8
_________1
 62
     7
 10
-6.362099999999999
 20
156.25399999999999
 30
0.0
 11
-1.1620399999999991
 21
156.25399999999999
 31
0.0
  0
LINE
  5
465
  8
_________1
 62
     7
 10
-7.2261300000000004
 20
159.65299999999999
 30
0.0
 11
-0.298003
 21
159.65299999999999
 31
0.0
  0
LINE
  5
466
  8
_________1
 62
     7
 10
-7.2261300000000004
 20
160.654
 30
0.0
 11
-7.2261300000000004
 21
159.65299999999999
 31
0.0
  0
LINE
  5
467
  8
_________1
 62
     7
 10
-5.4939299999999998
 20
160.654
 30
0.0
 11
-5.4939299999999998
 21
159.65299999999999
 31
0.0
  0
LINE
  5
468
  8
_________1
 62
     7
 10
-2.0295200000000002
 20
160.654
 30
0.0
 11
-2.0295200000000002
 21
159.65299999999999
 31
0.0
  0
LINE
  5
469
  8
_________1
 62
     7
 10
-0.298003
 20
160.654
 30
0.0
 11
-0.298003
 21
159.65299999999999
 31
0.0
  0
LINE
  5
46A
  8
_________1
 62
     7
 10
0.7382890000000001
 20
160.654
 30
0.0
 11
0.7382890000000001
 21
160.85400000000001
 31
0.0
  0
LINE
  5
46B
  8
_________1
 62
     7
 10
-8.2624200000000005
 20
160.654
 30
0.0
 11
-8.2624200000000005
 21
160.85400000000001
 31
0.0
  0
LINE
  5
46C
  8
_________1
 62
     7
 10
-8.2624200000000005
 20
160.654
 30
0.0
 11
0.7382890000000001
 21
160.654
 31
0.0
  0
LINE
  5
46D
  8
_________1
 62
     7
 10
-6.1622799999999991
 20
161.053
 30
0.0
 11
-6.1622799999999991
 21
166.85400000000001
 31
0.0
  0
LINE
  5
46E
  8
_________1
 62
     7
 10
-6.362099999999999
 20
161.053
 30
0.0
 11
-6.362099999999999
 21
166.85400000000001
 31
0.0
  0
LINE
  5
46F
  8
_________1
 62
     7
 10
-1.36185
 20
161.053
 30
0.0
 11
-1.36185
 21
166.85400000000001
 31
0.0
  0
LINE
  5
470
  8
_________1
 62
     7
 10
-1.1620399999999991
 20
161.053
 30
0.0
 11
-1.1620399999999991
 21
166.85400000000001
 31
0.0
  0
LINE
  5
471
  8
_________1
 62
     7
 10
-7.9620100000000003
 20
160.85400000000001
 30
0.0
 11
-7.9620100000000003
 21
161.053
 31
0.0
  0
LINE
  5
472
  8
_________1
 62
     7
 10
0.437874
 20
160.85400000000001
 30
0.0
 11
0.437874
 21
161.053
 31
0.0
  0
LINE
  5
473
  8
_________1
 62
     7
 10
-8.2624200000000005
 20
160.85400000000001
 30
0.0
 11
0.7382890000000001
 21
160.85400000000001
 31
0.0
  0
LINE
  5
474
  8
_________1
 62
     7
 10
-7.9620100000000003
 20
161.053
 30
0.0
 11
0.437874
 21
161.053
 31
0.0
  0
LINE
  5
475
  8
_________1
 62
     7
 10
-8.9059699999999982
 20
168.035
 30
0.0
 11
-9.2580600000000004
 21
167.964
 31
0.0
  0
LINE
  5
476
  8
_________1
 62
     7
 10
-9.8899000000000008
 20
167.3059999999999
 30
0.0
 11
-9.9622499999999992
 21
166.85400000000001
 31
0.0
  0
ARC
  5
477
  8
_________1
 62
     7
 10
-9.0809490000000004
 20
167.16126499999999
 30
0.0
 40
0.8218110000000001
 50
102.445899
 51
169.84988100000001
  0
ARC
  5
478
  8
_________1
 62
     7
 10
-9.2604310000000005
 20
169.63995
 30
0.0
 40
1.643886
 50
282.45205099999998
 51
349.84376800000001
  0
LINE
  5
479
  8
_________1
 62
     7
 10
-7.0504300000000004
 20
169.85400000000001
 30
0.0
 11
-3.7617199999999991
 21
169.85400000000001
 31
0.0
  0
ARC
  5
47A
  8
_________1
 62
     7
 10
-7.0333449999999988
 20
169.233566
 30
0.0
 40
0.620424
 50
91.578201000000021
 51
169.30537899999999
  0
LINE
  5
47B
  8
_________1
 62
     7
 10
-9.9622499999999992
 20
166.85400000000001
 30
0.0
 11
-3.7617199999999991
 21
166.85400000000001
 31
0.0
  0
LINE
  5
47C
  8
_________1
 62
     7
 10
1.38253
 20
168.035
 30
0.0
 11
1.7339299999999991
 21
167.964
 31
0.0
  0
LINE
  5
47D
  8
_________1
 62
     7
 10
2.365759999999999
 20
167.3059999999999
 30
0.0
 11
2.4381099999999991
 21
166.85400000000001
 31
0.0
  0
ARC
  5
47E
  8
_________1
 62
     7
 10
1.557458
 20
167.16188500000001
 30
0.0
 40
0.821067
 50
10.115435
 51
77.588744999999989
  0
ARC
  5
47F
  8
_________1
 62
     7
 10
1.734000999999999
 20
169.63708399999999
 30
0.0
 40
1.640445999999999
 50
190.0760939999999
 51
257.62812600000001
  0
LINE
  5
480
  8
_________1
 62
     7
 10
-0.4737040000000001
 20
169.85400000000001
 30
0.0
 11
-3.7617199999999991
 21
169.85400000000001
 31
0.0
  0
ARC
  5
481
  8
_________1
 62
     7
 10
-0.490911
 20
169.23342600000001
 30
0.0
 40
0.620568
 50
10.705323
 51
88.411057999999997
  0
LINE
  5
482
  8
_________1
 62
     7
 10
2.4381099999999991
 20
166.85400000000001
 30
0.0
 11
-3.7617199999999991
 21
166.85400000000001
 31
0.0
  0
ARC
  5
483
  8
_________1
 62
     7
 10
-5.5989990000000001
 20
180.07306399999999
 30
0.0
 40
0.5480380000000001
 50
111.87720400000001
 51
118.662689
  0
ARC
  5
484
  8
_________1
 62
     7
 10
-5.155441999999999
 20
179.03909100000001
 30
0.0
 40
1.673033999999999
 50
108.062842
 51
112.77916399999999
  0
ARC
  5
485
  8
_________1
 62
     7
 10
-4.7007510000000003
 20
177.638282
 30
0.0
 40
3.1457889999999988
 50
100.442195
 51
108.025458
  0
ARC
  5
486
  8
_________1
 62
     7
 10
-4.1889789999999989
 20
175.12494799999999
 30
0.0
 40
5.7104540000000004
 50
95.433281000000008
 51
100.921511
  0
ARC
  5
487
  8
_________1
 62
     7
 10
-3.824603999999999
 20
171.624526
 30
0.0
 40
9.2297030000000007
 50
89.609642000000008
 51
95.627548000000004
  0
ARC
  5
488
  8
_________1
 62
     7
 10
-1.8954209999999989
 20
180.13155
 30
0.0
 40
0.482803
 50
61.030760999999998
 51
68.103977
  0
ARC
  5
489
  8
_________1
 62
     7
 10
-2.3465689999999988
 20
179.095114
 30
0.0
 40
1.6130359999999999
 50
66.963967000000011
 51
71.702518000000012
  0
ARC
  5
48A
  8
_________1
 62
     7
 10
-2.8044689999999992
 20
177.704925
 30
0.0
 40
3.0766949999999991
 50
71.734224999999995
 51
79.338202999999993
  0
ARC
  5
48B
  8
_________1
 62
     7
 10
-3.3180469999999991
 20
175.231516
 30
0.0
 40
5.602619999999999
 50
78.856487000000001
 51
84.370896000000002
  0
ARC
  5
48C
  8
_________1
 62
     7
 10
-3.693808999999999
 20
171.75112799999999
 30
0.0
 40
9.1031399999999998
 50
84.165936000000002
 51
90.427454999999995
  0
INSERT
  5
48D
  8
_________1
 62
     7
  2
AIGNBL02010003
 10
0.0
 20
0.0
 30
0.0
  0
LINE
  5
48E
  8
_________1
 62
     7
 10
-56.652500000000003
 20
165.0859999999999
 30
0.0
 11
-57.125900000000001
 21
166.85400000000001
 31
0.0
  0
LINE
  5
48F
  8
_________1
 62
     7
 10
-57.125900000000001
 20
166.85400000000001
 30
0.0
 11
-57.599899999999998
 21
165.0859999999999
 31
0.0
  0
LINE
  5
490
  8
_________1
 62
     7
 10
-57.599899999999998
 20
165.0859999999999
 30
0.0
 11
-56.652500000000003
 21
165.0859999999999
 31
0.0
  0
LINE
  5
491
  8
_________1
 62
     7
 10
-57.582700000000003
 20
105.622
 30
0.0
 11
-57.108699999999992
 21
103.854
 31
0.0
  0
LINE
  5
492
  8
_________1
 62
     7
 10
-57.108699999999992
 20
103.854
 30
0.0
 11
-56.634599999999999
 21
105.622
 31
0.0
  0
LINE
  5
493
  8
_________1
 62
     7
 10
-56.634599999999999
 20
105.622
 30
0.0
 11
-57.582700000000003
 21
105.622
 31
0.0
  0
LINE
  5
494
  8
_________1
 62
     7
 10
-57.114199999999997
 20
103.854
 30
0.0
 11
-57.114199999999997
 21
166.85400000000001
 31
0.0
  0
LINE
  5
495
  8
_________1
 62
     7
 10
-57.759799999999998
 20
166.85400000000001
 30
0.0
 11
-51.256100000000004
 21
166.85400000000001
 31
0.0
  0
LINE
  5
496
  8
_________1
 62
     7
 10
-57.759799999999998
 20
103.854
 30
0.0
 11
-25.320599999999999
 21
103.854
 31
0.0
  0
LINE
  5
497
  8
_________1
 62
     7
 10
14.2376
 20
63.01809999999999
 30
0.0
 11
14.2376
 21
51.994399999999999
 31
0.0
  0
LINE
  5
498
  8
_________1
 62
     7
 10
12.2973
 20
66.041499999999999
 30
0.0
 11
12.2973
 21
66.046999999999997
 31
0.0
  0
LINE
  5
499
  8
_________1
 62
     7
 10
12.309100000000001
 20
65.332499999999996
 30
0.0
 11
12.309100000000001
 21
65.940200000000004
 31
0.0
  0
LINE
  5
49A
  8
_________1
 62
     7
 10
11.3851
 20
65.332499999999996
 30
0.0
 11
11.3851
 21
65.940200000000004
 31
0.0
  0
LINE
  5
49B
  8
_________1
 62
     7
 10
12.5419
 20
66.348100000000002
 30
0.0
 11
12.5419
 21
65.940200000000004
 31
0.0
  0
LINE
  5
49C
  8
_________1
 62
     7
 10
11.3871
 20
66.573400000000007
 30
0.0
 11
12.316599999999999
 21
66.573400000000007
 31
0.0
  0
ARC
  5
49D
  8
_________1
 62
     7
 10
12.308161999999999
 20
66.339658
 30
0.0
 40
0.233941
 50
2.0766139999999988
 51
87.923376000000005
  0
LINE
  5
49E
  8
_________1
 62
     7
 10
11.161799999999999
 20
66.348100000000002
 30
0.0
 11
11.161799999999999
 21
65.940200000000004
 31
0.0
  0
ARC
  5
49F
  8
_________1
 62
     7
 10
11.395609
 20
66.339671999999993
 30
0.0
 40
0.233927
 50
92.073256999999984
 51
177.92671300000001
  0
LINE
  5
4A0
  8
_________1
 62
     7
 10
11.161799999999999
 20
65.940200000000004
 30
0.0
 11
12.5419
 21
65.940200000000004
 31
0.0
  0
LINE
  5
4A1
  8
_________1
 62
     7
 10
12.2781
 20
65.2333
 30
0.0
 11
12.2781
 21
65.233999999999995
 31
0.0
  0
LINE
  5
4A2
  8
_________1
 62
     7
 10
11.1432
 20
65.332499999999996
 30
0.0
 11
10.946199999999999
 21
65.103099999999998
 31
0.0
  0
LINE
  5
4A3
  8
_________1
 62
     7
 10
12.523300000000001
 20
65.332499999999996
 30
0.0
 11
12.7204
 21
65.103099999999998
 31
0.0
  0
LINE
  5
4A4
  8
_________1
 62
     7
 10
12.7204
 20
62.213999999999999
 30
0.0
 11
12.523999999999999
 21
61.984499999999997
 31
0.0
  0
LINE
  5
4A5
  8
_________1
 62
     7
 10
10.9482
 20
62.213999999999999
 30
0.0
 11
11.145300000000001
 21
61.984499999999997
 31
0.0
  0
LINE
  5
4A6
  8
_________1
 62
     7
 10
11.145300000000001
 20
61.984499999999997
 30
0.0
 11
12.523999999999999
 21
61.984499999999997
 31
0.0
  0
ARC
  5
4A7
  8
_________1
 62
     7
 10
11.808085999999999
 20
62.857489000000001
 30
0.0
 40
0.716429
 50
2.0986750000000001
 51
87.901314999999997
  0
ARC
  5
4A8
  8
_________1
 62
     7
 10
11.860595999999999
 20
62.858167000000002
 30
0.0
 40
0.715754
 50
92.103666999999987
 51
177.95357100000001
  0
ARC
  5
4A9
  8
_________1
 62
     7
 10
11.860935
 20
62.91033800000001
 30
0.0
 40
0.7161310000000001
 50
182.12970799999999
 51
267.87032199999999
  0
ARC
  5
4AA
  8
_________1
 62
     7
 10
11.808135
 20
62.910628000000003
 30
0.0
 40
0.7164050000000001
 50
272.09485799999999
 51
357.84788500000002
  0
LINE
  5
4AB
  8
_________1
 62
     7
 10
12.7204
 20
62.209899999999998
 30
0.0
 11
12.7204
 21
65.107200000000006
 31
0.0
  0
LINE
  5
4AC
  8
_________1
 62
     7
 10
10.9482
 20
62.213999999999999
 30
0.0
 11
10.9482
 21
65.105099999999993
 31
0.0
  0
LINE
  5
4AD
  8
_________1
 62
     7
 10
11.1432
 20
65.332499999999996
 30
0.0
 11
12.523300000000001
 21
65.332499999999996
 31
0.0
  0
LINE
  5
4AE
  8
_________1
 62
     7
 10
-13.042199999999999
 20
63.6616
 30
0.0
 11
10.9482
 21
63.6616
 31
0.0
  0
LINE
  5
4AF
  8
_________1
 62
     7
 10
-13.042199999999999
 20
64.6614
 30
0.0
 11
10.9482
 21
64.6614
 31
0.0
  0
LINE
  5
4B0
  8
_________1
 62
     7
 10
12.7204
 20
63.669199999999996
 30
0.0
 11
14.039899999999999
 21
63.669199999999996
 31
0.0
  0
LINE
  5
4B1
  8
_________1
 62
     7
 10
12.7204
 20
64.653800000000004
 30
0.0
 11
14.039899999999999
 21
64.653800000000004
 31
0.0
  0
LINE
  5
4B2
  8
_________1
 62
     7
 10
14.2376
 20
63.866300000000003
 30
0.0
 11
14.039899999999999
 21
63.669199999999996
 31
0.0
  0
LINE
  5
4B3
  8
_________1
 62
     7
 10
14.039899999999999
 20
64.653800000000004
 30
0.0
 11
14.2376
 21
64.456800000000001
 31
0.0
  0
LINE
  5
4B4
  8
_________1
 62
     7
 10
14.2376
 20
63.866300000000003
 30
0.0
 11
14.2376
 21
64.456800000000001
 31
0.0
  0
LINE
  5
4B5
  8
_________1
 62
     7
 10
-29.781300000000002
 20
78.339200000000005
 30
0.0
 11
-17.743400000000001
 21
78.339200000000005
 31
0.0
  0
LINE
  5
4B6
  8
_________1
 62
     7
 10
-17.462299999999999
 20
78.058099999999996
 30
0.0
 11
-17.462299999999999
 21
77.942300000000003
 31
0.0
  0
ARC
  5
4B7
  8
_________1
 62
     7
 10
-17.75405799999999
 20
78.047418000000008
 30
0.0
 40
0.291987
 50
2.0943259999999988
 51
87.905664000000016
  0
ARC
  5
4B8
  8
_________1
 62
     7
 10
-29.770659999999999
 20
78.047432999999998
 30
0.0
 40
0.2919719999999999
 50
92.091549999999998
 51
177.90842000000001
  0
LINE
  5
4B9
  8
_________1
 62
     7
 10
-30.0624
 20
77.942300000000003
 30
0.0
 11
-30.0624
 21
78.058099999999996
 31
0.0
  0
LINE
  5
4BA
  8
_________1
 62
     7
 10
-19.907599999999999
 20
71.5702
 30
0.0
 11
-19.823499999999999
 21
71.5702
 31
0.0
  0
LINE
  5
4BB
  8
_________1
 62
     7
 10
-25.203399999999998
 20
71.936099999999996
 30
0.0
 11
-25.203399999999998
 21
73.583600000000004
 31
0.0
  0
ARC
  5
4BC
  8
_________1
 62
     7
 10
-24.82377
 20
71.949918000000011
 30
0.0
 40
0.379925
 50
182.08204599999999
 51
267.91798399999999
  0
LINE
  5
4BD
  8
_________1
 62
     7
 10
-24.837599999999998
 20
71.5702
 30
0.0
 11
-22.627199999999998
 21
71.5702
 31
0.0
  0
ARC
  5
4BE
  8
_________1
 62
     7
 10
-22.641404000000001
 20
71.949618000000001
 30
0.0
 40
0.379641
 50
272.14631600000001
 51
357.96169700000002
  0
ARC
  5
4BF
  8
_________1
 62
     7
 10
-24.823784
 20
73.569781999999989
 30
0.0
 40
0.37991
 50
92.079944000000026
 51
177.92002600000001
  0
LINE
  5
4C0
  8
_________1
 62
     7
 10
-24.837599999999998
 20
73.949399999999997
 30
0.0
 11
-22.627199999999998
 21
73.949399999999997
 31
0.0
  0
ARC
  5
4C1
  8
_________1
 62
     7
 10
-22.641404000000001
 20
73.570068000000006
 30
0.0
 40
0.379641
 50
2.0383029999999991
 51
87.853684000000015
  0
LINE
  5
4C2
  8
_________1
 62
     7
 10
-20.2728
 20
71.936099999999996
 30
0.0
 11
-20.2728
 21
73.583600000000004
 31
0.0
  0
ARC
  5
4C3
  8
_________1
 62
     7
 10
-19.893139999999999
 20
71.94986999999999
 30
0.0
 40
0.379901
 50
182.074826
 51
267.81720000000001
  0
LINE
  5
4C4
  8
_________1
 62
     7
 10
-22.262
 20
71.936099999999996
 30
0.0
 11
-22.262
 21
73.583600000000004
 31
0.0
  0
LINE
  5
4C5
  8
_________1
 62
     7
 10
-27.2409
 20
71.936099999999996
 30
0.0
 11
-27.2409
 21
73.583600000000004
 31
0.0
  0
LINE
  5
4C6
  8
_________1
 62
     7
 10
-27.7012
 20
71.5702
 30
0.0
 11
-27.6068
 21
71.5702
 31
0.0
  0
ARC
  5
4C7
  8
_________1
 62
     7
 10
-27.620958000000002
 20
71.950316000000001
 30
0.0
 40
0.380337
 50
272.13970699999999
 51
357.86030299999999
  0
LINE
  5
4C8
  8
_________1
 62
     7
 10
-19.907599999999999
 20
73.949399999999997
 30
0.0
 11
-19.823499999999999
 21
73.949399999999997
 31
0.0
  0
ARC
  5
4C9
  8
_________1
 62
     7
 10
-19.893397
 20
73.570072999999994
 30
0.0
 40
0.379635
 50
92.145521999999985
 51
177.96245200000001
  0
LINE
  5
4CA
  8
_________1
 62
     7
 10
-27.7012
 20
73.949399999999997
 30
0.0
 11
-27.6068
 21
73.949399999999997
 31
0.0
  0
ARC
  5
4CB
  8
_________1
 62
     7
 10
-27.620937999999999
 20
73.56939100000001
 30
0.0
 40
0.380315
 50
2.136674999999999
 51
87.863315000000014
  0
LINE
  5
4CC
  8
_________1
 62
     7
 10
-27.7012
 20
71.018999999999991
 30
0.0
 11
-27.7012
 21
71.5702
 31
0.0
  0
LINE
  5
4CD
  8
_________1
 62
     7
 10
-27.7012
 20
75.818799999999996
 30
0.0
 11
-27.871300000000002
 21
75.995800000000003
 31
0.0
  0
LINE
  5
4CE
  8
_________1
 62
     7
 10
-19.6968
 20
75.995800000000003
 30
0.0
 11
-19.823499999999999
 21
75.818799999999996
 31
0.0
  0
LINE
  5
4CF
  8
_________1
 62
     7
 10
-19.823499999999999
 20
71.5702
 30
0.0
 11
-19.823499999999999
 21
71.018999999999991
 31
0.0
  0
LINE
  5
4D0
  8
_________1
 62
     7
 10
-19.823499999999999
 20
75.818799999999996
 30
0.0
 11
-19.823499999999999
 21
73.949399999999997
 31
0.0
  0
LINE
  5
4D1
  8
_________1
 62
     7
 10
-30.0624
 20
77.942300000000003
 30
0.0
 11
-17.462299999999999
 21
77.942300000000003
 31
0.0
  0
LINE
  5
4D2
  8
_________1
 62
     7
 10
-13.042199999999999
 20
62.14439999999999
 30
0.0
 11
-13.042199999999999
 21
66.183499999999995
 31
0.0
  0
LINE
  5
4D3
  8
_________1
 62
     7
 10
-13.3233
 20
61.8626
 30
0.0
 11
-15.208500000000001
 21
61.8626
 31
0.0
  0
ARC
  5
4D4
  8
_________1
 62
     7
 10
-13.334021
 20
62.154407999999989
 30
0.0
 40
0.292012
 50
272.10373099999998
 51
358.03653800000001
  0
LINE
  5
4D5
  8
_________1
 62
     7
 10
-13.3233
 20
66.465299999999999
 30
0.0
 11
-15.208500000000001
 21
66.465299999999999
 31
0.0
  0
ARC
  5
4D6
  8
_________1
 62
     7
 10
-13.334656000000001
 20
66.172820999999999
 30
0.0
 40
0.292669
 50
2.083000999999999
 51
87.776731000000012
  0
LINE
  5
4D7
  8
_________1
 62
     7
 10
-15.208500000000001
 20
66.465299999999999
 30
0.0
 11
-15.208500000000001
 21
61.8626
 31
0.0
  0
LINE
  5
4D8
  8
_________1
 62
     7
 10
-19.627199999999998
 20
62.094099999999997
 30
0.0
 11
-27.898199999999999
 21
62.094099999999997
 31
0.0
  0
LINE
  5
4D9
  8
_________1
 62
     7
 10
-17.5105
 20
69.971000000000004
 30
0.0
 11
-30.015599999999999
 21
69.971000000000004
 31
0.0
  0
ARC
  5
4DA
  8
_________1
 62
     7
 10
-19.281338000000002
 20
61.887810999999992
 30
0.0
 40
0.4026930000000001
 50
90.679110999999978
 51
149.183886
  0
LINE
  5
4DB
  8
_________1
 62
     7
 10
-15.996
 20
62.044499999999999
 30
0.0
 11
-15.996
 21
66.278499999999994
 31
0.0
  0
ARC
  5
4DC
  8
_________1
 62
     7
 10
-19.217953000000001
 20
66.441787000000005
 30
0.0
 40
0.4095030000000001
 50
182.11365499999999
 51
267.88637499999999
  0
LINE
  5
4DD
  8
_________1
 62
     7
 10
-15.996
 20
62.044499999999999
 30
0.0
 11
-15.897500000000001
 21
61.946000000000012
 31
0.0
  0
LINE
  5
4DE
  8
_________1
 62
     7
 10
-15.897500000000001
 20
66.377099999999999
 30
0.0
 11
-15.996
 21
66.278499999999994
 31
0.0
  0
LINE
  5
4DF
  8
_________1
 62
     7
 10
-19.2331
 20
66.032600000000002
 30
0.0
 11
-15.996
 21
66.032600000000002
 31
0.0
  0
LINE
  5
4E0
  8
_________1
 62
     7
 10
-15.996
 20
62.290500000000002
 30
0.0
 11
-19.286100000000001
 21
62.290500000000002
 31
0.0
  0
LINE
  5
4E1
  8
_________1
 62
     7
 10
-15.208500000000001
 20
61.946000000000012
 30
0.0
 11
-15.897500000000001
 21
61.946000000000012
 31
0.0
  0
ARC
  5
4E2
  8
_________1
 62
     7
 10
-17.660610999999999
 20
75.936524000000006
 30
0.0
 40
2.0370219999999999
 50
99.110959000000008
 51
178.331288
  0
ARC
  5
4E3
  8
_________1
 62
     7
 10
-29.906718999999999
 20
75.937209999999993
 30
0.0
 40
2.0362200000000001
 50
1.6500170000000001
 51
80.907695999999987
  0
ARC
  5
4E4
  8
_________1
 62
     7
 10
-29.057282000000001
 20
70.405208000000002
 30
0.0
 40
0.6142340000000001
 50
92.109406000000007
 51
177.823747
  0
ARC
  5
4E5
  8
_________1
 62
     7
 10
-29.072787999999999
 20
70.432814000000008
 30
0.0
 40
0.5983000000000001
 50
180.410054
 51
230.41599299999999
  0
ARC
  5
4E6
  8
_________1
 62
     7
 10
-18.449856
 20
70.430039000000008
 30
0.0
 40
0.594849
 50
309.60145699999998
 51
359.85488199999998
  0
ARC
  5
4E7
  8
_________1
 62
     7
 10
-18.468122000000001
 20
70.405939000000004
 30
0.0
 40
0.613529
 50
2.1103869999999989
 51
87.822707999999992
  0
LINE
  5
4E8
  8
_________1
 62
     7
 10
-19.627199999999998
 20
67.983199999999997
 30
0.0
 11
-19.627199999999998
 21
66.426699999999997
 31
0.0
  0
ARC
  5
4E9
  8
_________1
 62
     7
 10
-28.903929000000002
 20
67.971528000000006
 30
0.0
 40
1.0057819999999991
 50
0.664253
 51
59.282992000000007
  0
ARC
  5
4EA
  8
_________1
 62
     7
 10
-18.622588
 20
67.971761999999998
 30
0.0
 40
1.004654999999999
 50
120.634918
 51
179.348364
  0
LINE
  5
4EB
  8
_________1
 62
     7
 10
-27.898199999999999
 20
62.094099999999997
 30
0.0
 11
-27.898199999999999
 21
67.983199999999997
 31
0.0
  0
LINE
  5
4EC
  8
_________1
 62
     7
 10
-17.5105
 20
69.774000000000001
 30
0.0
 11
-19.134499999999999
 21
68.836200000000005
 31
0.0
  0
LINE
  5
4ED
  8
_________1
 62
     7
 10
-17.5105
 20
69.774000000000001
 30
0.0
 11
-17.5105
 21
69.971000000000004
 31
0.0
  0
LINE
  5
4EE
  8
_________1
 62
     7
 10
-19.823499999999999
 20
61.502899999999997
 30
0.0
 11
-27.652200000000001
 21
61.502899999999997
 31
0.0
  0
LINE
  5
4EF
  8
_________1
 62
     7
 10
-19.873200000000001
 20
61.502899999999997
 30
0.0
 11
-19.873200000000001
 21
62.094099999999997
 31
0.0
  0
LINE
  5
4F0
  8
_________1
 62
     7
 10
-27.652200000000001
 20
61.502899999999997
 30
0.0
 11
-27.652200000000001
 21
62.094099999999997
 31
0.0
  0
LINE
  5
4F1
  8
_________1
 62
     7
 10
-27.7012
 20
60.391500000000001
 30
0.0
 11
-27.4345
 21
60.124200000000002
 31
0.0
  0
LINE
  5
4F2
  8
_________1
 62
     7
 10
-19.823499999999999
 20
60.391500000000001
 30
0.0
 11
-20.090900000000001
 21
60.124200000000002
 31
0.0
  0
LINE
  5
4F3
  8
_________1
 62
     7
 10
-19.823499999999999
 20
61.502899999999997
 30
0.0
 11
-19.823499999999999
 21
60.391500000000001
 31
0.0
  0
LINE
  5
4F4
  8
_________1
 62
     7
 10
-27.7012
 20
60.391500000000001
 30
0.0
 11
-27.7012
 21
61.502899999999997
 31
0.0
  0
LINE
  5
4F5
  8
_________1
 62
     7
 10
-20.090900000000001
 20
60.124200000000002
 30
0.0
 11
-27.4345
 21
60.124200000000002
 31
0.0
  0
LINE
  5
4F6
  8
_________1
 62
     7
 10
-30.015599999999999
 20
69.774000000000001
 30
0.0
 11
-28.3902
 21
68.836200000000005
 31
0.0
  0
LINE
  5
4F7
  8
_________1
 62
     7
 10
-30.015599999999999
 20
69.774000000000001
 30
0.0
 11
-30.015599999999999
 21
69.971000000000004
 31
0.0
  0
LINE
  5
4F8
  8
_________1
 62
     7
 10
-29.079899999999999
 20
71.018999999999991
 30
0.0
 11
-18.444800000000001
 21
71.018999999999991
 31
0.0
  0
LINE
  5
4F9
  8
_________1
 62
     7
 10
-15.208500000000001
 20
66.377099999999999
 30
0.0
 11
-15.897500000000001
 21
66.377099999999999
 31
0.0
  0
INSERT
  5
4FA
  8
_________1
 62
     7
  2
AIGNBL02010004
 10
0.0
 20
0.0
 30
0.0
  0
LINE
  5
4FB
  8
_________1
 62
     7
 10
-13.7918
 20
64.879099999999994
 30
0.0
 11
-15.208500000000001
 21
64.879099999999994
 31
0.0
  0
LINE
  5
4FC
  8
_________1
 62
     7
 10
-13.7918
 20
64.369299999999996
 30
0.0
 11
-15.208500000000001
 21
64.369299999999996
 31
0.0
  0
LINE
  5
4FD
  8
_________1
 62
     7
 10
-13.7918
 20
63.859400000000001
 30
0.0
 11
-15.208500000000001
 21
63.859400000000001
 31
0.0
  0
LINE
  5
4FE
  8
_________1
 62
     7
 10
-13.7918
 20
63.321300000000001
 30
0.0
 11
-15.208500000000001
 21
63.321300000000001
 31
0.0
  0
LINE
  5
4FF
  8
_________1
 62
     7
 10
-13.7918
 20
66.011899999999983
 30
0.0
 11
-15.208500000000001
 21
66.011899999999983
 31
0.0
  0
LINE
  5
500
  8
_________1
 62
     7
 10
-13.7918
 20
65.417299999999997
 30
0.0
 11
-15.208500000000001
 21
65.417299999999997
 31
0.0
  0
LINE
  5
501
  8
_________1
 62
     7
 10
-13.7918
 20
62.754899999999999
 30
0.0
 11
-15.208500000000001
 21
62.754899999999999
 31
0.0
  0
LINE
  5
502
  8
_________1
 62
     7
 10
-13.7918
 20
62.24499999999999
 30
0.0
 11
-15.208500000000001
 21
62.24499999999999
 31
0.0
  0
LINE
  5
503
  8
_________1
 62
     7
 10
-13.7918
 20
66.465299999999999
 30
0.0
 11
-13.7918
 21
61.8626
 31
0.0
  0
LINE
  5
504
  8
_________1
 62
     7
 10
-16.872499999999999
 20
66.032600000000002
 30
0.0
 11
-16.872499999999999
 21
62.290500000000002
 31
0.0
  0
LINE
  5
505
  8
_________1
 62
     7
 10
-29.079899999999999
 20
71.018999999999991
 30
0.0
 11
-35.0062
 21
71.018999999999991
 31
0.0
  0
LINE
  5
506
  8
_________1
 62
     7
 10
-29.709700000000002
 20
57.506599999999992
 30
0.0
 11
-39.479300000000002
 21
57.506599999999992
 31
0.0
  0
INSERT
  5
507
  8
_________1
 62
     7
  2
AIGNBL02010005
 10
0.0
 20
0.0
 30
0.0
  0
LINE
  5
508
  8
_________1
 62
     7
 10
-23.762699999999999
 20
57.869700000000002
 30
0.0
 11
-23.762699999999999
 21
51.993699999999997
 31
0.0
  0
LINE
  5
509
  8
_________1
 62
     7
 10
-16.476299999999998
 20
65.803799999999995
 30
0.0
 11
-15.996
 21
65.803799999999995
 31
0.0
  0
LINE
  5
50A
  8
_________1
 62
     7
 10
-15.996
 20
62.519199999999998
 30
0.0
 11
-16.476299999999998
 21
62.519199999999998
 31
0.0
  0
LINE
  5
50B
  8
_________1
 62
     7
 10
-16.476299999999998
 20
62.519199999999998
 30
0.0
 11
-16.872499999999999
 21
62.290500000000002
 31
0.0
  0
LINE
  5
50C
  8
_________1
 62
     7
 10
-20.090900000000001
 20
60.124200000000002
 30
0.0
 11
-20.090900000000001
 21
61.502899999999997
 31
0.0
  0
LINE
  5
50D
  8
_________1
 62
     7
 10
-27.7012
 20
60.391500000000001
 30
0.0
 11
-19.823499999999999
 21
60.391500000000001
 31
0.0
  0
LINE
  5
50E
  8
_________1
 62
     7
 10
-27.4345
 20
60.124200000000002
 30
0.0
 11
-27.4345
 21
61.502899999999997
 31
0.0
  0
LINE
  5
50F
  8
_________1
 62
     7
 10
-16.476299999999998
 20
62.290500000000002
 30
0.0
 11
-16.476299999999998
 21
66.032600000000002
 31
0.0
  0
LINE
  5
510
  8
_________1
 62
     7
 10
-16.872499999999999
 20
66.032600000000002
 30
0.0
 11
-16.476299999999998
 21
65.803799999999995
 31
0.0
  0
ARC
  5
511
  8
_________1
 62
     7
 10
12.492819000000001
 20
66.232219000000001
 30
0.0
 40
0.289919
 50
249.61181400000001
 51
270.041425
  0
ARC
  5
512
  8
_________1
 62
     7
 10
12.471660999999999
 20
66.152874999999995
 30
0.0
 40
0.20832
 50
202.23698300000001
 51
247.46355399999999
  0
ARC
  5
513
  8
_________1
 62
     7
 10
12.661809999999999
 20
66.239967000000007
 30
0.0
 40
0.4173770000000001
 50
177.06767400000001
 51
203.42518699999999
  0
ARC
  5
514
  8
_________1
 62
     7
 10
12.717102000000001
 20
66.263739999999999
 30
0.0
 40
0.4721280000000001
 50
163.93488099999999
 51
180.29387399999999
  0
ARC
  5
515
  8
_________1
 62
     7
 10
12.519239000000001
 20
66.315007999999992
 30
0.0
 40
0.267861
 50
115.774102
 51
162.76074199999999
  0
ARC
  5
516
  8
_________1
 62
     7
 10
11.214338
 20
66.220213000000001
 30
0.0
 40
0.279694
 50
273.078688
 51
293.56499200000002
  0
ARC
  5
517
  8
_________1
 62
     7
 10
11.23579
 20
66.150843999999992
 30
0.0
 40
0.20769
 50
295.79183399999999
 51
340.84000900000001
  0
ARC
  5
518
  8
_________1
 62
     7
 10
11.011609999999999
 20
66.24233199999999
 30
0.0
 40
0.4496630000000001
 50
339.20342399999998
 51
2.4199939999999991
  0
ARC
  5
519
  8
_________1
 62
     7
 10
10.968158000000001
 20
66.261938000000001
 30
0.0
 40
0.4927140000000001
 50
359.92789299999998
 51
15.856973
  0
ARC
  5
51A
  8
_________1
 62
     7
 10
11.192807
 20
66.32130699999999
 30
0.0
 40
0.260427
 50
16.797065
 51
64.779887000000002
  0
ARC
  5
51B
  8
_________1
 62
     7
 10
11.708703999999999
 20
66.233683999999997
 30
0.0
 40
0.291383
 50
249.66367399999999
 51
270.04240700000003
  0
ARC
  5
51C
  8
_________1
 62
     7
 10
11.686958000000001
 20
66.152433000000002
 30
0.0
 40
0.207787
 50
202.16535500000001
 51
247.499684
  0
ARC
  5
51D
  8
_________1
 62
     7
 10
11.878522
 20
66.239706999999996
 30
0.0
 40
0.418209
 50
177.03784899999999
 51
203.33697900000001
  0
ARC
  5
51E
  8
_________1
 62
     7
 10
11.933595
 20
66.265148999999994
 30
0.0
 40
0.472739
 50
164.04298499999999
 51
180.464336
  0
ARC
  5
51F
  8
_________1
 62
     7
 10
11.727930000000001
 20
66.316903999999994
 30
0.0
 40
0.260859
 50
100.438019
 51
162.55363399999999
  0
ARC
  5
520
  8
_________1
 62
     7
 10
11.999138
 20
66.220178000000004
 30
0.0
 40
0.279659
 50
273.07864000000001
 51
293.56646999999998
  0
ARC
  5
521
  8
_________1
 62
     7
 10
12.020747999999999
 20
66.150447999999983
 30
0.0
 40
0.207262
 50
295.798317
 51
340.91464100000002
  0
ARC
  5
522
  8
_________1
 62
     7
 10
11.798489999999999
 20
66.240636999999992
 30
0.0
 40
0.446969
 50
339.304643
 51
2.6520630000000001
  0
ARC
  5
523
  8
_________1
 62
     7
 10
11.744282999999999
 20
66.261542000000006
 30
0.0
 40
0.500698
 50
359.974422
 51
15.676748999999999
  0
ARC
  5
524
  8
_________1
 62
     7
 10
11.969684000000001
 20
66.320168999999993
 30
0.0
 40
0.267877
 50
16.630555999999999
 51
54.385222000000013
  0
ARC
  5
525
  8
_________1
 62
     7
 10
11.995471
 20
66.334126999999995
 30
0.0
 40
0.241854
 50
57.427481999999998
 51
80.634493999999989
  0
LINE
  5
526
  8
_________1
 62
     7
 10
12.1713
 20
65.940200000000004
 30
0.0
 11
12.1713
 21
65.332499999999996
 31
0.0
  0
LINE
  5
527
  8
_________1
 62
     7
 10
11.5222
 20
65.940200000000004
 30
0.0
 11
11.5222
 21
65.332499999999996
 31
0.0
  0
ARC
  5
528
  8
_________1
 62
     7
 10
11.463232
 20
62.694031999999993
 30
0.0
 40
0.5313210000000002
 50
194.240646
 51
229.31601900000001
  0
ARC
  5
529
  8
_________1
 62
     7
 10
11.68417
 20
62.910547999999999
 30
0.0
 40
0.8399499999999999
 50
227.515142
 51
249.45469800000001
  0
ARC
  5
52A
  8
_________1
 62
     7
 10
11.819853999999999
 20
63.218344000000002
 30
0.0
 40
1.1759399999999991
 50
248.52726999999999
 51
270.36925400000001
  0
ARC
  5
52B
  8
_________1
 62
     7
 10
11.826136
 20
63.239382999999997
 30
0.0
 40
1.196955999999999
 50
270.062071
 51
298.404315
  0
ARC
  5
52C
  8
_________1
 62
     7
 10
12.00891
 20
62.855592000000001
 30
0.0
 40
0.772732
 50
300.02058199999999
 51
322.59623900000003
  0
ARC
  5
52D
  8
_________1
 62
     7
 10
12.21055
 20
62.686570999999986
 30
0.0
 40
0.5100220000000001
 50
323.92012
 51
358.53963499999998
  0
ARC
  5
52E
  8
_________1
 62
     7
 10
12.215108000000001
 20
64.672204000000008
 30
0.0
 40
0.5153939999999999
 50
11.359336000000001
 51
47.172001999999999
  0
ARC
  5
52F
  8
_________1
 62
     7
 10
11.995006999999999
 20
64.471206999999993
 30
0.0
 40
0.812807
 50
45.424690999999989
 51
67.814216999999999
  0
ARC
  5
530
  8
_________1
 62
     7
 10
11.848323000000001
 20
64.162745999999999
 30
0.0
 40
1.1539829999999991
 50
66.853617
 51
90.592503999999991
  0
ARC
  5
531
  8
_________1
 62
     7
 10
11.837101000000001
 20
64.115196999999995
 30
0.0
 40
1.20147
 50
90.033934999999985
 51
116.93828000000001
  0
ARC
  5
532
  8
_________1
 62
     7
 10
11.674059
 20
64.479379000000009
 30
0.0
 40
0.803181
 50
118.339016
 51
140.05170799999999
  0
ARC
  5
533
  8
_________1
 62
     7
 10
11.478263
 20
64.657506999999995
 30
0.0
 40
0.5388130000000001
 50
141.204283
 51
169.63772
  0
LINE
  5
534
  8
_________1
 62
     7
 10
11.735799999999999
 20
62.201599999999992
 30
0.0
 11
11.735799999999999
 21
63.566499999999998
 31
0.0
  0
LINE
  5
535
  8
_________1
 62
     7
 10
11.9335
 20
62.201599999999992
 30
0.0
 11
11.9335
 21
63.566499999999998
 31
0.0
  0
LINE
  5
536
  8
_________1
 62
     7
 10
14.039899999999999
 20
64.653800000000004
 30
0.0
 11
14.039899999999999
 21
63.669199999999996
 31
0.0
  0
LINE
  5
537
  8
_________1
 62
     7
 10
-30.0624
 20
78.501099999999994
 30
0.0
 11
-30.0624
 21
83.459999999999994
 31
0.0
  0
LINE
  5
538
  8
_________1
 62
     7
 10
-30.2409
 20
78.339200000000005
 30
0.0
 11
-35.0062
 21
78.339200000000005
 31
0.0
  0
INSERT
  5
539
  8
_________1
 62
     7
  2
AIGNBL02010006
 10
0.0
 20
0.0
 30
0.0
  0
INSERT
  5
53A
  8
_________1
 62
     7
  2
AIGNBL02010007
 10
0.0
 20
0.0
 30
0.0
  0
LINE
  5
53B
  8
_________1
 62
     7
 10
-17.462299999999999
 20
77.985100000000003
 30
0.0
 11
-17.462299999999999
 21
83.459999999999994
 31
0.0
  0
INSERT
  5
53C
  8
_________1
 62
     7
  2
AIGNBL02010008
 10
0.0
 20
0.0
 30
0.0
  0
LINE
  5
53D
  8
_________1
  6
AIGENLINE001
 62
     7
 10
-23.762699999999999
 20
58.189399999999999
 30
0.0
 11
-23.762699999999999
 21
79.299700000000001
 31
0.0
  0
LINE
  5
53E
  8
_________1
  6
AIGENLINE001
 62
     7
 10
-31.309200000000001
 20
64.161900000000003
 30
0.0
 11
16.3522
 21
64.161900000000003
 31
0.0
  0
LINE
  5
53F
  8
_________1
 62
     7
 10
-27.7012
 20
73.949399999999997
 30
0.0
 11
-27.7012
 21
75.818799999999996
 31
0.0
  0
LINE
  5
540
  8
_________1
  6
AIGENLINE001
 62
     7
 10
11.8316
 20
61.245899999999999
 30
0.0
 11
11.8316
 21
67.473299999999995
 31
0.0
  0
ARC
  5
541
  8
_________1
 62
     7
 10
83.096216999999996
 20
243.17739
 30
0.0
 40
3.636391999999999
 50
272.1176779999999
 51
357.8879720000001
  0
ARC
  5
542
  8
_________1
 62
     7
 10
83.364233999999996
 20
243.17738
 30
0.0
 40
3.636355
 50
182.11190799999989
 51
267.89376200000009
  0
ARC
  5
543
  8
_________1
 62
     7
 10
83.364465999999993
 20
242.90932000000001
 30
0.0
 40
3.636588999999999
 50
92.109762000000003
 51
177.88738799999999
  0
ARC
  5
544
  8
_________1
 62
     7
 10
83.096925999999996
 20
242.91025099999999
 30
0.0
 40
3.6356510000000002
 50
2.0984590000000001
 51
87.893071000000006
  0
ARC
  5
545
  8
_________1
 62
     7
 10
63.230476000000003
 20
243.04355000000001
 30
0.0
 40
3.500067
 50
269.99720000000002
 51
359.9971700000001
  0
ARC
  5
546
  8
_________1
 62
     7
 10
63.363953000000002
 20
243.17666800000001
 30
0.0
 40
3.6356429999999991
 50
182.10109299999999
 51
267.89329700000002
  0
ARC
  5
547
  8
_________1
 62
     7
 10
63.364849
 20
242.909369
 30
0.0
 40
3.636565
 50
92.120288000000002
 51
177.88814199999999
  0
ARC
  5
548
  8
_________1
 62
     7
 10
63.23039
 20
243.04329000000001
 30
0.0
 40
3.5001540000000002
 50
0.00142
 51
90.001390000000001
  0
ARC
  5
549
  8
_________1
 62
     7
 10
43.230192000000002
 20
243.04355000000001
 30
0.0
 40
3.500067
 50
269.99720000000002
 51
359.9971700000001
  0
ARC
  5
54A
  8
_________1
 62
     7
 10
43.230192000000002
 20
243.043204
 30
0.0
 40
3.4997220000000002
 50
179.99715
 51
269.99720000000002
  0
ARC
  5
54B
  8
_________1
 62
     7
 10
43.230278999999989
 20
243.043634
 30
0.0
 40
3.4998089999999991
 50
90.004230000000007
 51
180.00424000000001
  0
ARC
  5
54C
  8
_________1
 62
     7
 10
43.230105999999992
 20
243.04329000000001
 30
0.0
 40
3.5001540000000002
 50
0.00142
 51
90.001390000000001
  0
LINE
  5
54D
  8
_________1
 62
     7
 10
-23.762
 20
257.93700000000001
 30
0.0
 11
-23.762
 21
252.77799999999999
 31
0.0
  0
LINE
  5
54E
  8
_________1
 62
     7
 10
-3.7617199999999991
 20
257.93900000000002
 30
0.0
 11
-3.7617199999999991
 21
252.39500000000001
 31
0.0
  0
LINE
  5
54F
  8
_________1
 62
     7
 10
-43.762300000000003
 20
257.93900000000002
 30
0.0
 11
-43.762300000000003
 21
252.39500000000001
 31
0.0
  0
LINE
  5
550
  8
_________1
 62
     7
 10
-21.994
 20
257.911
 30
0.0
 11
-23.762
 21
257.43700000000001
 31
0.0
  0
LINE
  5
551
  8
_________1
 62
     7
 10
-23.762
 20
257.43700000000001
 30
0.0
 11
-21.994
 21
256.96300000000002
 31
0.0
  0
LINE
  5
552
  8
_________1
 62
     7
 10
-21.994
 20
256.96300000000002
 30
0.0
 11
-21.994
 21
257.911
 31
0.0
  0
LINE
  5
553
  8
_________1
 62
     7
 10
-41.993600000000001
 20
257.911
 30
0.0
 11
-43.762300000000003
 21
257.43700000000001
 31
0.0
  0
LINE
  5
554
  8
_________1
 62
     7
 10
-43.762300000000003
 20
257.43700000000001
 30
0.0
 11
-41.993600000000001
 21
256.96300000000002
 31
0.0
  0
LINE
  5
555
  8
_________1
 62
     7
 10
-41.993600000000001
 20
256.96300000000002
 30
0.0
 11
-41.993600000000001
 21
257.911
 31
0.0
  0
LINE
  5
556
  8
_________1
 62
     7
 10
-25.530000000000001
 20
256.97500000000002
 30
0.0
 11
-23.762
 21
257.44799999999998
 31
0.0
  0
LINE
  5
557
  8
_________1
 62
     7
 10
-23.762
 20
257.44799999999998
 30
0.0
 11
-25.530000000000001
 21
257.92200000000003
 31
0.0
  0
LINE
  5
558
  8
_________1
 62
     7
 10
-25.530000000000001
 20
257.92200000000003
 30
0.0
 11
-25.530000000000001
 21
256.97500000000002
 31
0.0
  0
LINE
  5
559
  8
_________1
 62
     7
 10
-5.5297599999999987
 20
256.97500000000002
 30
0.0
 11
-3.7617199999999991
 21
257.44799999999998
 31
0.0
  0
LINE
  5
55A
  8
_________1
 62
     7
 10
-3.7617199999999991
 20
257.44799999999998
 30
0.0
 11
-5.5297599999999987
 21
257.92200000000003
 31
0.0
  0
LINE
  5
55B
  8
_________1
 62
     7
 10
-5.5297599999999987
 20
257.92200000000003
 30
0.0
 11
-5.5297599999999987
 21
256.97500000000002
 31
0.0
  0
LINE
  5
55C
  8
_________1
 62
     7
 10
-43.762300000000003
 20
257.44299999999998
 30
0.0
 11
-3.7617199999999991
 21
257.44299999999998
 31
0.0
  0
LINE
  5
55D
  8
_________1
 62
     7
 10
63.2303
 20
254.91300000000001
 30
0.0
 11
63.2303
 21
249.75399999999999
 31
0.0
  0
LINE
  5
55E
  8
_________1
 62
     7
 10
83.230599999999995
 20
254.91499999999999
 30
0.0
 11
83.230599999999995
 21
249.37100000000001
 31
0.0
  0
LINE
  5
55F
  8
_________1
 62
     7
 10
43.22999999999999
 20
254.91499999999999
 30
0.0
 11
43.22999999999999
 21
249.37100000000001
 31
0.0
  0
INSERT
  5
560
  8
_________1
 62
     7
  2
AIGNBL02010009
 10
0.0
 20
0.0
 30
0.0
  0
LINE
  5
561
  8
_________1
  6
AIGENLINE001
 62
     7
 10
83.230599999999995
 20
248.74600000000001
 30
0.0
 11
83.230599999999995
 21
237.36799999999999
 31
0.0
  0
LINE
  5
562
  8
_________1
  6
AIGENLINE001
 62
     7
 10
37.30510000000001
 20
243.04300000000001
 30
0.0
 11
89.480699999999985
 21
243.04300000000001
 31
0.0
  0
INSERT
  5
563
  8
_________1
 62
     7
  2
AIGNBL0201000A
 10
0.0
 20
0.0
 30
0.0
  0
LINE
  5
564
  8
_________1
  6
AIGENLINE001
 62
     7
 10
63.2303
 20
249.08500000000001
 30
0.0
 11
63.2303
 21
237.00200000000001
 31
0.0
  0
LINE
  5
565
  8
_________1
  6
AIGENLINE001
 62
     7
 10
43.22999999999999
 20
248.74600000000001
 30
0.0
 11
43.22999999999999
 21
237.185
 31
0.0
  0
LINE
  5
566
  8
_________2
 62
     7
 10
244.56100000000001
 20
280.15800000000002
 30
0.0
 11
244.56100000000001
 21
252.15799999999999
 31
0.0
  0
LINE
  5
567
  8
_________2
 62
     7
 10
269.87700000000001
 20
280.15800000000002
 30
0.0
 11
269.87700000000001
 21
252.15799999999999
 31
0.0
  0
TEXT
  5
568
  8
_________2
 62
     7
 10
278.65833466666658
 20
254.309
 30
0.0
 40
3.3734599999999988
  1
クロム
 41
0.5
 72
     1
 11
281.58199999999999
 21
254.309
 31
0.0
  0
TEXT
  5
569
  8
_________2
 62
     7
 10
248.7062283333334
 20
254.309
 30
0.0
 40
3.3734599999999988
  1
HR04260T-CH
 41
0.5
 72
     1
 11
257.42099999999999
 21
254.309
 31
0.0
  0
LINE
  5
56A
  8
_________2
 62
     7
 10
244.56100000000001
 20
252.15799999999999
 30
0.0
 11
293.459
 21
252.15799999999999
 31
0.0
  0
TEXT
  5
56B
  8
_________2
 62
     7
 10
272.69855533333327
 20
268.30900000000003
 30
0.0
 40
3.3734599999999988
  1
アンティークブラス
 41
0.5
 72
     1
 11
281.58199999999999
 21
268.30900000000003
 31
0.0
  0
TEXT
  5
56C
  8
_________2
 62
     7
 10
248.7062283333334
 20
268.30900000000003
 30
0.0
 40
3.3734599999999988
  1
HR04260T-AB
 41
0.5
 72
     1
 11
257.42099999999999
 21
268.30900000000003
 31
0.0
  0
LINE
  5
56D
  8
_________2
 62
     7
 10
244.56100000000001
 20
266.15800000000002
 30
0.0
 11
293.459
 21
266.15800000000002
 31
0.0
  0
TEXT
  5
56E
  8
_________2
 62
     7
 10
278.77078333333333
 20
261.30900000000003
 30
0.0
 40
3.3734599999999988
  1
ブラス
 41
0.5
 72
     1
 11
281.58199999999999
 21
261.30900000000003
 31
0.0
  0
TEXT
  5
56F
  8
_________2
 62
     7
 10
279.7828213333334
 20
275.30900000000003
 30
0.0
 40
3.3734599999999988
  1
仕上
 41
0.5
 72
     1
 11
281.58199999999999
 21
275.30900000000003
 31
0.0
  0
TEXT
  5
570
  8
_________2
 62
     7
 10
248.7062283333334
 20
261.30900000000003
 30
0.0
 40
3.3734599999999988
  1
HR04260T-PB
 41
0.5
 72
     1
 11
257.42099999999999
 21
261.30900000000003
 31
0.0
  0
TEXT
  5
571
  8
_________2
 62
     7
 10
255.62182133333329
 20
275.30900000000003
 30
0.0
 40
3.3734599999999988
  1
品番
 41
0.5
 72
     1
 11
257.42099999999999
 21
275.30900000000003
 31
0.0
  0
LINE
  5
572
  8
_________2
 62
     7
 10
244.56100000000001
 20
259.15800000000002
 30
0.0
 11
293.459
 21
259.15800000000002
 31
0.0
  0
LINE
  5
573
  8
_________2
 62
     7
 10
244.56100000000001
 20
273.15800000000002
 30
0.0
 11
293.459
 21
273.15800000000002
 31
0.0
  0
TEXT
  5
574
  8
_________2
 62
     7
 10
244.56100000000001
 20
246.55799999999999
 30
0.0
 40
3.3734599999999988
  1
注：色番号はカタログを参照ください
 41
0.5
  0
TEXT
  5
575
  8
_________2
 62
     7
 10
169.50999999999999
 20
112.446
 30
0.0
 40
3.9357000000000002
  1
※快適にお使いいただくためには、0.2～0.3MPa程度の圧力をおすすめします。
 41
0.5
  0
TEXT
  5
576
  8
_________2
 62
     7
 10
169.50999999999999
 20
118.526
 30
0.0
 40
3.9357000000000002
  1
0.5MPa（流動圧）
 41
0.5
  0
TEXT
  5
577
  8
_________2
 62
     7
 10
129.49600000000001
 20
126.148
 30
0.0
 40
3.9357000000000002
  1
給水圧力
 41
0.5
  0
TEXT
  5
578
  8
_________2
 62
     7
 10
129.49600000000001
 20
133.91
 30
0.0
 40
3.9357000000000002
  1
用途
 41
0.5
  0
TEXT
  5
579
  8
_________2
 62
     7
 10
169.50999999999999
 20
133.91
 30
0.0
 40
3.9357000000000002
  1
一般住宅用（屋内用）
 41
0.5
  0
LINE
  5
57A
  8
_________2
 62
     7
 10
145.64099999999999
 20
131.80199999999999
 30
0.0
 11
145.64099999999999
 21
110.46599999999999
 31
0.0
  0
LINE
  5
57B
  8
_________2
 62
     7
 10
166.97200000000001
 20
139.565
 30
0.0
 11
166.97200000000001
 21
61.980800000000002
 31
0.0
  0
LINE
  5
57C
  8
_________2
 62
     7
 10
290.16199999999998
 20
139.565
 30
0.0
 11
126.95699999999999
 21
139.565
 31
0.0
  0
LINE
  5
57D
  8
_________2
 62
     7
 10
126.95699999999999
 20
139.565
 30
0.0
 11
126.95699999999999
 21
61.980800000000002
 31
0.0
  0
LINE
  5
57E
  8
_________2
 62
     7
 10
126.95699999999999
 20
61.980800000000002
 30
0.0
 11
290.16199999999998
 21
61.980800000000002
 31
0.0
  0
LINE
  5
57F
  8
_________2
 62
     7
 10
290.16199999999998
 20
61.980800000000002
 30
0.0
 11
290.16199999999998
 21
139.565
 31
0.0
  0
TEXT
  5
580
  8
_________2
 62
     7
 10
147.41499999999999
 20
126.148
 30
0.0
 40
3.9357000000000002
  1
最低必要水圧
 41
0.5
  0
TEXT
  5
581
  8
_________2
 62
     7
 10
169.50999999999999
 20
126.148
 30
0.0
 40
3.9357000000000002
  1
0.1MPa（流動圧）
 41
0.5
  0
LINE
  5
582
  8
_________2
 62
     7
 10
126.95699999999999
 20
131.80199999999999
 30
0.0
 11
290.16199999999998
 21
131.80199999999999
 31
0.0
  0
TEXT
  5
583
  8
_________2
 62
     7
 10
129.49600000000001
 20
104.81100000000001
 30
0.0
 40
3.9357000000000002
  1
使用可能水質
 41
0.5
  0
TEXT
  5
584
  8
_________2
 62
     7
 10
169.50999999999999
 20
104.81100000000001
 30
0.0
 40
3.9357000000000002
  1
水道水
 41
0.5
  0
LINE
  5
585
  8
_________2
 62
     7
 10
126.95699999999999
 20
110.46599999999999
 30
0.0
 11
290.16199999999998
 21
110.46599999999999
 31
0.0
  0
TEXT
  5
586
  8
_________2
 62
     7
 10
147.41499999999999
 20
118.526
 30
0.0
 40
3.9357000000000002
  1
最高水圧
 41
0.5
  0
LINE
  5
587
  8
_________2
 62
     7
 10
145.64099999999999
 20
124.04000000000001
 30
0.0
 11
290.16199999999998
 21
124.04000000000001
 31
0.0
  0
TEXT
  5
588
  8
_________2
 62
     7
 10
129.49600000000001
 20
97.1892
 30
0.0
 40
3.9357000000000002
  1
使用環境温度
 41
0.5
  0
TEXT
  5
589
  8
_________2
 62
     7
 10
129.49600000000001
 20
83.615099999999998
 30
0.0
 40
3.9357000000000002
  1
最高給湯温度
 41
0.5
  0
TEXT
  5
58A
  8
_________2
 62
     7
 10
129.49600000000001
 20
69.912499999999994
 30
0.0
 40
3.9357000000000002
  1
特記事項
 41
0.5
  0
TEXT
  5
58B
  8
_________2
 62
     7
 10
169.50999999999999
 20
91.108900000000006
 30
0.0
 40
3.9357000000000002
  1
※寒冷地仕様ではありません、凍結が予想される場合は凍結予防をしてください。
 41
0.5
  0
TEXT
  5
58C
  8
_________2
 62
     7
 10
169.50999999999999
 20
97.1892
 30
0.0
 40
3.9357000000000002
  1
1～40℃
 41
0.5
  0
LINE
  5
58D
  8
_________2
 62
     7
 10
126.95699999999999
 20
102.703
 30
0.0
 11
290.16199999999998
 21
102.703
 31
0.0
  0
TEXT
  5
58E
  8
_________2
 62
     7
 10
169.50999999999999
 20
77.534800000000004
 30
0.0
 40
3.9357000000000002
  1
※安全のため給湯温度は60℃以下でのご使用をおすすめします。
 41
0.5
  0
TEXT
  5
58F
  8
_________2
 62
     7
 10
169.50999999999999
 20
83.615099999999998
 30
0.0
 40
3.9357000000000002
  1
65℃
 41
0.5
  0
TEXT
  5
590
  8
_________2
 62
     7
 10
169.50999999999999
 20
63.8322
 30
0.0
 40
3.9357000000000002
  1
（2）湯水を逆に配管しないでください。
 41
0.5
  0
TEXT
  5
591
  8
_________2
 62
     7
 10
169.50999999999999
 20
69.912499999999994
 30
0.0
 40
3.9357000000000002
  1
（1）水圧は湯水ほぼ同圧、且つ湯圧が水圧より高くならないように設定してください。
 41
0.5
  0
LINE
  5
592
  8
_________2
 62
     7
 10
126.95699999999999
 20
89.128999999999976
 30
0.0
 11
290.16199999999998
 21
89.128999999999976
 31
0.0
  0
LINE
  5
593
  8
_________2
 62
     7
 10
126.95699999999999
 20
75.554900000000004
 30
0.0
 11
290.16199999999998
 21
75.554900000000004
 31
0.0
  0
TEXT
  5
594
  8
_________2
 62
     7
 10
200.4570586666666
 20
34.465299999999999
 30
0.0
 40
3.6545800000000002
  1
1 ： 5
 41
0.5
 72
     1
 11
203.86799999999999
 21
34.465299999999999
 31
0.0
  0
TEXT
  5
595
  8
_________2
 62
     7
 10
246.570525
 20
30.3553
 30
0.0
 40
3.9357000000000002
  1
図中の表参照
 41
0.5
 72
     1
 11
253.458
 21
30.3553
 31
0.0
  0
TEXT
  5
596
  8
_________2
 62
     7
 10
149.3328003333333
 20
34.850499999999997
 30
0.0
 40
3.6545800000000002
  1
井田
 41
0.5
 72
     1
 11
151.221
 21
34.850499999999997
 31
0.0
  0
TEXT
  5
597
  8
_________2
 62
     7
 10
130.69789066666669
 20
34.850499999999997
 30
0.0
 40
3.6545800000000002
  1
恋塚
 41
0.5
 72
     1
 11
132.64699999999999
 21
34.850499999999997
 31
0.0
  0
TEXT
  5
598
  8
_________2
 62
     7
 10
177.69399999999999
 20
34.465299999999999
 30
0.0
 40
3.6545800000000002
  1
19.03.29
 41
0.5
  0
TEXT
  5
599
  8
_________2
 62
     7
 10
290.64778333333328
 20
12.808299999999999
 30
0.0
 40
3.3734599999999988
  1
A3
 41
0.5
 72
     2
 11
293.459
 21
12.808299999999999
 31
0.0
  0
TEXT
  5
59A
  8
_________2
 62
     7
 10
134.495
 20
21.954699999999999
 30
0.0
 40
3.9357000000000002
  1
（社）日本水道協会認証品
 41
0.5
  0
LINE
  5
59B
  8
_________2
 62
     7
 10
315.209
 20
148.65899999999999
 30
0.0
 11
293.459
 21
148.65899999999999
 31
0.0
  0
LINE
  5
59C
  8
_________2
 62
     7
 10
105.20699999999999
 20
17.156300000000002
 30
0.0
 11
105.20699999999999
 21
0.176045
 31
0.0
  0
LINE
  5
59D
  8
_________2
 62
     7
 10
105.20699999999999
 20
297.178
 30
0.0
 11
105.20699999999999
 21
280.15800000000002
 31
0.0
  0
LINE
  5
59E
  8
_________2
 62
     7
 10
-83.043899999999994
 20
148.65899999999999
 30
0.0
 11
-104.794
 21
148.65899999999999
 31
0.0
  0
INSERT
  5
59F
  8
_________2
 62
     7
  2
AIGNBL03010002
 10
0.0
 20
0.0
 30
0.0
  0
TEXT
  5
5A0
  8
_________2
 62
     7
 10
214.51300000000001
 20
22.9269
 30
0.0
 40
3.0923400000000001
  1
図番
 41
0.5
  0
LINE
  5
5A1
  8
_________2
 62
     7
 10
213.458
 20
27.156099999999999
 30
0.0
 11
293.459
 21
27.156099999999999
 31
0.0
  0
TEXT
  5
5A2
  8
_________2
 62
     7
 10
214.51300000000001
 20
32.926699999999997
 30
0.0
 40
3.0923400000000001
  1
品番
 41
0.5
  0
TEXT
  5
5A3
  8
_________2
 62
     7
 10
214.51300000000001
 20
53.0655
 30
0.0
 40
3.0923400000000001
  1
名称
 41
0.5
  0
TEXT
  5
5A4
  8
_________2
 62
     7
 10
201.75325833333329
 20
48.069400000000002
 30
0.0
 40
3.6545800000000002
  1
mm
 41
0.5
 72
     1
 11
203.27600000000001
 21
48.069400000000002
 31
0.0
  0
TEXT
  5
5A5
  8
_________2
 62
     7
 10
195.55099999999999
 20
53.0655
 30
0.0
 40
3.0923400000000001
  1
単位
 41
0.5
  0
TEXT
  5
5A6
  8
_________2
 62
     7
 10
195.55099999999999
 20
40.658200000000001
 30
0.0
 40
3.0923400000000001
  1
尺度
 41
0.5
  0
TEXT
  5
5A7
  8
_________2
 62
     7
 10
246.24254999999999
 20
20.354800000000001
 30
0.0
 40
3.9357000000000002
  1
HR04260T
 41
0.5
 72
     1
 11
253.458
 21
20.354800000000001
 31
0.0
  0
TEXT
  5
5A8
  8
_________2
 62
     7
 10
219.08699999999999
 20
45.473100000000002
 30
0.0
 40
3.9357000000000002
  1
エルザ　湯水混合水栓
 41
0.5
  0
TEXT
  5
5A9
  8
_________2
 62
     7
 10
176.501
 20
40.658200000000001
 30
0.0
 40
3.0923400000000001
  1
日付
 41
0.5
  0
TEXT
  5
5AA
  8
_________2
 62
     7
 10
139.547
 20
40.658200000000001
 30
0.0
 40
3.0923400000000001
  1
検図
 41
0.5
  0
TEXT
  5
5AB
  8
_________2
 62
     7
 10
127.929
 20
26.4588
 30
0.0
 40
3.0923400000000001
  1
備考
 41
0.5
  0
TEXT
  5
5AC
  8
_________2
 62
     7
 10
127.929
 20
40.658200000000001
 30
0.0
 40
3.0923400000000001
  1
製図
 41
0.5
  0
TEXT
  5
5AD
  8
_________2
 62
     7
 10
133.69596533333331
 20
49.184199999999997
 30
0.0
 40
4.4979399999999989
  1
セラトレーディング株式会社
 41
0.5
 72
     1
 11
151.08799999999999
 21
49.184199999999997
 31
0.0
  0
LINE
  5
5AE
  8
_________2
 62
     7
 10
293.459
 20
17.156300000000002
 30
0.0
 11
-83.043899999999994
 21
17.156300000000002
 31
0.0
  0
LINE
  5
5AF
  8
_________2
 62
     7
 10
-83.043899999999994
 20
17.156300000000002
 30
0.0
 11
-83.043899999999994
 21
280.15800000000002
 31
0.0
  0
LINE
  5
5B0
  8
_________2
 62
     7
 10
-83.043899999999994
 20
280.15800000000002
 30
0.0
 11
293.459
 21
280.15800000000002
 31
0.0
  0
LINE
  5
5B1
  8
_________2
 62
     7
 10
293.459
 20
280.15800000000002
 30
0.0
 11
293.459
 21
17.156300000000002
 31
0.0
  0
LINE
  5
5B2
  8
_________2
 62
     7
 10
175.458
 20
30.656400000000001
 30
0.0
 11
175.458
 21
57.156199999999998
 31
0.0
  0
LINE
  5
5B3
  8
_________2
 62
     7
 10
194.458
 20
30.656400000000001
 30
0.0
 11
194.458
 21
57.156199999999998
 31
0.0
  0
LINE
  5
5B4
  8
_________2
 62
     7
 10
126.95699999999999
 20
17.156300000000002
 30
0.0
 11
126.95699999999999
 21
57.156199999999998
 31
0.0
  0
LINE
  5
5B5
  8
_________2
 62
     7
 10
213.458
 20
17.156300000000002
 30
0.0
 11
213.458
 21
57.156199999999998
 31
0.0
  0
LINE
  5
5B6
  8
_________2
 62
     7
 10
138.45699999999999
 20
30.656400000000001
 30
0.0
 11
138.45699999999999
 21
44.65659999999999
 31
0.0
  0
LINE
  5
5B7
  8
_________2
 62
     7
 10
126.95699999999999
 20
30.656400000000001
 30
0.0
 11
213.458
 21
30.656400000000001
 31
0.0
  0
LINE
  5
5B8
  8
_________2
 62
     7
 10
126.95699999999999
 20
44.65659999999999
 30
0.0
 11
213.458
 21
44.65659999999999
 31
0.0
  0
LINE
  5
5B9
  8
_________2
 62
     7
 10
213.458
 20
37.15590000000001
 30
0.0
 11
293.459
 21
37.15590000000001
 31
0.0
  0
LINE
  5
5BA
  8
_________2
 62
     7
 10
126.95699999999999
 20
57.156199999999998
 30
0.0
 11
293.459
 21
57.156199999999998
 31
0.0
  0
ENDSEC
  0
EOF
