  0
SECTION
  2
HEADER
  9
$ACADVER
  1
AC1009
  9
$INSBASE
 10
0.0
 20
0.0
 30
0.0
  9
$EXTMIN
 10
-4.7012099999999988
 20
-21.070999999999991
 30
0.0
  9
$EXTMAX
 10
205.30099999999999
 20
275.93099999999993
 30
0.0
  9
$LIMMIN
 10
0.0
 20
0.0
  9
$LIMMAX
 10
12.0
 20
9.0
  9
$ORTHOMODE
 70
     0
  9
$REGENMODE
 70
     1
  9
$FILLMODE
 70
     1
  9
$QTEXTMODE
 70
     0
  9
$MIRRTEXT
 70
     1
  9
$DRAGMODE
 70
     2
  9
$LTSCALE
 40
1.0
  9
$OSMODE
 70
    37
  9
$ATTMODE
 70
     1
  9
$TEXTSIZE
 40
0.0
  9
$TRACEWID
 40
0.05
  9
$TEXTSTYLE
  7
STANDARD
  9
$CLAYER
  8
0
  9
$CELTYPE
  6
CONTINUOUS
  9
$CECOLOR
 62
   256
  9
$DIMSCALE
 40
1.0
  9
$DIMASZ
 40
0.18
  9
$DIMEXO
 40
0.0625
  9
$DIMDLI
 40
0.38
  9
$DIMRND
 40
0.0
  9
$DIMDLE
 40
0.0
  9
$DIMEXE
 40
0.18
  9
$DIMTP
 40
0.0
  9
$DIMTM
 40
0.0
  9
$DIMTXT
 40
0.18
  9
$DIMCEN
 40
0.09
  9
$DIMTSZ
 40
0.0
  9
$DIMTOL
 70
     0
  9
$DIMLIM
 70
     0
  9
$DIMTIH
 70
     1
  9
$DIMTOH
 70
     1
  9
$DIMSE1
 70
     0
  9
$DIMSE2
 70
     0
  9
$DIMTAD
 70
     0
  9
$DIMZIN
 70
     0
  9
$DIMBLK
  1

  9
$DIMASO
 70
     1
  9
$DIMSHO
 70
     1
  9
$DIMPOST
  1

  9
$DIMAPOST
  1

  9
$DIMALT
 70
     0
  9
$DIMALTD
 70
     2
  9
$DIMALTF
 40
25.399999999999999
  9
$DIMLFAC
 40
1.0
  9
$DIMTOFL
 70
     0
  9
$DIMTVP
 40
0.0
  9
$DIMTIX
 70
     0
  9
$DIMSOXD
 70
     0
  9
$DIMSAH
 70
     0
  9
$DIMBLK1
  1

  9
$DIMBLK2
  1

  9
$DIMSTYLE
  2
STANDARD
  9
$DIMCLRD
 70
     0
  9
$DIMCLRE
 70
     0
  9
$DIMCLRT
 70
     0
  9
$DIMTFAC
 40
1.0
  9
$DIMGAP
 40
0.09
  9
$LUNITS
 70
     2
  9
$LUPREC
 70
     4
  9
$SKETCHINC
 40
0.1
  9
$FILLETRAD
 40
0.0
  9
$AUNITS
 70
     0
  9
$AUPREC
 70
     0
  9
$MENU
  1
.
  9
$ELEVATION
 40
0.0
  9
$PELEVATION
 40
0.0
  9
$THICKNESS
 40
0.0
  9
$LIMCHECK
 70
     0
  9
$BLIPMODE
 70
     0
  9
$CHAMFERA
 40
0.0
  9
$CHAMFERB
 40
0.0
  9
$SKPOLY
 70
     0
  9
$TDCREATE
 40
2444972.375
  9
$TDUPDATE
 40
2455577.2515199999
  9
$TDINDWG
 40
0.0000123032
  9
$TDUSRTIMER
 40
0.0000123032
  9
$USRTIMER
 70
     1
  9
$ANGBASE
 50
0.0
  9
$ANGDIR
 70
     0
  9
$PDMODE
 70
     0
  9
$PDSIZE
 40
0.0
  9
$PLINEWID
 40
0.0
  9
$COORDS
 70
     1
  9
$SPLFRAME
 70
     0
  9
$SPLINETYPE
 70
     6
  9
$SPLINESEGS
 70
     8
  9
$ATTDIA
 70
     0
  9
$ATTREQ
 70
     1
  9
$HANDLING
 70
     1
  9
$HANDSEED
  5
555
  9
$SURFTAB1
 70
     6
  9
$SURFTAB2
 70
     6
  9
$SURFTYPE
 70
     6
  9
$SURFU
 70
     6
  9
$SURFV
 70
     6
  9
$UCSNAME
  2

  9
$UCSORG
 10
0.0
 20
0.0
 30
0.0
  9
$UCSXDIR
 10
1.0
 20
0.0
 30
0.0
  9
$UCSYDIR
 10
0.0
 20
1.0
 30
0.0
  9
$PUCSNAME
  2

  9
$PUCSORG
 10
0.0
 20
0.0
 30
0.0
  9
$PUCSXDIR
 10
1.0
 20
0.0
 30
0.0
  9
$PUCSYDIR
 10
0.0
 20
1.0
 30
0.0
  9
$USERI1
 70
     0
  9
$USERI2
 70
     0
  9
$USERI3
 70
     0
  9
$USERI4
 70
     0
  9
$USERI5
 70
     0
  9
$USERR1
 40
0.0
  9
$USERR2
 40
0.0
  9
$USERR3
 40
0.0
  9
$USERR4
 40
0.0
  9
$USERR5
 40
0.0
  9
$WORLDVIEW
 70
     1
  9
$SHADEDGE
 70
     3
  9
$SHADEDIF
 70
    70
  9
$TILEMODE
 70
     1
  9
$MAXACTVP
 70
    48
  9
$PLIMCHECK
 70
     0
  9
$PEXTMIN
 10
1.0000000000000000E+020
 20
1.0000000000000000E+020
 30
1.0000000000000000E+020
  9
$PEXTMAX
 10
-1.0000000000000000E+020
 20
-1.0000000000000000E+020
 30
-1.0000000000000000E+020
  9
$PLIMMIN
 10
0.0
 20
0.0
  9
$PLIMMAX
 10
12.0
 20
9.0
  9
$UNITMODE
 70
     0
  9
$VISRETAIN
 70
     1
  9
$PLINEGEN
 70
     0
  9
$PSLTSCALE
 70
     1
  0
ENDSEC
  0
SECTION
  2
TABLES
  0
TABLE
  2
VPORT
 70
     2
  0
VPORT
  2
*ACTIVE
 70
     0
 10
0.0
 20
0.0
 11
1.0
 21
1.0
 12
205.31019906752431
 22
127.42999999999989
 13
0.0
 23
0.0
 14
1.0
 24
1.0
 15
0.0
 25
0.0
 16
0.0
 26
0.0
 36
1.0
 17
0.0
 27
0.0
 37
0.0
 40
299.24634760705283
 41
2.2894736842105261
 42
50.0
 43
0.0
 44
0.0
 50
0.0
 51
0.0
 71
     0
 72
   100
 73
     1
 74
     1
 75
     0
 76
     0
 77
     0
 78
     0
  0
ENDTAB
  0
TABLE
  2
LTYPE
 70
     3
  0
LTYPE
  2
CONTINUOUS
 70
     0
  3
Solid line
 72
    65
 73
     0
 40
0.0
  0
LTYPE
  2
AIGENLINE001
 70
     0
  3
generate AI->DXF Converter
 72
    65
 73
     4
 40
5.8561449999999988
 49
3.5278
 49
-0.776115
 49
0.776115
 49
-0.776115
  0
LTYPE
  2
AIGENLINE002
 70
     0
  3
generate AI->DXF Converter
 72
    65
 73
     6
 40
7.4083750000000004
 49
3.5278
 49
-0.776115
 49
0.776115
 49
-0.776115
 49
0.776115
 49
-0.776115
  0
ENDTAB
  0
TABLE
  2
LAYER
 70
     2
  0
LAYER
  2
0
 70
     0
 62
     7
  6
CONTINUOUS
  0
LAYER
  2
_________2
 70
     0
 62
     7
  6
CONTINUOUS
  0
ENDTAB
  0
TABLE
  2
STYLE
 70
     1
  0
STYLE
  2
STANDARD
 70
     0
 40
0.0
 41
0.0
 50
0.0
 71
     0
 42
0.0
  3
TXT
  4
EXTFONT.SHX
  0
ENDTAB
  0
TABLE
  2
VIEW
 70
     0
  0
ENDTAB
  0
TABLE
  2
UCS
 70
     0
  0
ENDTAB
  0
TABLE
  2
APPID
 70
     1
  0
APPID
  2
ACAD
 70
     0
  0
ENDTAB
  0
TABLE
  2
DIMSTYLE
 70
     1
  0
DIMSTYLE
  2
STANDARD
 70
     0
  3

  4

  5

  6

  7

 40
1.0
 41
0.18
 42
0.0625
 43
0.38
 44
0.18
 45
0.0
 46
0.0
 47
0.0
 48
0.0
140
0.18
141
0.09
142
0.0
143
25.399999999999999
144
1.0
145
0.0
146
1.0
147
0.09
 71
     0
 72
     0
 73
     1
 74
     1
 75
     0
 76
     0
 77
     0
 78
     0
170
     0
171
     2
172
     0
173
     0
174
     0
175
     0
176
     0
177
     0
178
     0
  0
ENDTAB
  0
ENDSEC
  0
SECTION
  2
BLOCKS
  0
BLOCK
  8
0
  2
$MODEL_SPACE
 70
     0
 10
0.0
 20
0.0
 30
0.0
  3
$MODEL_SPACE
  1

  0
ENDBLK
  5
1A
  8
0
  0
BLOCK
 67
     1
  8
0
  2
$PAPER_SPACE
 70
     0
 10
0.0
 20
0.0
 30
0.0
  3
$PAPER_SPACE
  1

  0
ENDBLK
  5
17
 67
     1
  8
0
  0
ENDSEC
  0
SECTION
  2
ENTITIES
  0
TEXT
  5
23
  8
0
 62
     7
 10
104.749
 20
216.97900000000001
 30
0.0
 40
3.0923400000000001
  1
水
 41
0.5
  0
TEXT
  5
24
  8
0
 62
     7
 10
56.633671
 20
196.98500000000001
 30
0.0
 40
3.0923400000000001
  1
スパウト回転360%%d
 41
0.5
 72
     2
 11
72.662300000000002
 21
196.98500000000001
 31
0.0
  0
TEXT
  5
25
  8
0
 62
     7
 10
87.807234999999977
 20
205.99299999999999
 30
0.0
 40
3.0923400000000001
  1
45%%d
 41
0.5
 72
     1
 11
89.611099999999993
 21
205.99299999999999
 31
0.0
  0
TEXT
  5
26
  8
0
 62
     7
 10
68.056034999999994
 20
205.99299999999999
 30
0.0
 40
3.0923400000000001
  1
45%%d
 41
0.5
 72
     1
 11
69.859899999999996
 21
205.99299999999999
 31
0.0
  0
TEXT
  5
27
  8
0
 62
     7
 10
53.895608000000003
 20
216.97900000000001
 30
0.0
 40
3.0923400000000001
  1
湯
 41
0.5
 72
     2
 11
55.338700000000003
 21
216.97900000000001
 31
0.0
  0
TEXT
  5
28
  8
0
 62
     7
 10
146.93899999999991
 20
129.14015000000001
 30
0.0
 40
3.0923400000000001
  1
max.25
 50
90.0
 41
0.5
 72
     2
 11
146.93899999999991
 21
136.87100000000001
 31
0.0
  0
TEXT
  5
29
  8
0
 62
     7
 10
137.88498250000001
 20
155.37
 30
0.0
 40
3.0923400000000001
  1
160
 41
0.5
 72
     1
 11
139.55999999999989
 21
155.37
 31
0.0
  0
TEXT
  5
2A
  8
0
 62
     7
 10
146.6999999999999
 20
214.636
 30
0.0
 40
3.0923400000000001
  1
%%c35
 41
0.5
  0
TEXT
  5
2B
  8
0
 62
     7
 10
140.778986
 20
198.53099999999989
 30
0.0
 40
3.0923400000000001
  1
開
 41
0.5
 72
     2
 11
142.11899999999989
 21
198.53099999999989
 31
0.0
  0
TEXT
  5
2C
  8
0
 62
     7
 10
134.64498599999999
 20
190.84200000000001
 30
0.0
 40
3.0923400000000001
  1
閉
 41
0.5
 72
     2
 11
135.98500000000001
 21
190.84200000000001
 31
0.0
  0
TEXT
  5
2D
  8
0
 62
     7
 10
155.12764599999991
 20
206.31299999999999
 30
0.0
 40
3.0923400000000001
  1
水栓取付穴
 41
0.5
 72
     1
 11
159.56
 21
206.31299999999999
 31
0.0
  0
TEXT
  5
2E
  8
0
 62
     7
 10
20.139500000000002
 20
39.087299999999999
 30
0.0
 40
3.6545800000000002
  1
・国産洗面器とのセットの場合は国産の排水ヘッド部を別途準備してください。
 41
0.5
  0
TEXT
  5
2F
  8
0
 62
     7
 10
52.769582499999991
 20
48.036299999999997
 30
0.0
 40
3.0923400000000001
  1
180
 41
0.5
 72
     1
 11
54.444600000000001
 21
48.036299999999997
 31
0.0
  0
TEXT
  5
30
  8
0
 62
     7
 10
52.150100000000002
 20
67.667924999999997
 30
0.0
 40
3.0923400000000001
  1
%%c5
 50
90.0
 41
0.5
 72
     1
 11
52.150100000000002
 21
68.956400000000002
 31
0.0
  0
TEXT
  5
31
  8
0
 62
     7
 10
42.67851799999999
 20
55.370600000000003
 30
0.0
 40
3.0923400000000001
  1
G1 1/4
 41
0.5
 72
     2
 11
49.790900000000001
 21
55.370600000000003
 31
0.0
  0
TEXT
  5
32
  8
0
 62
     7
 10
26.3062
 20
63.905572499999998
 30
0.0
 40
3.0923400000000001
  1
50
 50
90.0
 41
0.5
 72
     1
 11
26.3062
 21
65.065200000000004
 31
0.0
  0
TEXT
  5
33
  8
0
 62
     7
 10
25.965800000000002
 20
71.145822500000008
 30
0.0
 40
3.0923400000000001
  1
max.50
 50
90.0
 41
0.5
 72
     1
 11
25.965800000000002
 21
74.882400000000004
 31
0.0
  0
TEXT
  5
34
  8
0
 62
     7
 10
35.428240000000002
 20
83.998800000000017
 30
0.0
 40
3.0923400000000001
  1
%%c63
 41
0.5
 72
     1
 11
37.489800000000002
 21
83.998800000000017
 31
0.0
  0
TEXT
  5
35
  8
0
 62
     7
 10
120.289
 20
65.257099999999994
 30
0.0
 40
3.865419999999999
  1
G 3/8
 41
0.5
  0
TEXT
  5
36
  8
0
 62
     7
 10
165.29404999999991
 20
77.865200000000002
 30
0.0
 40
3.0923400000000001
  1
%%c5
 41
0.5
 72
     2
 11
167.8709999999999
 21
77.865200000000002
 31
0.0
  0
TEXT
  5
37
  8
0
 62
     7
 10
157.62728749999991
 20
148.36299999999989
 30
0.0
 40
3.0923400000000001
  1
%%c60
 41
0.5
 72
     1
 11
159.56
 21
148.36299999999989
 31
0.0
  0
TEXT
  5
38
  8
0
 62
     7
 10
105.1839999999999
 20
161.8249825
 30
0.0
 40
3.0923400000000001
  1
210
 50
90.0
 41
0.5
 72
     1
 11
105.1839999999999
 21
163.49999999999989
 31
0.0
  0
TEXT
  5
39
  8
0
 62
     7
 10
98.271299999999997
 20
165.31728749999991
 30
0.0
 40
3.0923400000000001
  1
240
 50
90.0
 41
0.5
 72
     1
 11
98.271299999999997
 21
167.25
 31
0.0
  0
TEXT
  5
3A
  8
0
 62
     7
 10
112.2619999999999
 20
147.42352500000001
 30
0.0
 40
3.0923400000000001
  1
85
 50
90.0
 41
0.5
 72
     1
 11
112.2619999999999
 21
148.71199999999999
 31
0.0
  0
TEXT
  5
3B
  8
0
 62
     7
 10
112.277
 20
102.81728750000001
 30
0.0
 40
3.0923400000000001
  1
450
 50
90.0
 41
0.5
 72
     1
 11
112.277
 21
104.75
 31
0.0
  0
TEXT
  5
3C
  8
0
 62
     7
 10
105.1989999999999
 20
94.067187500000017
 30
0.0
 40
3.0923400000000001
  1
330
 50
90.0
 41
0.5
 72
     1
 11
105.1989999999999
 21
95.999899999999997
 31
0.0
  0
ARC
  5
3D
  8
0
 62
     7
 10
79.950013999999996
 20
240.82512899999989
 30
0.0
 40
40.721324000000003
 50
276.89937400000002
 51
311.58330699999988
  0
LINE
  5
3E
  8
0
 62
     7
 10
105.709
 20
208.45899999999989
 30
0.0
 11
106.977
 21
210.36600000000001
 31
0.0
  0
LINE
  5
3F
  8
0
 62
     7
 10
106.977
 20
210.36600000000001
 30
0.0
 11
104.926
 21
209.34899999999999
 31
0.0
  0
LINE
  5
40
  8
0
 62
     7
 10
104.926
 20
209.34899999999999
 30
0.0
 11
105.709
 21
208.45899999999989
 31
0.0
  0
ARC
  5
41
  8
0
 62
     7
 10
80.195125000000004
 20
240.82290099999989
 30
0.0
 40
40.719017000000001
 50
228.415648
 51
263.10137700000001
  0
ARC
  5
42
  8
0
  6
AIGENLINE002
 62
     7
 10
59.367019999999997
 20
246.9573959999999
 30
0.0
 40
17.535931000000001
 50
302.52777300000002
 51
321.81280299999992
  0
ARC
  5
43
  8
0
  6
AIGENLINE002
 62
     7
 10
86.478239000000002
 20
219.84755299999989
 30
0.0
 40
17.55302
 50
128.19304799999989
 51
147.472092
  0
LINE
  5
44
  8
0
  6
AIGENLINE001
 62
     7
 10
86.605900000000005
 20
247.0979999999999
 30
0.0
 11
56.049100000000003
 21
216.541
 31
0.0
  0
LINE
  5
45
  8
0
  6
AIGENLINE002
 62
     7
 10
68.795500000000004
 20
232.172
 30
0.0
 11
66.083200000000005
 21
230.44399999999999
 31
0.0
  0
ARC
  5
46
  8
0
  6
AIGENLINE002
 62
     7
 10
67.890680000000003
 20
227.66968700000001
 30
0.0
 40
3.311345999999999
 50
123.1036039999999
 51
179.08446699999999
  0
LINE
  5
47
  8
0
  6
AIGENLINE002
 62
     7
 10
71.680099999999996
 20
229.28700000000001
 30
0.0
 11
69.952100000000002
 21
226.57499999999999
 31
0.0
  0
ARC
  5
48
  8
0
  6
AIGENLINE002
 62
     7
 10
67.176938000000007
 20
228.383893
 30
0.0
 40
3.312419999999999
 50
270.94319899999999
 51
326.90820400000001
  0
LINE
  5
49
  8
0
  6
AIGENLINE002
 62
     7
 10
64.018500000000003
 20
226.28999999999999
 30
0.0
 11
63.478999999999999
 21
226.13499999999991
 31
0.0
  0
ARC
  5
4A
  8
0
  6
AIGENLINE002
 62
     7
 10
63.833995999999999
 20
226.830814
 30
0.0
 40
0.5838700000000001
 50
317.10958999999991
 51
42.940059999999988
  0
ARC
  5
4B
  8
0
  6
AIGENLINE002
 62
     7
 10
63.860847
 20
226.83542
 30
0.0
 40
0.5677450000000001
 50
286.16305999999997
 51
314.92419100000001
  0
LINE
  5
4C
  8
0
  6
AIGENLINE002
 62
     7
 10
65.798000000000002
 20
224.51099999999991
 30
0.0
 11
65.643299999999996
 21
223.97099999999989
 31
0.0
  0
ARC
  5
4D
  8
0
  6
AIGENLINE002
 62
     7
 10
66.350168999999994
 20
224.34053499999999
 30
0.0
 40
0.577846
 50
91.124010999999996
 51
162.872243
  0
ARC
  5
4E
  8
0
  6
AIGENLINE002
 62
     7
 10
66.335708999999994
 20
224.3484819999999
 30
0.0
 40
0.569797
 50
45.314363
 51
89.685828999999984
  0
LINE
  5
4F
  8
0
  6
AIGENLINE002
 62
     7
 10
64.579800000000006
 20
227.7229999999999
 30
0.0
 11
64.173199999999994
 21
227.31699999999989
 31
0.0
  0
LINE
  5
50
  8
0
  6
AIGENLINE002
 62
     7
 10
67.231499999999997
 20
225.072
 30
0.0
 11
66.8249
 21
224.66499999999991
 31
0.0
  0
LINE
  5
51
  8
0
  6
AIGENLINE002
 62
     7
 10
65.498900000000006
 20
225.99100000000001
 30
0.0
 11
66.8249
 21
224.66499999999991
 31
0.0
  0
LINE
  5
52
  8
0
  6
AIGENLINE002
 62
     7
 10
65.9054
 20
226.398
 30
0.0
 11
67.231499999999997
 21
225.072
 31
0.0
  0
LINE
  5
53
  8
0
  6
AIGENLINE002
 62
     7
 10
64.173199999999994
 20
227.31699999999989
 30
0.0
 11
65.498900000000006
 21
225.99100000000001
 31
0.0
  0
LINE
  5
54
  8
0
  6
AIGENLINE002
 62
     7
 10
64.579800000000006
 20
227.7229999999999
 30
0.0
 11
65.9054
 21
226.398
 31
0.0
  0
ARC
  5
55
  8
0
  6
AIGENLINE002
 62
     7
 10
63.914935999999997
 20
224.536214
 30
0.0
 40
1.8185579999999999
 50
256.14281299999988
 51
341.91063700000001
  0
ARC
  5
56
  8
0
  6
AIGENLINE002
 62
     7
 10
64.04311899999999
 20
224.498741
 30
0.0
 40
1.8177789999999989
 50
166.11998700000001
 51
251.93344400000001
  0
ARC
  5
57
  8
0
  6
AIGENLINE002
 62
     7
 10
63.989169999999987
 20
224.42467799999989
 30
0.0
 40
1.7851900000000001
 50
106.6040279999999
 51
163.39594299999999
  0
ARC
  5
58
  8
0
  6
AIGENLINE002
 62
     7
 10
100.779083
 20
246.9573959999999
 30
0.0
 40
17.535931000000001
 50
218.187217
 51
237.47224700000001
  0
ARC
  5
59
  8
0
  6
AIGENLINE002
 62
     7
 10
73.667863999999994
 20
219.84755299999989
 30
0.0
 40
17.55302
 50
32.52788799999999
 51
51.806933000000001
  0
LINE
  5
5A
  8
0
  6
AIGENLINE001
 62
     7
 10
159.56
 20
152.3129999999999
 30
0.0
 11
159.56
 21
191.34099999999989
 31
0.0
  0
LINE
  5
5B
  8
0
 62
     7
 10
119.5599999999999
 20
158.291
 30
0.0
 11
119.5599999999999
 21
153.77199999999999
 31
0.0
  0
LINE
  5
5C
  8
0
  6
AIGENLINE001
 62
     7
 10
139.8539999999999
 20
116.0
 30
0.0
 11
159.56
 21
103.041
 31
0.0
  0
LINE
  5
5D
  8
0
 62
     7
 10
141.16699999999989
 20
80.001499999999993
 30
0.0
 11
141.16699999999989
 21
107.9909999999999
 31
0.0
  0
LINE
  5
5E
  8
0
 62
     7
 10
138.542
 20
107.9909999999999
 30
0.0
 11
138.542
 21
80.001499999999993
 31
0.0
  0
LINE
  5
5F
  8
0
  6
AIGENLINE001
 62
     7
 10
139.8539999999999
 20
116.0
 30
0.0
 11
139.8539999999999
 21
71.037599999999998
 31
0.0
  0
LINE
  5
60
  8
0
 62
     7
 10
139.8539999999999
 20
72.499399999999994
 30
0.0
 11
139.8539999999999
 21
75.124600000000001
 31
0.0
  0
LINE
  5
61
  8
0
 62
     7
 10
137.4789999999999
 20
72.499399999999994
 30
0.0
 11
137.4789999999999
 21
75.124600000000001
 31
0.0
  0
ARC
  5
62
  8
0
 62
     7
 10
140.79886099999999
 20
85.743376999999995
 30
0.0
 40
13.653708999999999
 50
255.92819600000001
 51
258.80987900000002
  0
ARC
  5
63
  8
0
 62
     7
 10
138.71184899999989
 20
75.501241000000007
 30
0.0
 40
3.2018299999999988
 50
259.878086
 51
269.41943900000001
  0
ARC
  5
64
  8
0
 62
     7
 10
138.6781169999999
 20
74.814086000000003
 30
0.0
 40
2.5145110000000002
 50
270.02938499999988
 51
277.0153029999999
  0
ARC
  5
65
  8
0
 62
     7
 10
138.25301899999991
 20
78.010307999999995
 30
0.0
 40
5.7388099999999991
 50
277.33026899999987
 51
286.20099699999997
  0
ARC
  5
66
  8
0
 62
     7
 10
138.461398
 20
71.050963999999993
 30
0.0
 40
4.3051309999999994
 50
71.124105
 51
87.09734499999999
  0
ARC
  5
67
  8
0
 62
     7
 10
138.68038499999989
 20
72.315545999999983
 30
0.0
 40
3.0350259999999989
 50
90.018477000000019
 51
105.049155
  0
ARC
  5
68
  8
0
 62
     7
 10
139.12842599999991
 20
70.295406
 30
0.0
 40
5.1030410000000002
 50
104.017822
 51
108.85649699999991
  0
ARC
  5
69
  8
0
 62
     7
 10
143.140941
 20
85.626987
 30
0.0
 40
13.532793
 50
255.94384299999999
 51
258.89378900000003
  0
ARC
  5
6A
  8
0
 62
     7
 10
141.08533799999989
 20
75.474232999999998
 30
0.0
 40
3.174806999999999
 50
260.00184200000001
 51
269.44291800000002
  0
ARC
  5
6B
  8
0
 62
     7
 10
141.05318
 20
74.814267999999998
 30
0.0
 40
2.514692999999999
 50
270.02939300000003
 51
277.01504799999992
  0
ARC
  5
6C
  8
0
 62
     7
 10
140.6258629999999
 20
78.027027000000004
 30
0.0
 40
5.7556769999999986
 50
277.33105699999999
 51
286.182367
  0
LINE
  5
6D
  8
0
 62
     7
 10
142.2299999999999
 20
72.499399999999994
 30
0.0
 11
142.2299999999999
 21
75.124600000000001
 31
0.0
  0
ARC
  5
6E
  8
0
 62
     7
 10
140.835229
 20
71.040300999999999
 30
0.0
 40
4.3158419999999991
 50
71.145751000000004
 51
87.088160999999985
  0
ARC
  5
6F
  8
0
 62
     7
 10
141.05544499999999
 20
72.317854999999994
 30
0.0
 40
3.0327160000000002
 50
90.018420999999975
 51
105.0549179999999
  0
ARC
  5
70
  8
0
 62
     7
 10
141.51357799999991
 20
70.258130000000008
 30
0.0
 40
5.1415779999999991
 50
104.023017
 51
108.8286299999999
  0
LINE
  5
71
  8
0
 62
     7
 10
142.2299999999999
 20
72.299599999999998
 30
0.0
 11
142.2299999999999
 21
72.499399999999994
 31
0.0
  0
LINE
  5
72
  8
0
 62
     7
 10
142.2299999999999
 20
75.124600000000001
 30
0.0
 11
142.2299999999999
 21
75.3506
 31
0.0
  0
LINE
  5
73
  8
0
 62
     7
 10
137.4789999999999
 20
72.299599999999998
 30
0.0
 11
137.4789999999999
 21
72.499399999999994
 31
0.0
  0
LINE
  5
74
  8
0
 62
     7
 10
137.4789999999999
 20
75.124600000000001
 30
0.0
 11
137.4789999999999
 21
75.3506
 31
0.0
  0
LINE
  5
75
  8
0
 62
     7
 10
141.1049999999999
 20
75.524900000000002
 30
0.0
 11
139.8539999999999
 21
75.524900000000002
 31
0.0
  0
LINE
  5
76
  8
0
 62
     7
 10
139.8539999999999
 20
75.524900000000002
 30
0.0
 11
138.60499999999999
 21
75.524900000000002
 31
0.0
  0
LINE
  5
77
  8
0
 62
     7
 10
142.2299999999999
 20
72.299599999999998
 30
0.0
 11
142.155
 21
72.25
 31
0.0
  0
LINE
  5
78
  8
0
 62
     7
 10
142.155
 20
72.25
 30
0.0
 11
137.55399999999989
 21
72.25
 31
0.0
  0
LINE
  5
79
  8
0
 62
     7
 10
137.55399999999989
 20
72.25
 30
0.0
 11
137.4789999999999
 21
72.299599999999998
 31
0.0
  0
ARC
  5
7A
  8
0
 62
     7
 10
142.14894599999991
 20
75.10619100000001
 30
0.0
 40
0.257453
 50
71.662652000000008
 51
95.366439999999997
  0
ARC
  5
7B
  8
0
 62
     7
 10
141.107303
 20
48.110672999999998
 30
0.0
 40
27.270834000000001
 50
87.861601000000007
 51
90.29674399999999
  0
ARC
  5
7C
  8
0
 62
     7
 10
139.9863729999999
 20
-354.40242699999988
 30
0.0
 40
429.78468499999991
 50
89.869384999999994
 51
90.324227000000036
  0
LINE
  5
7D
  8
0
 62
     7
 10
137.55399999999989
 20
75.375399999999985
 30
0.0
 11
137.4789999999999
 21
75.3506
 31
0.0
  0
LINE
  5
7E
  8
0
 62
     7
 10
141.40399999999991
 20
75.375399999999985
 30
0.0
 11
141.40399999999991
 21
75.500100000000003
 31
0.0
  0
LINE
  5
7F
  8
0
 62
     7
 10
141.40399999999991
 20
75.500100000000003
 30
0.0
 11
138.304
 21
75.500100000000003
 31
0.0
  0
LINE
  5
80
  8
0
 62
     7
 10
138.304
 20
75.375399999999985
 30
0.0
 11
138.304
 21
75.500100000000003
 31
0.0
  0
LINE
  5
81
  8
0
 62
     7
 10
138.60499999999999
 20
75.524900000000002
 30
0.0
 11
138.2289999999999
 21
75.826000000000008
 31
0.0
  0
LINE
  5
82
  8
0
 62
     7
 10
138.2289999999999
 20
75.826000000000008
 30
0.0
 11
138.20400000000001
 21
76.325500000000005
 31
0.0
  0
LINE
  5
83
  8
0
 62
     7
 10
141.50599999999989
 20
76.325500000000005
 30
0.0
 11
141.4799999999999
 21
75.826000000000008
 31
0.0
  0
LINE
  5
84
  8
0
 62
     7
 10
141.4799999999999
 20
75.826000000000008
 30
0.0
 11
141.1049999999999
 21
75.524900000000002
 31
0.0
  0
LINE
  5
85
  8
0
 62
     7
 10
141.30500000000001
 20
76.750699999999995
 30
0.0
 11
138.405
 21
76.750699999999995
 31
0.0
  0
LINE
  5
86
  8
0
 62
     7
 10
138.405
 20
76.750699999999995
 30
0.0
 11
138.20400000000001
 21
76.325500000000005
 31
0.0
  0
LINE
  5
87
  8
0
 62
     7
 10
141.50599999999989
 20
76.325500000000005
 30
0.0
 11
141.30500000000001
 21
76.750699999999995
 31
0.0
  0
LINE
  5
88
  8
0
 62
     7
 10
141.30500000000001
 20
78.750900000000001
 30
0.0
 11
138.405
 21
78.750900000000001
 31
0.0
  0
LINE
  5
89
  8
0
 62
     7
 10
138.405
 20
76.750699999999995
 30
0.0
 11
138.405
 21
78.750900000000001
 31
0.0
  0
LINE
  5
8A
  8
0
 62
     7
 10
141.30500000000001
 20
76.750699999999995
 30
0.0
 11
141.30500000000001
 21
78.750900000000001
 31
0.0
  0
LINE
  5
8B
  8
0
 62
     7
 10
138.405
 20
78.750900000000001
 30
0.0
 11
138.2289999999999
 21
79.051299999999983
 31
0.0
  0
LINE
  5
8C
  8
0
 62
     7
 10
141.4799999999999
 20
79.051299999999983
 30
0.0
 11
141.30500000000001
 21
78.750900000000001
 31
0.0
  0
LINE
  5
8D
  8
0
 62
     7
 10
138.2289999999999
 20
79.051299999999983
 30
0.0
 11
138.179
 21
79.176000000000002
 31
0.0
  0
LINE
  5
8E
  8
0
 62
     7
 10
138.179
 20
79.176000000000002
 30
0.0
 11
138.179
 21
79.300700000000006
 31
0.0
  0
ARC
  5
8F
  8
0
 62
     7
 10
140.87842000000001
 20
79.368354000000011
 30
0.0
 40
0.6796520000000001
 50
332.19456300000002
 51
354.29082199999999
  0
LINE
  5
90
  8
0
 62
     7
 10
141.55500000000001
 20
79.300700000000006
 30
0.0
 11
141.55500000000001
 21
80.001499999999993
 31
0.0
  0
LINE
  5
91
  8
0
 62
     7
 10
141.55500000000001
 20
80.001499999999993
 30
0.0
 11
138.179
 21
80.001499999999993
 31
0.0
  0
LINE
  5
92
  8
0
 62
     7
 10
138.179
 20
79.300700000000006
 30
0.0
 11
138.179
 21
80.001499999999993
 31
0.0
  0
LINE
  5
93
  8
0
  6
AIGENLINE001
 62
     7
 10
132.71000000000001
 20
116.0
 30
0.0
 11
159.56
 21
98.343300000000013
 31
0.0
  0
LINE
  5
94
  8
0
 62
     7
 10
153.81
 20
131.0
 30
0.0
 11
153.81
 21
129.126
 31
0.0
  0
LINE
  5
95
  8
0
 62
     7
 10
153.81
 20
129.126
 30
0.0
 11
164.56099999999989
 21
129.751
 31
0.0
  0
LINE
  5
96
  8
0
 62
     7
 10
156.81
 20
123.0
 30
0.0
 11
157.31099999999989
 21
123.0
 31
0.0
  0
LINE
  5
97
  8
0
 62
     7
 10
156.31
 20
122.5
 30
0.0
 11
156.31
 21
125.251
 31
0.0
  0
LINE
  5
98
  8
0
 62
     7
 10
157.81
 20
122.5
 30
0.0
 11
157.81
 21
125.251
 31
0.0
  0
LINE
  5
99
  8
0
 62
     7
 10
156.81
 20
122.5
 30
0.0
 11
156.81
 21
123.0
 31
0.0
  0
LINE
  5
9A
  8
0
 62
     7
 10
157.31099999999989
 20
122.5
 30
0.0
 11
157.31099999999989
 21
123.0
 31
0.0
  0
LINE
  5
9B
  8
0
 62
     7
 10
155.435
 20
122.5
 30
0.0
 11
155.435
 21
125.251
 31
0.0
  0
LINE
  5
9C
  8
0
 62
     7
 10
157.31099999999989
 20
122.5
 30
0.0
 11
158.24799999999991
 21
122.5
 31
0.0
  0
LINE
  5
9D
  8
0
 62
     7
 10
155.435
 20
122.5
 30
0.0
 11
156.81
 21
122.5
 31
0.0
  0
LINE
  5
9E
  8
0
 62
     7
 10
155.435
 20
125.251
 30
0.0
 11
158.24799999999991
 21
125.251
 31
0.0
  0
LINE
  5
9F
  8
0
 62
     7
 10
154.80999999999989
 20
128.751
 30
0.0
 11
154.56
 21
129.126
 31
0.0
  0
LINE
  5
A0
  8
0
 62
     7
 10
155.56
 20
128.75
 30
0.0
 11
155.56
 21
125.251
 31
0.0
  0
LINE
  5
A1
  8
0
 62
     7
 10
158.24799999999991
 20
128.751
 30
0.0
 11
154.80999999999989
 21
128.751
 31
0.0
  0
LINE
  5
A2
  8
0
 62
     7
 10
157.93600000000001
 20
137.25
 30
0.0
 11
157.93600000000001
 21
131.0
 31
0.0
  0
LINE
  5
A3
  8
0
 62
     7
 10
156.18499999999989
 20
137.25
 30
0.0
 11
156.18499999999989
 21
131.0
 31
0.0
  0
LINE
  5
A4
  8
0
 62
     7
 10
153.81
 20
130.501
 30
0.0
 11
164.56099999999989
 21
130.501
 31
0.0
  0
LINE
  5
A5
  8
0
 62
     7
 10
153.81
 20
131.0
 30
0.0
 11
164.56099999999989
 21
131.0
 31
0.0
  0
LINE
  5
A6
  8
0
  6
AIGENLINE001
 62
     7
 10
167.91399999999999
 20
155.06
 30
0.0
 11
160.31100000000001
 21
141.89099999999991
 31
0.0
  0
LINE
  5
A7
  8
0
  6
AIGENLINE001
 62
     7
 10
119.5599999999999
 20
166.92500000000001
 30
0.0
 11
119.5599999999999
 21
159.11199999999999
 31
0.0
  0
LINE
  5
A8
  8
0
  6
AIGENLINE001
 62
     7
 10
157.05999999999989
 20
140.24100000000001
 30
0.0
 11
157.05999999999989
 21
120.9229999999999
 31
0.0
  0
LINE
  5
A9
  8
0
 62
     7
 10
164.56099999999989
 20
131.0
 30
0.0
 11
164.56099999999989
 21
129.751
 31
0.0
  0
LINE
  5
AA
  8
0
 62
     7
 10
134.023
 20
80.001499999999993
 30
0.0
 11
134.023
 21
107.9909999999999
 31
0.0
  0
LINE
  5
AB
  8
0
 62
     7
 10
131.39799999999991
 20
107.9909999999999
 30
0.0
 11
131.39799999999991
 21
80.001499999999993
 31
0.0
  0
LINE
  5
AC
  8
0
 62
     7
 10
160.87299999999991
 20
106.309
 30
0.0
 11
160.87299999999991
 21
129.54699999999991
 31
0.0
  0
LINE
  5
AD
  8
0
 62
     7
 10
160.87299999999991
 20
131.0
 30
0.0
 11
160.87299999999991
 21
137.25
 31
0.0
  0
LINE
  5
AE
  8
0
 62
     7
 10
158.24799999999991
 20
137.25
 30
0.0
 11
158.24799999999991
 21
131.0
 31
0.0
  0
LINE
  5
AF
  8
0
 62
     7
 10
158.24799999999991
 20
129.30699999999999
 30
0.0
 11
158.24799999999991
 21
106.309
 31
0.0
  0
LINE
  5
B0
  8
0
 62
     7
 10
113.62
 20
135.0389999999999
 30
0.0
 11
113.02799999999991
 21
137.25
 31
0.0
  0
LINE
  5
B1
  8
0
 62
     7
 10
113.02799999999991
 20
137.25
 30
0.0
 11
112.4349999999999
 21
135.0389999999999
 31
0.0
  0
LINE
  5
B2
  8
0
 62
     7
 10
112.4349999999999
 20
135.0389999999999
 30
0.0
 11
113.62
 21
135.0389999999999
 31
0.0
  0
LINE
  5
B3
  8
0
 62
     7
 10
112.45
 20
74.461399999999983
 30
0.0
 11
113.0419999999999
 21
72.25
 31
0.0
  0
LINE
  5
B4
  8
0
 62
     7
 10
113.0419999999999
 20
72.25
 30
0.0
 11
113.63499999999991
 21
74.461399999999983
 31
0.0
  0
LINE
  5
B5
  8
0
 62
     7
 10
113.63499999999991
 20
74.461399999999983
 30
0.0
 11
112.45
 21
74.461399999999983
 31
0.0
  0
LINE
  5
B6
  8
0
 62
     7
 10
113.02799999999991
 20
137.25
 30
0.0
 11
113.02799999999991
 21
72.25
 31
0.0
  0
LINE
  5
B7
  8
0
 62
     7
 10
129.26599999999991
 20
72.25
 30
0.0
 11
112.3279999999999
 21
72.25
 31
0.0
  0
LINE
  5
B8
  8
0
 62
     7
 10
105.4759999999999
 20
54.7498
 30
0.0
 11
158.80199999999999
 21
54.7498
 31
0.0
  0
LINE
  5
B9
  8
0
 62
     7
 10
106.75399999999991
 20
135.0389999999999
 30
0.0
 11
106.16200000000001
 21
137.25
 31
0.0
  0
LINE
  5
BA
  8
0
 62
     7
 10
106.16200000000001
 20
137.25
 30
0.0
 11
105.569
 21
135.0389999999999
 31
0.0
  0
LINE
  5
BB
  8
0
 62
     7
 10
105.569
 20
135.0389999999999
 30
0.0
 11
106.75399999999991
 21
135.0389999999999
 31
0.0
  0
LINE
  5
BC
  8
0
 62
     7
 10
105.584
 20
56.961199999999998
 30
0.0
 11
106.176
 21
54.7498
 31
0.0
  0
LINE
  5
BD
  8
0
 62
     7
 10
106.176
 20
54.7498
 30
0.0
 11
106.76900000000001
 21
56.961199999999998
 31
0.0
  0
LINE
  5
BE
  8
0
 62
     7
 10
106.76900000000001
 20
56.961199999999998
 30
0.0
 11
105.584
 21
56.961199999999998
 31
0.0
  0
LINE
  5
BF
  8
0
 62
     7
 10
106.16200000000001
 20
137.25
 30
0.0
 11
106.16200000000001
 21
54.7498
 31
0.0
  0
LINE
  5
C0
  8
0
 62
     7
 10
148.49499999999989
 20
135.0389999999999
 30
0.0
 11
147.90199999999999
 21
137.25
 31
0.0
  0
LINE
  5
C1
  8
0
 62
     7
 10
147.90199999999999
 20
137.25
 30
0.0
 11
147.309
 21
135.0389999999999
 31
0.0
  0
LINE
  5
C2
  8
0
 62
     7
 10
147.309
 20
135.0389999999999
 30
0.0
 11
148.49499999999989
 21
135.0389999999999
 31
0.0
  0
LINE
  5
C3
  8
0
 62
     7
 10
147.3239999999999
 20
133.21199999999999
 30
0.0
 11
147.916
 21
131.0
 31
0.0
  0
LINE
  5
C4
  8
0
 62
     7
 10
147.916
 20
131.0
 30
0.0
 11
148.5089999999999
 21
133.21199999999999
 31
0.0
  0
LINE
  5
C5
  8
0
 62
     7
 10
148.5089999999999
 20
133.21199999999999
 30
0.0
 11
147.3239999999999
 21
133.21199999999999
 31
0.0
  0
LINE
  5
C6
  8
0
 62
     7
 10
147.90199999999999
 20
137.25
 30
0.0
 11
147.90199999999999
 21
131.0
 31
0.0
  0
LINE
  5
C7
  8
0
 62
     7
 10
153.00399999999991
 20
131.0
 30
0.0
 11
147.202
 21
131.0
 31
0.0
  0
LINE
  5
C8
  8
0
 62
     7
 10
157.47399999999999
 20
75.899000000000001
 30
0.0
 11
159.685
 21
76.491600000000005
 31
0.0
  0
LINE
  5
C9
  8
0
 62
     7
 10
159.685
 20
76.491600000000005
 30
0.0
 11
157.47399999999999
 21
77.084199999999996
 31
0.0
  0
LINE
  5
CA
  8
0
 62
     7
 10
157.47399999999999
 20
77.084199999999996
 30
0.0
 11
157.47399999999999
 21
75.899000000000001
 31
0.0
  0
LINE
  5
CB
  8
0
 62
     7
 10
163.14699999999999
 20
77.069699999999997
 30
0.0
 11
160.93600000000001
 21
76.477099999999993
 31
0.0
  0
LINE
  5
CC
  8
0
 62
     7
 10
160.93600000000001
 20
76.477099999999993
 30
0.0
 11
163.14699999999999
 21
75.884600000000006
 31
0.0
  0
LINE
  5
CD
  8
0
 62
     7
 10
163.14699999999999
 20
75.884600000000006
 30
0.0
 11
163.14699999999999
 21
77.069699999999997
 31
0.0
  0
LINE
  5
CE
  8
0
 62
     7
 10
159.685
 20
54.7498
 30
0.0
 11
160.93600000000001
 21
54.7498
 31
0.0
  0
LINE
  5
CF
  8
0
  6
AIGENLINE001
 62
     7
 10
132.71000000000001
 20
116.0
 30
0.0
 11
132.71000000000001
 21
71.037599999999998
 31
0.0
  0
LINE
  5
D0
  8
0
 62
     7
 10
136.98400000000001
 20
64.823700000000002
 30
0.0
 11
134.773
 21
64.231099999999998
 31
0.0
  0
LINE
  5
D1
  8
0
 62
     7
 10
134.773
 20
64.231099999999998
 30
0.0
 11
136.98400000000001
 21
63.639200000000002
 31
0.0
  0
LINE
  5
D2
  8
0
 62
     7
 10
136.98400000000001
 20
63.639200000000002
 30
0.0
 11
136.98400000000001
 21
64.823700000000002
 31
0.0
  0
LINE
  5
D3
  8
0
 62
     7
 10
128.4379999999999
 20
63.652999999999999
 30
0.0
 11
130.648
 21
64.245599999999996
 31
0.0
  0
LINE
  5
D4
  8
0
 62
     7
 10
130.648
 20
64.245599999999996
 30
0.0
 11
128.4379999999999
 21
64.838099999999997
 31
0.0
  0
LINE
  5
D5
  8
0
 62
     7
 10
128.4379999999999
 20
64.838099999999997
 30
0.0
 11
128.4379999999999
 21
63.652999999999999
 31
0.0
  0
LINE
  5
D6
  8
0
 62
     7
 10
120.13799999999991
 20
64.238699999999994
 30
0.0
 11
138.489
 21
64.238699999999994
 31
0.0
  0
LINE
  5
D7
  8
0
 62
     7
 10
132.71000000000001
 20
72.499399999999994
 30
0.0
 11
132.71000000000001
 21
75.124600000000001
 31
0.0
  0
LINE
  5
D8
  8
0
 62
     7
 10
130.33500000000001
 20
72.499399999999994
 30
0.0
 11
130.33500000000001
 21
75.124600000000001
 31
0.0
  0
ARC
  5
D9
  8
0
 62
     7
 10
133.65506600000001
 20
85.743376999999995
 30
0.0
 40
13.653708999999999
 50
255.92819600000001
 51
258.80987900000002
  0
ARC
  5
DA
  8
0
 62
     7
 10
131.56805399999999
 20
75.501241000000007
 30
0.0
 40
3.2018299999999988
 50
259.878086
 51
269.41943900000001
  0
ARC
  5
DB
  8
0
 62
     7
 10
131.534322
 20
74.814086000000003
 30
0.0
 40
2.5145110000000002
 50
270.02938499999988
 51
277.0153029999999
  0
ARC
  5
DC
  8
0
 62
     7
 10
131.10922400000001
 20
78.010307999999995
 30
0.0
 40
5.7388099999999991
 50
277.33026899999987
 51
286.20099699999997
  0
ARC
  5
DD
  8
0
 62
     7
 10
131.31760299999991
 20
71.050963999999993
 30
0.0
 40
4.3051309999999994
 50
71.124105
 51
87.09734499999999
  0
ARC
  5
DE
  8
0
 62
     7
 10
131.5365899999999
 20
72.315545999999983
 30
0.0
 40
3.0350259999999989
 50
90.018477000000019
 51
105.049155
  0
ARC
  5
DF
  8
0
 62
     7
 10
131.98463100000001
 20
70.295406
 30
0.0
 40
5.1030410000000002
 50
104.017822
 51
108.85649699999991
  0
ARC
  5
E0
  8
0
 62
     7
 10
135.9971449999999
 20
85.626987
 30
0.0
 40
13.532793
 50
255.94384299999999
 51
258.89378900000003
  0
ARC
  5
E1
  8
0
 62
     7
 10
133.941543
 20
75.474232999999998
 30
0.0
 40
3.174806999999999
 50
260.00184200000001
 51
269.44291800000002
  0
ARC
  5
E2
  8
0
 62
     7
 10
133.90938499999999
 20
74.814267999999998
 30
0.0
 40
2.514692999999999
 50
270.02939300000003
 51
277.01504799999992
  0
ARC
  5
E3
  8
0
 62
     7
 10
133.48206799999991
 20
78.027027000000004
 30
0.0
 40
5.7556769999999986
 50
277.33105699999999
 51
286.182367
  0
LINE
  5
E4
  8
0
 62
     7
 10
135.08600000000001
 20
72.499399999999994
 30
0.0
 11
135.08600000000001
 21
75.124600000000001
 31
0.0
  0
ARC
  5
E5
  8
0
 62
     7
 10
133.69143299999999
 20
71.040300999999999
 30
0.0
 40
4.3158419999999991
 50
71.145751000000004
 51
87.088160999999985
  0
ARC
  5
E6
  8
0
 62
     7
 10
133.91165000000001
 20
72.317854999999994
 30
0.0
 40
3.0327160000000002
 50
90.018420999999975
 51
105.0549179999999
  0
ARC
  5
E7
  8
0
 62
     7
 10
134.36978300000001
 20
70.258130000000008
 30
0.0
 40
5.1415779999999991
 50
104.023017
 51
108.8286299999999
  0
LINE
  5
E8
  8
0
 62
     7
 10
135.08600000000001
 20
72.299599999999998
 30
0.0
 11
135.08600000000001
 21
72.499399999999994
 31
0.0
  0
LINE
  5
E9
  8
0
 62
     7
 10
135.08600000000001
 20
75.124600000000001
 30
0.0
 11
135.08600000000001
 21
75.3506
 31
0.0
  0
LINE
  5
EA
  8
0
 62
     7
 10
130.33500000000001
 20
72.299599999999998
 30
0.0
 11
130.33500000000001
 21
72.499399999999994
 31
0.0
  0
LINE
  5
EB
  8
0
 62
     7
 10
130.33500000000001
 20
75.124600000000001
 30
0.0
 11
130.33500000000001
 21
75.3506
 31
0.0
  0
LINE
  5
EC
  8
0
 62
     7
 10
133.96100000000001
 20
75.524900000000002
 30
0.0
 11
132.71000000000001
 21
75.524900000000002
 31
0.0
  0
LINE
  5
ED
  8
0
 62
     7
 10
132.71000000000001
 20
75.524900000000002
 30
0.0
 11
131.46100000000001
 21
75.524900000000002
 31
0.0
  0
LINE
  5
EE
  8
0
 62
     7
 10
135.08600000000001
 20
72.299599999999998
 30
0.0
 11
135.01099999999991
 21
72.25
 31
0.0
  0
LINE
  5
EF
  8
0
 62
     7
 10
135.01099999999991
 20
72.25
 30
0.0
 11
130.41
 21
72.25
 31
0.0
  0
LINE
  5
F0
  8
0
 62
     7
 10
130.41
 20
72.25
 30
0.0
 11
130.33500000000001
 21
72.299599999999998
 31
0.0
  0
ARC
  5
F1
  8
0
 62
     7
 10
135.00515100000001
 20
75.10619100000001
 30
0.0
 40
0.257453
 50
71.662652000000008
 51
95.366439999999997
  0
ARC
  5
F2
  8
0
 62
     7
 10
133.96350799999999
 20
48.110672999999998
 30
0.0
 40
27.270834000000001
 50
87.861601000000007
 51
90.29674399999999
  0
ARC
  5
F3
  8
0
 62
     7
 10
132.842578
 20
-354.40242699999988
 30
0.0
 40
429.78468499999991
 50
89.869384999999994
 51
90.324227000000036
  0
LINE
  5
F4
  8
0
 62
     7
 10
130.41
 20
75.375399999999985
 30
0.0
 11
130.33500000000001
 21
75.3506
 31
0.0
  0
LINE
  5
F5
  8
0
 62
     7
 10
134.261
 20
75.375399999999985
 30
0.0
 11
134.261
 21
75.500100000000003
 31
0.0
  0
LINE
  5
F6
  8
0
 62
     7
 10
134.261
 20
75.500100000000003
 30
0.0
 11
131.16
 21
75.500100000000003
 31
0.0
  0
LINE
  5
F7
  8
0
 62
     7
 10
131.16
 20
75.375399999999985
 30
0.0
 11
131.16
 21
75.500100000000003
 31
0.0
  0
LINE
  5
F8
  8
0
 62
     7
 10
131.46100000000001
 20
75.524900000000002
 30
0.0
 11
131.08600000000001
 21
75.826000000000008
 31
0.0
  0
LINE
  5
F9
  8
0
 62
     7
 10
131.08600000000001
 20
75.826000000000008
 30
0.0
 11
131.05999999999989
 21
76.325500000000005
 31
0.0
  0
LINE
  5
FA
  8
0
 62
     7
 10
134.36199999999999
 20
76.325500000000005
 30
0.0
 11
134.33600000000001
 21
75.826000000000008
 31
0.0
  0
LINE
  5
FB
  8
0
 62
     7
 10
134.33600000000001
 20
75.826000000000008
 30
0.0
 11
133.96100000000001
 21
75.524900000000002
 31
0.0
  0
LINE
  5
FC
  8
0
 62
     7
 10
134.16099999999989
 20
76.750699999999995
 30
0.0
 11
131.261
 21
76.750699999999995
 31
0.0
  0
LINE
  5
FD
  8
0
 62
     7
 10
131.261
 20
76.750699999999995
 30
0.0
 11
131.05999999999989
 21
76.325500000000005
 31
0.0
  0
LINE
  5
FE
  8
0
 62
     7
 10
134.36199999999999
 20
76.325500000000005
 30
0.0
 11
134.16099999999989
 21
76.750699999999995
 31
0.0
  0
LINE
  5
FF
  8
0
 62
     7
 10
134.16099999999989
 20
78.750900000000001
 30
0.0
 11
131.261
 21
78.750900000000001
 31
0.0
  0
LINE
  5
100
  8
0
 62
     7
 10
130.648
 20
63.849400000000003
 30
0.0
 11
130.648
 21
71.809700000000007
 31
0.0
  0
LINE
  5
101
  8
0
 62
     7
 10
134.773
 20
63.849400000000003
 30
0.0
 11
134.773
 21
71.809700000000007
 31
0.0
  0
LINE
  5
102
  8
0
 62
     7
 10
131.261
 20
76.750699999999995
 30
0.0
 11
131.261
 21
78.750900000000001
 31
0.0
  0
LINE
  5
103
  8
0
 62
     7
 10
134.16099999999989
 20
76.750699999999995
 30
0.0
 11
134.16099999999989
 21
78.750900000000001
 31
0.0
  0
LINE
  5
104
  8
0
 62
     7
 10
131.261
 20
78.750900000000001
 30
0.0
 11
131.08600000000001
 21
79.051299999999983
 31
0.0
  0
LINE
  5
105
  8
0
 62
     7
 10
134.33600000000001
 20
79.051299999999983
 30
0.0
 11
134.16099999999989
 21
78.750900000000001
 31
0.0
  0
LINE
  5
106
  8
0
 62
     7
 10
131.08600000000001
 20
79.051299999999983
 30
0.0
 11
131.03499999999991
 21
79.176000000000002
 31
0.0
  0
LINE
  5
107
  8
0
 62
     7
 10
131.03499999999991
 20
79.176000000000002
 30
0.0
 11
131.03499999999991
 21
79.300700000000006
 31
0.0
  0
ARC
  5
108
  8
0
 62
     7
 10
133.73462499999991
 20
79.368354000000011
 30
0.0
 40
0.6796520000000001
 50
332.19456300000002
 51
354.29082199999999
  0
LINE
  5
109
  8
0
 62
     7
 10
134.411
 20
79.300700000000006
 30
0.0
 11
134.411
 21
80.001499999999993
 31
0.0
  0
LINE
  5
10A
  8
0
 62
     7
 10
134.411
 20
80.001499999999993
 30
0.0
 11
131.03499999999991
 21
80.001499999999993
 31
0.0
  0
LINE
  5
10B
  8
0
 62
     7
 10
131.03499999999991
 20
79.300700000000006
 30
0.0
 11
131.03499999999991
 21
80.001499999999993
 31
0.0
  0
LINE
  5
10C
  8
0
 62
     7
 10
77.876000000000005
 20
209.4729999999999
 30
0.0
 11
80.072999999999993
 21
208.828
 31
0.0
  0
LINE
  5
10D
  8
0
 62
     7
 10
80.072999999999993
 20
208.828
 30
0.0
 11
77.847800000000007
 21
208.2879999999999
 31
0.0
  0
LINE
  5
10E
  8
0
 62
     7
 10
77.847800000000007
 20
208.2879999999999
 30
0.0
 11
77.876000000000005
 21
209.4729999999999
 31
0.0
  0
LINE
  5
10F
  8
0
 62
     7
 10
54.43719999999999
 20
208.45899999999989
 30
0.0
 11
53.168999999999997
 21
210.36600000000001
 31
0.0
  0
LINE
  5
110
  8
0
 62
     7
 10
53.168999999999997
 20
210.36600000000001
 30
0.0
 11
55.220199999999998
 21
209.34899999999999
 31
0.0
  0
LINE
  5
111
  8
0
 62
     7
 10
55.220199999999998
 20
209.34899999999999
 30
0.0
 11
54.43719999999999
 21
208.45899999999989
 31
0.0
  0
LINE
  5
112
  8
0
 62
     7
 10
58.8996
 20
216.21599999999989
 30
0.0
 11
57.631500000000003
 21
218.12200000000001
 31
0.0
  0
LINE
  5
113
  8
0
 62
     7
 10
57.631500000000003
 20
218.12200000000001
 30
0.0
 11
59.682699999999997
 21
217.10499999999999
 31
0.0
  0
LINE
  5
114
  8
0
 62
     7
 10
59.682699999999997
 20
217.10499999999999
 30
0.0
 11
58.8996
 21
216.21599999999989
 31
0.0
  0
LINE
  5
115
  8
0
 62
     7
 10
82.269900000000007
 20
209.4729999999999
 30
0.0
 11
80.072999999999993
 21
208.828
 31
0.0
  0
LINE
  5
116
  8
0
 62
     7
 10
80.072999999999993
 20
208.828
 30
0.0
 11
82.298199999999994
 21
208.2879999999999
 31
0.0
  0
LINE
  5
117
  8
0
 62
     7
 10
82.298199999999994
 20
208.2879999999999
 30
0.0
 11
82.269900000000007
 21
209.4729999999999
 31
0.0
  0
LINE
  5
118
  8
0
 62
     7
 10
101.247
 20
216.21700000000001
 30
0.0
 11
102.515
 21
218.12299999999991
 31
0.0
  0
LINE
  5
119
  8
0
 62
     7
 10
102.515
 20
218.12299999999991
 30
0.0
 11
100.4639999999999
 21
217.10599999999999
 31
0.0
  0
LINE
  5
11A
  8
0
 62
     7
 10
100.4639999999999
 20
217.10599999999999
 30
0.0
 11
101.247
 21
216.21700000000001
 31
0.0
  0
LINE
  5
11B
  8
0
  6
AIGENLINE001
 62
     7
 10
88.718500000000006
 20
240.565
 30
0.0
 11
71.427400000000006
 21
240.565
 31
0.0
  0
LINE
  5
11C
  8
0
 62
     7
 10
159.685
 20
54.7498
 30
0.0
 11
159.685
 21
96.616200000000006
 31
0.0
  0
LINE
  5
11D
  8
0
 62
     7
 10
160.93600000000001
 20
54.7498
 30
0.0
 11
160.93600000000001
 21
129.54699999999991
 31
0.0
  0
LINE
  5
11E
  8
0
 62
     7
 10
160.93600000000001
 20
131.0
 30
0.0
 11
160.93600000000001
 21
137.25
 31
0.0
  0
LINE
  5
11F
  8
0
  6
AIGENLINE001
 62
     7
 10
160.31100000000001
 20
52.909100000000002
 30
0.0
 11
160.31100000000001
 21
141.89099999999991
 31
0.0
  0
LINE
  5
120
  8
0
  6
AIGENLINE001
 62
     7
 10
80.072999999999993
 20
52.887
 30
0.0
 11
80.072999999999993
 21
192.49700000000001
 31
0.0
  0
ARC
  5
121
  8
0
 62
     7
 10
80.115142999999989
 20
184.854072
 30
0.0
 40
2.127940999999999
 50
179.47403199999999
 51
266.2272089999999
  0
ARC
  5
122
  8
0
 62
     7
 10
79.998148
 20
184.90150899999989
 30
0.0
 40
2.170888999999999
 50
269.39235200000002
 51
354.20727900000009
  0
ARC
  5
123
  8
0
 62
     7
 10
79.697957999999986
 20
184.79231200000001
 30
0.0
 40
2.462445999999999
 50
357.441755
 51
359.66304600000001
  0
ARC
  5
124
  8
0
 62
     7
 10
80.151567
 20
184.7751669999999
 30
0.0
 40
2.0087969999999991
 50
0.075975
 51
2.808813999999999
  0
ARC
  5
125
  8
0
 62
     7
 10
80.072964999999996
 20
187.366491
 30
0.0
 40
3.250124
 50
0.00001
 51
89.999980000000008
  0
ARC
  5
126
  8
0
 62
     7
 10
80.072966000000008
 20
187.366491
 30
0.0
 40
3.250124
 50
90.0
 51
179.99996999999991
  0
ARC
  5
127
  8
0
 62
     7
 10
80.072964999999996
 20
187.366491
 30
0.0
 40
3.250122999999999
 50
179.99996999999991
 51
270.00002000000001
  0
ARC
  5
128
  8
0
 62
     7
 10
80.072964999999996
 20
187.36649299999991
 30
0.0
 40
3.250124
 50
270.00002000000001
 51
359.99998999999991
  0
ARC
  5
129
  8
0
 62
     7
 10
80.112984999999995
 20
187.43087399999999
 30
0.0
 40
1.914315
 50
180.72057100000001
 51
267.39898799999992
  0
ARC
  5
12A
  8
0
 62
     7
 10
80.00518000000001
 20
187.466645
 30
0.0
 40
1.9482269999999999
 50
270.615634
 51
355.52010300000001
  0
ARC
  5
12B
  8
0
 62
     7
 10
80.056900999999996
 20
187.351663
 30
0.0
 40
1.8909189999999989
 50
358.87298599999991
 51
0.271869
  0
ARC
  5
12C
  8
0
 62
     7
 10
79.776425000000003
 20
187.36721199999999
 30
0.0
 40
2.1713830000000001
 50
359.82646699999998
 51
1.453832
  0
ARC
  5
12D
  8
0
 62
     7
 10
80.116703999999984
 20
187.50148999999999
 30
0.0
 40
1.8972889999999989
 50
158.18925799999991
 51
245.18902700000001
  0
ARC
  5
12E
  8
0
 62
     7
 10
80.033439000000001
 20
187.61258799999999
 30
0.0
 40
1.966991999999999
 50
248.75080600000001
 51
333.278166
  0
ARC
  5
12F
  8
0
 62
     7
 10
80.117584999999991
 20
187.47076100000001
 30
0.0
 40
1.8302169999999991
 50
336.06054499999988
 51
359.89585099999999
  0
ARC
  5
130
  8
0
 62
     7
 10
80.127285999999998
 20
187.46625800000001
 30
0.0
 40
1.820513
 50
0.037005
 51
23.97724599999999
  0
ARC
  5
131
  8
0
 62
     7
 10
80.005732999999992
 20
187.80396899999991
 30
0.0
 40
1.818595999999999
 50
2.1186869999999991
 51
87.881303000000003
  0
ARC
  5
132
  8
0
 62
     7
 10
80.140575999999996
 20
187.8035919999999
 30
0.0
 40
1.8189859999999991
 50
92.130105000000015
 51
177.869866
  0
ARC
  5
133
  8
0
 62
     7
 10
80.072964999999996
 20
187.87120100000001
 30
0.0
 40
1.7501189999999991
 50
179.99996999999991
 51
270.00002000000001
  0
ARC
  5
134
  8
0
 62
     7
 10
80.072964999999996
 20
187.87120200000001
 30
0.0
 40
1.7501199999999999
 50
270.00002000000001
 51
359.99998999999991
  0
ARC
  5
135
  8
0
 62
     7
 10
75.509354999999999
 20
161.66382699999991
 30
0.0
 40
2.4386849999999991
 50
0.243366
 51
42.070963999999996
  0
ARC
  5
136
  8
0
 62
     7
 10
84.633093999999986
 20
161.66573700000001
 30
0.0
 40
2.4383010000000001
 50
137.93770499999991
 51
179.7690739999999
  0
LINE
  5
137
  8
0
 62
     7
 10
82.322999999999993
 20
165.67400000000001
 30
0.0
 11
77.822599999999994
 21
165.67400000000001
 31
0.0
  0
LINE
  5
138
  8
0
 62
     7
 10
77.323099999999997
 20
164.92399999999989
 30
0.0
 11
77.323099999999997
 21
165.17400000000001
 31
0.0
  0
LINE
  5
139
  8
0
 62
     7
 10
77.323099999999997
 20
163.29900000000001
 30
0.0
 11
77.323099999999997
 21
163.67400000000001
 31
0.0
  0
ARC
  5
13A
  8
0
 62
     7
 10
77.841658999999993
 20
165.1557379999999
 30
0.0
 40
0.518923
 50
92.103200000000015
 51
177.936271
  0
LINE
  5
13B
  8
0
 62
     7
 10
82.822900000000004
 20
164.92399999999989
 30
0.0
 11
82.822900000000004
 21
165.17400000000001
 31
0.0
  0
LINE
  5
13C
  8
0
 62
     7
 10
82.822900000000004
 20
163.29900000000001
 30
0.0
 11
82.822900000000004
 21
163.67400000000001
 31
0.0
  0
ARC
  5
13D
  8
0
 62
     7
 10
82.303933999999998
 20
165.15538699999999
 30
0.0
 40
0.519273
 50
2.101032
 51
87.898957999999993
  0
LINE
  5
13E
  8
0
 62
     7
 10
82.822900000000004
 20
164.92399999999989
 30
0.0
 11
77.323099999999997
 21
164.92399999999989
 31
0.0
  0
ARC
  5
13F
  8
0
 62
     7
 10
77.323072999999994
 20
164.29936499999999
 30
0.0
 40
0.6249440000000001
 50
90.0
 51
179.99996999999991
  0
ARC
  5
140
  8
0
 62
     7
 10
77.323072999999994
 20
164.29936499999999
 30
0.0
 40
0.6249440000000001
 50
179.99996999999991
 51
270.00002000000001
  0
ARC
  5
141
  8
0
 62
     7
 10
82.822857999999997
 20
164.29936499999999
 30
0.0
 40
0.6249440000000001
 50
270.00002000000001
 51
359.99998999999991
  0
ARC
  5
142
  8
0
 62
     7
 10
82.822857999999997
 20
164.29936499999999
 30
0.0
 40
0.6249440000000001
 50
0.00001
 51
89.999980000000008
  0
LINE
  5
143
  8
0
 62
     7
 10
77.948000000000008
 20
160.17400000000001
 30
0.0
 11
77.948000000000008
 21
161.67400000000001
 31
0.0
  0
LINE
  5
144
  8
0
 62
     7
 10
82.197900000000004
 20
160.17400000000001
 30
0.0
 11
82.197900000000004
 21
161.67400000000001
 31
0.0
  0
LINE
  5
145
  8
0
 62
     7
 10
77.323099999999997
 20
163.67400000000001
 30
0.0
 11
82.822900000000004
 21
163.67400000000001
 31
0.0
  0
LINE
  5
146
  8
0
 62
     7
 10
77.948000000000008
 20
160.17400000000001
 30
0.0
 11
82.197900000000004
 21
160.17400000000001
 31
0.0
  0
LINE
  5
147
  8
0
 62
     7
 10
77.823000000000008
 20
165.67500000000001
 30
0.0
 11
77.823000000000008
 21
176.67500000000001
 31
0.0
  0
LINE
  5
148
  8
0
 62
     7
 10
82.322999999999993
 20
165.67500000000001
 30
0.0
 11
82.322999999999993
 21
176.67500000000001
 31
0.0
  0
ARC
  5
149
  8
0
 62
     7
 10
80.072964999999996
 20
176.6745699999999
 30
0.0
 40
2.2500059999999991
 50
0.00001
 51
89.999980000000008
  0
ARC
  5
14A
  8
0
 62
     7
 10
80.072966000000008
 20
176.6745699999999
 30
0.0
 40
2.2500059999999991
 50
90.0
 51
179.99996999999991
  0
ARC
  5
14B
  8
0
 62
     7
 10
80.061256
 20
170.178585
 30
0.0
 40
2.5114879999999991
 50
334.2302259999999
 51
359.94993999999991
  0
ARC
  5
14C
  8
0
 62
     7
 10
80.118417000000008
 20
170.17638999999991
 30
0.0
 40
2.541285999999999
 50
154.60887
 51
205.39112999999989
  0
ARC
  5
14D
  8
0
 62
     7
 10
80.059792999999985
 20
170.17386099999999
 30
0.0
 40
2.5129509999999988
 50
0.057673
 51
25.762162
  0
ARC
  5
14E
  8
0
 62
     7
 10
80.046715999999989
 20
170.18545800000001
 30
0.0
 40
2.9012139999999991
 50
321.68252399999989
 51
359.82092499999999
  0
ARC
  5
14F
  8
0
 62
     7
 10
80.185675000000003
 20
170.17638999999991
 30
0.0
 40
2.9643229999999989
 50
142.860355
 51
217.139645
  0
ARC
  5
150
  8
0
 62
     7
 10
80.048310999999998
 20
170.16788
 30
0.0
 40
2.8996169999999988
 50
0.168171
 51
38.328379999999989
  0
ARC
  5
151
  8
0
 62
     7
 10
80.033672999999979
 20
170.19343000000001
 30
0.0
 40
3.2894600000000001
 50
314.10294199999993
 51
359.70321000000001
  0
ARC
  5
152
  8
0
 62
     7
 10
80.073416000000009
 20
170.17620500000001
 30
0.0
 40
3.250604
 50
133.82240100000001
 51
223.80690000000001
  0
ARC
  5
153
  8
0
 62
     7
 10
80.329738000000006
 20
170.44262499999999
 30
0.0
 40
3.620039999999999
 50
224.04170400000001
 51
226.1662959999999
  0
ARC
  5
154
  8
0
 62
     7
 10
80.033072000000004
 20
170.15909500000001
 30
0.0
 40
3.2900619999999998
 50
0.301199
 51
45.892648999999992
  0
ARC
  5
155
  8
0
 62
     7
 10
80.019801000000001
 20
170.202305
 30
0.0
 40
3.6782080000000001
 50
308.76097700000003
 51
359.596318
  0
ARC
  5
156
  8
0
 62
     7
 10
80.267975000000007
 20
170.15371099999999
 30
0.0
 40
3.7663989999999989
 50
130.47869199999991
 51
216.25414599999991
  0
ARC
  5
157
  8
0
 62
     7
 10
80.056911999999997
 20
170.16033699999991
 30
0.0
 40
3.602466999999999
 50
218.32472200000001
 51
231.675308
  0
ARC
  5
158
  8
0
 62
     7
 10
80.017425000000003
 20
170.149326
 30
0.0
 40
3.680591999999999
 50
0.4213180000000002
 51
51.221385999999988
  0
ARC
  5
159
  8
0
 62
     7
 10
79.929516000000007
 20
186.62111299999989
 30
0.0
 40
3.1700669999999991
 50
168.39784
 51
179.9154199999999
  0
ARC
  5
15A
  8
0
 62
     7
 10
80.254668999999993
 20
186.62509900000001
 30
0.0
 40
3.1311219999999991
 50
0.012685
 51
11.67401499999999
  0
LINE
  5
15B
  8
0
 62
     7
 10
83.385800000000003
 20
186.62599999999989
 30
0.0
 11
83.385800000000003
 21
186.20099999999991
 31
0.0
  0
LINE
  5
15C
  8
0
 62
     7
 10
76.759500000000003
 20
186.20099999999991
 30
0.0
 11
76.759500000000003
 21
186.62599999999989
 31
0.0
  0
LINE
  5
15D
  8
0
 62
     7
 10
76.908600000000007
 20
186.62599999999989
 30
0.0
 11
76.759500000000003
 21
186.62599999999989
 31
0.0
  0
LINE
  5
15E
  8
0
 62
     7
 10
83.385800000000003
 20
186.62599999999989
 30
0.0
 11
83.237300000000005
 21
186.62599999999989
 31
0.0
  0
LINE
  5
15F
  8
0
 62
     7
 10
77.039199999999994
 20
186.20099999999991
 30
0.0
 11
76.759500000000003
 21
186.20099999999991
 31
0.0
  0
LINE
  5
160
  8
0
 62
     7
 10
83.385800000000003
 20
186.20099999999991
 30
0.0
 11
83.106700000000004
 21
186.20099999999991
 31
0.0
  0
ARC
  5
161
  8
0
 62
     7
 10
77.44465799999999
 20
184.25139699999991
 30
0.0
 40
6.25326
 50
341.82084500000002
 51
359.99386600000003
  0
ARC
  5
162
  8
0
 62
     7
 10
77.427987000000002
 20
184.247736
 30
0.0
 40
6.269931999999999
 50
0.027345
 51
18.154785
  0
LINE
  5
163
  8
0
 62
     7
 10
81.823099999999997
 20
182.30000000000001
 30
0.0
 11
83.385800000000003
 21
182.30000000000001
 31
0.0
  0
LINE
  5
164
  8
0
 62
     7
 10
76.759799999999998
 20
182.30000000000001
 30
0.0
 11
78.322800000000001
 21
182.30000000000001
 31
0.0
  0
ARC
  5
165
  8
0
 62
     7
 10
82.75190400000001
 20
184.25074099999989
 30
0.0
 40
6.3015069999999991
 50
161.98122499999999
 51
198.028899
  0
LINE
  5
166
  8
0
 62
     7
 10
78.322800000000001
 20
182.30000000000001
 30
0.0
 11
78.322800000000001
 21
181.0509999999999
 31
0.0
  0
LINE
  5
167
  8
0
 62
     7
 10
81.823099999999997
 20
182.30000000000001
 30
0.0
 11
81.823099999999997
 21
181.0509999999999
 31
0.0
  0
LINE
  5
168
  8
0
 62
     7
 10
74.242800000000003
 20
179.28700000000001
 30
0.0
 11
75.760400000000004
 21
179.8009999999999
 31
0.0
  0
ARC
  5
169
  8
0
 62
     7
 10
74.328793000000005
 20
179.04635200000001
 30
0.0
 40
0.25588
 50
109.6389659999999
 51
179.03359
  0
LINE
  5
16A
  8
0
 62
     7
 10
85.903099999999995
 20
179.28700000000001
 30
0.0
 11
84.385599999999997
 21
179.8009999999999
 31
0.0
  0
LINE
  5
16B
  8
0
 62
     7
 10
86.072999999999993
 20
178.71599999999989
 30
0.0
 11
86.072999999999993
 21
178.55000000000001
 31
0.0
  0
LINE
  5
16C
  8
0
 62
     7
 10
86.072999999999993
 20
179.0509999999999
 30
0.0
 11
86.072999999999993
 21
178.71599999999989
 31
0.0
  0
ARC
  5
16D
  8
0
 62
     7
 10
85.816568000000004
 20
179.04581699999989
 30
0.0
 40
0.2564599999999999
 50
1.0838410000000001
 51
70.353588999999999
  0
LINE
  5
16E
  8
0
 62
     7
 10
81.823099999999997
 20
182.30000000000001
 30
0.0
 11
78.322800000000001
 21
182.30000000000001
 31
0.0
  0
ARC
  5
16F
  8
0
 62
     7
 10
80.072987999999995
 20
176.0334389999999
 30
0.0
 40
5.3247660000000003
 50
109.337856
 51
134.968729
  0
ARC
  5
170
  8
0
 62
     7
 10
80.051354999999987
 20
176.0199209999999
 30
0.0
 40
5.3403359999999989
 50
45.069247999999988
 51
70.624127000000001
  0
LINE
  5
171
  8
0
 62
     7
 10
81.823099999999997
 20
181.0509999999999
 30
0.0
 11
78.322800000000001
 21
181.0509999999999
 31
0.0
  0
LINE
  5
172
  8
0
 62
     7
 10
74.247299999999996
 20
140.65700000000001
 30
0.0
 11
74.610399999999998
 21
142.25
 31
0.0
  0
ARC
  5
173
  8
0
 62
     7
 10
68.116024999999993
 20
142.06466999999989
 30
0.0
 40
6.2907099999999989
 50
315.11239199999989
 51
347.07177899999999
  0
LINE
  5
174
  8
0
 62
     7
 10
85.898700000000005
 20
140.65700000000001
 30
0.0
 11
85.535499999999985
 21
142.25
 31
0.0
  0
ARC
  5
175
  8
0
 62
     7
 10
92.028568000000007
 20
142.06462699999989
 30
0.0
 40
6.289731999999999
 50
192.929891
 51
224.8959549999999
  0
LINE
  5
176
  8
0
 62
     7
 10
74.072900000000004
 20
179.0509999999999
 30
0.0
 11
74.072900000000004
 21
178.55000000000001
 31
0.0
  0
LINE
  5
177
  8
0
 62
     7
 10
74.710999999999984
 20
177.0509999999999
 30
0.0
 11
74.072900000000004
 21
177.80000000000001
 31
0.0
  0
LINE
  5
178
  8
0
 62
     7
 10
85.434899999999999
 20
177.05000000000001
 30
0.0
 11
86.072999999999993
 21
177.80000000000001
 31
0.0
  0
LINE
  5
179
  8
0
 62
     7
 10
82.020499999999984
 20
177.80000000000001
 30
0.0
 11
86.072999999999993
 21
177.80000000000001
 31
0.0
  0
LINE
  5
17A
  8
0
 62
     7
 10
74.072900000000004
 20
177.80000000000001
 30
0.0
 11
78.125100000000003
 21
177.80000000000001
 31
0.0
  0
ARC
  5
17B
  8
0
 62
     7
 10
74.087322
 20
178.160878
 30
0.0
 40
0.389824
 50
92.112915999999998
 51
177.834416
  0
ARC
  5
17C
  8
0
 62
     7
 10
74.087238999999997
 20
178.189898
 30
0.0
 40
0.389725
 50
182.10128299999991
 51
267.89874600000002
  0
ARC
  5
17D
  8
0
 62
     7
 10
86.058829000000003
 20
178.189404
 30
0.0
 40
0.389227
 50
272.08388300000001
 51
357.96876400000002
  0
ARC
  5
17E
  8
0
 62
     7
 10
86.058712000000014
 20
178.161338
 30
0.0
 40
0.389361
 50
2.1003819999999989
 51
87.899608000000015
  0
LINE
  5
17F
  8
0
 62
     7
 10
78.829999999999998
 20
178.55000000000001
 30
0.0
 11
74.072900000000004
 21
178.55000000000001
 31
0.0
  0
LINE
  5
180
  8
0
 62
     7
 10
86.072999999999993
 20
178.55000000000001
 30
0.0
 11
81.316000000000003
 21
178.55000000000001
 31
0.0
  0
LINE
  5
181
  8
0
 62
     7
 10
86.072999999999993
 20
179.0509999999999
 30
0.0
 11
74.072900000000004
 21
179.0509999999999
 31
0.0
  0
LINE
  5
182
  8
0
 62
     7
 10
84.385599999999997
 20
179.8009999999999
 30
0.0
 11
75.760400000000004
 21
179.8009999999999
 31
0.0
  0
ARC
  5
183
  8
0
 62
     7
 10
71.429677999999996
 20
170.18480400000001
 30
0.0
 40
15.050521
 50
338.52078399999999
 51
359.96141299999988
  0
ARC
  5
184
  8
0
 62
     7
 10
71.440156000000002
 20
170.16652300000001
 30
0.0
 40
15.040041
 50
0.031028
 51
21.48677399999999
  0
LINE
  5
185
  8
0
 62
     7
 10
77.823000000000008
 20
175.67500000000001
 30
0.0
 11
74.710999999999984
 21
175.67500000000001
 31
0.0
  0
LINE
  5
186
  8
0
 62
     7
 10
85.434899999999999
 20
175.67500000000001
 30
0.0
 11
82.322999999999993
 21
175.67500000000001
 31
0.0
  0
LINE
  5
187
  8
0
 62
     7
 10
74.710999999999984
 20
177.0509999999999
 30
0.0
 11
74.710999999999984
 21
175.67500000000001
 31
0.0
  0
LINE
  5
188
  8
0
 62
     7
 10
85.434899999999999
 20
177.05000000000001
 30
0.0
 11
85.434899999999999
 21
175.67500000000001
 31
0.0
  0
LINE
  5
189
  8
0
 62
     7
 10
77.854299999999995
 20
177.05000000000001
 30
0.0
 11
74.710999999999984
 21
177.05000000000001
 31
0.0
  0
LINE
  5
18A
  8
0
 62
     7
 10
85.434899999999999
 20
177.05000000000001
 30
0.0
 11
82.291600000000003
 21
177.05000000000001
 31
0.0
  0
ARC
  5
18B
  8
0
 62
     7
 10
88.842907999999994
 20
170.174668
 30
0.0
 40
15.164770000000001
 50
158.73161999999999
 51
201.26838000000001
  0
LINE
  5
18C
  8
0
 62
     7
 10
76.823499999999996
 20
164.67599999999999
 30
0.0
 11
74.710999999999984
 21
164.67599999999999
 31
0.0
  0
LINE
  5
18D
  8
0
 62
     7
 10
85.434899999999999
 20
164.67599999999999
 30
0.0
 11
83.322400000000002
 21
164.67599999999999
 31
0.0
  0
LINE
  5
18E
  8
0
 62
     7
 10
74.710999999999984
 20
164.67599999999999
 30
0.0
 11
74.710999999999984
 21
163.30099999999999
 31
0.0
  0
LINE
  5
18F
  8
0
 62
     7
 10
85.434899999999999
 20
164.67599999999999
 30
0.0
 11
85.434899999999999
 21
163.30099999999999
 31
0.0
  0
LINE
  5
190
  8
0
 62
     7
 10
74.447800000000001
 20
162.37899999999991
 30
0.0
 11
74.447800000000001
 21
161.65000000000001
 31
0.0
  0
LINE
  5
191
  8
0
 62
     7
 10
85.698199999999986
 20
162.37899999999991
 30
0.0
 11
85.698199999999986
 21
161.65000000000001
 31
0.0
  0
LINE
  5
192
  8
0
 62
     7
 10
82.822900000000004
 20
163.30099999999999
 30
0.0
 11
85.535499999999985
 21
163.30099999999999
 31
0.0
  0
LINE
  5
193
  8
0
 62
     7
 10
74.610399999999998
 20
163.30099999999999
 30
0.0
 11
77.323099999999997
 21
163.30099999999999
 31
0.0
  0
LINE
  5
194
  8
0
 62
     7
 10
77.850899999999996
 20
162.34999999999991
 30
0.0
 11
74.610399999999998
 21
162.34999999999991
 31
0.0
  0
LINE
  5
195
  8
0
 62
     7
 10
85.535499999999985
 20
162.34999999999991
 30
0.0
 11
82.290899999999993
 21
162.34999999999991
 31
0.0
  0
ARC
  5
196
  8
0
 62
     7
 10
74.62836999999999
 20
162.80756099999999
 30
0.0
 40
0.493392
 50
92.088665000000006
 51
177.911305
  0
ARC
  5
197
  8
0
 62
     7
 10
74.628562000000002
 20
162.84371799999991
 30
0.0
 40
0.493591
 50
182.11018599999991
 51
267.88984399999993
  0
ARC
  5
198
  8
0
 62
     7
 10
85.517725999999996
 20
162.84300500000001
 30
0.0
 40
0.492865
 50
272.07182799999993
 51
357.96974599999987
  0
ARC
  5
199
  8
0
 62
     7
 10
85.517015000000001
 20
162.8073729999999
 30
0.0
 40
0.4936
 50
2.109669999999999
 51
87.848756000000009
  0
LINE
  5
19A
  8
0
 62
     7
 10
77.948000000000008
 20
160.27500000000001
 30
0.0
 11
74.710999999999984
 21
160.27500000000001
 31
0.0
  0
LINE
  5
19B
  8
0
 62
     7
 10
85.434899999999999
 20
160.27500000000001
 30
0.0
 11
82.197900000000004
 21
160.27500000000001
 31
0.0
  0
LINE
  5
19C
  8
0
 62
     7
 10
85.434299999999979
 20
145.27499999999989
 30
0.0
 11
74.709999999999994
 21
145.27499999999989
 31
0.0
  0
ARC
  5
19D
  8
0
 62
     7
 10
29.037921000000001
 20
152.77787799999999
 30
0.0
 40
46.284917
 50
350.66556100000003
 51
359.99699099999998
  0
ARC
  5
19E
  8
0
 62
     7
 10
29.048494000000002
 20
152.77322000000001
 30
0.0
 40
46.274343999999999
 50
0.002758
 51
9.3328779999999991
  0
ARC
  5
19F
  8
0
 62
     7
 10
131.17891999999989
 20
152.77417299999991
 30
0.0
 40
46.354595999999987
 50
170.68459799999991
 51
189.30487400000001
  0
LINE
  5
1A0
  8
0
 62
     7
 10
74.710999999999984
 20
161.65000000000001
 30
0.0
 11
74.710999999999984
 21
160.27500000000001
 31
0.0
  0
LINE
  5
1A1
  8
0
 62
     7
 10
85.434899999999999
 20
161.65000000000001
 30
0.0
 11
85.434899999999999
 21
160.27500000000001
 31
0.0
  0
LINE
  5
1A2
  8
0
 62
     7
 10
77.948000000000008
 20
161.65000000000001
 30
0.0
 11
74.447800000000001
 21
161.65000000000001
 31
0.0
  0
LINE
  5
1A3
  8
0
 62
     7
 10
85.698199999999986
 20
161.65000000000001
 30
0.0
 11
82.197900000000004
 21
161.65000000000001
 31
0.0
  0
LINE
  5
1A4
  8
0
 62
     7
 10
74.709999999999994
 20
145.27499999999989
 30
0.0
 11
74.709999999999994
 21
143.90000000000001
 31
0.0
  0
LINE
  5
1A5
  8
0
 62
     7
 10
85.434299999999979
 20
145.27499999999989
 30
0.0
 11
85.434299999999979
 21
143.90000000000001
 31
0.0
  0
LINE
  5
1A6
  8
0
 62
     7
 10
85.698199999999986
 20
143.90000000000001
 30
0.0
 11
74.447800000000001
 21
143.90000000000001
 31
0.0
  0
LINE
  5
1A7
  8
0
 62
     7
 10
74.447800000000001
 20
143.172
 30
0.0
 11
74.447800000000001
 21
143.90000000000001
 31
0.0
  0
LINE
  5
1A8
  8
0
 62
     7
 10
85.698199999999986
 20
143.172
 30
0.0
 11
85.698199999999986
 21
143.90000000000001
 31
0.0
  0
LINE
  5
1A9
  8
0
 62
     7
 10
74.610399999999998
 20
142.25
 30
0.0
 11
85.535499999999985
 21
142.25
 31
0.0
  0
LINE
  5
1AA
  8
0
 62
     7
 10
85.535499999999985
 20
143.1999999999999
 30
0.0
 11
74.610399999999998
 21
143.1999999999999
 31
0.0
  0
ARC
  5
1AB
  8
0
 62
     7
 10
74.62836999999999
 20
142.707369
 30
0.0
 40
0.493392
 50
92.088665000000006
 51
177.911305
  0
ARC
  5
1AC
  8
0
 62
     7
 10
74.628582999999992
 20
142.74354600000001
 30
0.0
 40
0.493612
 50
182.112449
 51
267.8875799999999
  0
ARC
  5
1AD
  8
0
 62
     7
 10
85.51764
 20
142.742898
 30
0.0
 40
0.492953
 50
272.08139799999992
 51
357.96017599999999
  0
ARC
  5
1AE
  8
0
 62
     7
 10
85.517036000000004
 20
142.707201
 30
0.0
 40
0.493579
 50
2.1074060000000001
 51
87.851020000000005
  0
LINE
  5
1AF
  8
0
 62
     7
 10
72.572900000000004
 20
137.25
 30
0.0
 11
72.572900000000004
 21
137.62499999999989
 31
0.0
  0
LINE
  5
1B0
  8
0
 62
     7
 10
87.572999999999979
 20
137.25
 30
0.0
 11
87.572999999999979
 21
137.62499999999989
 31
0.0
  0
LINE
  5
1B1
  8
0
 62
     7
 10
72.572900000000004
 20
137.62499999999989
 30
0.0
 11
87.572999999999979
 21
137.62499999999989
 31
0.0
  0
LINE
  5
1B2
  8
0
 62
     7
 10
72.572900000000004
 20
137.25
 30
0.0
 11
87.572999999999979
 21
137.25
 31
0.0
  0
ARC
  5
1B3
  8
0
 62
     7
 10
80.072879999999998
 20
240.56569300000001
 30
0.0
 40
31.738254000000001
 50
225.00062199999999
 51
314.99939799999999
  0
LINE
  5
1B4
  8
0
  6
AIGENLINE001
 62
     7
 10
73.540000000000006
 20
247.0979999999999
 30
0.0
 11
104.09699999999999
 21
216.541
 31
0.0
  0
LINE
  5
1B5
  8
0
  6
AIGENLINE002
 62
     7
 10
91.350600000000014
 20
232.172
 30
0.0
 11
94.062899999999999
 21
230.44399999999999
 31
0.0
  0
ARC
  5
1B6
  8
0
  6
AIGENLINE002
 62
     7
 10
92.255424000000005
 20
227.66968700000001
 30
0.0
 40
3.311345999999999
 50
0.9155129999999999
 51
56.896376000000011
  0
LINE
  5
1B7
  8
0
  6
AIGENLINE002
 62
     7
 10
88.465999999999994
 20
229.28700000000001
 30
0.0
 11
90.194000000000003
 21
226.57499999999999
 31
0.0
  0
ARC
  5
1B8
  8
0
  6
AIGENLINE002
 62
     7
 10
92.969166000000016
 20
228.383893
 30
0.0
 40
3.312419999999999
 50
213.09181599999999
 51
269.05682100000001
  0
LINE
  5
1B9
  8
0
  6
AIGENLINE002
 62
     7
 10
96.127600000000015
 20
226.28999999999999
 30
0.0
 11
96.667100000000005
 21
226.13499999999991
 31
0.0
  0
ARC
  5
1BA
  8
0
  6
AIGENLINE002
 62
     7
 10
96.311938999999995
 20
226.830814
 30
0.0
 40
0.583747
 50
137.0486379999999
 51
222.90171199999989
  0
ARC
  5
1BB
  8
0
  6
AIGENLINE002
 62
     7
 10
96.284774999999996
 20
226.83460400000001
 30
0.0
 40
0.5668280000000001
 50
225.05203900000001
 51
253.860749
  0
LINE
  5
1BC
  8
0
  6
AIGENLINE002
 62
     7
 10
94.348200000000006
 20
224.51099999999991
 30
0.0
 11
94.502799999999993
 21
223.97099999999989
 31
0.0
  0
ARC
  5
1BD
  8
0
  6
AIGENLINE002
 62
     7
 10
93.795935
 20
224.34053499999999
 30
0.0
 40
0.577846
 50
17.127737
 51
88.875968999999998
  0
ARC
  5
1BE
  8
0
  6
AIGENLINE002
 62
     7
 10
93.810419999999979
 20
224.34842
 30
0.0
 40
0.5698590000000001
 50
90.316670999999985
 51
134.68309600000001
  0
LINE
  5
1BF
  8
0
  6
AIGENLINE002
 62
     7
 10
95.566299999999998
 20
227.7229999999999
 30
0.0
 11
95.972899999999996
 21
227.31699999999989
 31
0.0
  0
LINE
  5
1C0
  8
0
  6
AIGENLINE002
 62
     7
 10
92.914599999999979
 20
225.072
 30
0.0
 11
93.321200000000005
 21
224.66499999999991
 31
0.0
  0
LINE
  5
1C1
  8
0
  6
AIGENLINE002
 62
     7
 10
94.647199999999984
 20
225.99100000000001
 30
0.0
 11
93.321200000000005
 21
224.66499999999991
 31
0.0
  0
LINE
  5
1C2
  8
0
  6
AIGENLINE002
 62
     7
 10
94.240700000000004
 20
226.398
 30
0.0
 11
92.914599999999979
 21
225.072
 31
0.0
  0
LINE
  5
1C3
  8
0
  6
AIGENLINE002
 62
     7
 10
95.972899999999996
 20
227.31699999999989
 30
0.0
 11
94.647199999999984
 21
225.99100000000001
 31
0.0
  0
LINE
  5
1C4
  8
0
  6
AIGENLINE002
 62
     7
 10
95.566299999999998
 20
227.7229999999999
 30
0.0
 11
94.240700000000004
 21
226.398
 31
0.0
  0
ARC
  5
1C5
  8
0
  6
AIGENLINE002
 62
     7
 10
96.231168000000011
 20
224.536214
 30
0.0
 40
1.8185579999999999
 50
198.089383
 51
283.8572069999999
  0
ARC
  5
1C6
  8
0
  6
AIGENLINE002
 62
     7
 10
96.102983999999992
 20
224.49874199999999
 30
0.0
 40
1.8177799999999991
 50
288.06659300000001
 51
13.879975999999999
  0
ARC
  5
1C7
  8
0
  6
AIGENLINE002
 62
     7
 10
96.156932999999995
 20
224.42467799999989
 30
0.0
 40
1.7851900000000001
 50
16.604037999999999
 51
73.395953000000006
  0
ARC
  5
1C8
  8
0
 62
     7
 10
80.182811000000015
 20
247.53686999999999
 30
0.0
 40
1.7026840000000001
 50
325.23621500000002
 51
359.54695800000002
  0
ARC
  5
1C9
  8
0
 62
     7
 10
80.086823999999993
 20
247.450399
 30
0.0
 40
1.8000989999999999
 50
2.3244359999999991
 51
90.441096000000002
  0
ARC
  5
1CA
  8
0
 62
     7
 10
80.136662999999999
 20
247.36863199999999
 30
0.0
 40
1.88289
 50
91.938653000000002
 51
175.284897
  0
ARC
  5
1CB
  8
0
 62
     7
 10
79.932496
 20
247.52726000000001
 30
0.0
 40
1.672355
 50
180.13201399999991
 51
215.0848529999999
  0
ARC
  5
1CC
  8
0
 62
     7
 10
80.072443000000007
 20
247.58588499999999
 30
0.0
 40
1.625489999999999
 50
323.29074800000001
 51
53.273088000000001
  0
ARC
  5
1CD
  8
0
 62
     7
 10
80.068388999999996
 20
247.570885
 30
0.0
 40
1.639947
 50
53.472958999999989
 51
89.840084000000004
  0
ARC
  5
1CE
  8
0
 62
     7
 10
80.134962999999985
 20
247.52376599999999
 30
0.0
 40
1.688197999999999
 50
92.104602999999983
 51
177.89536699999991
  0
ARC
  5
1CF
  8
0
 62
     7
 10
80.085347999999996
 20
247.589979
 30
0.0
 40
1.637448999999999
 50
180.14751899999999
 51
216.576065
  0
ARC
  5
1D0
  8
0
 62
     7
 10
81.177335999999997
 20
234.63002
 30
0.0
 40
2.5190099999999989
 50
328.05341900000002
 51
359.37392199999999
  0
ARC
  5
1D1
  8
0
 62
     7
 10
78.959052999999983
 20
234.62767599999989
 30
0.0
 40
2.5128879999999998
 50
180.574172
 51
211.97066000000001
  0
ARC
  5
1D2
  8
0
 62
     7
 10
86.663988000000003
 20
230.940102
 30
0.0
 40
4.0929779999999987
 50
144.84505100000001
 51
179.87132500000001
  0
ARC
  5
1D3
  8
0
 62
     7
 10
86.66533299999999
 20
230.9602899999999
 30
0.0
 40
4.0943250000000004
 50
180.1394609999999
 51
215.14902099999989
  0
ARC
  5
1D4
  8
0
 62
     7
 10
73.481161
 20
230.94154900000001
 30
0.0
 40
4.0899679999999989
 50
0.108477
 51
35.159833999999996
  0
ARC
  5
1D5
  8
0
 62
     7
 10
73.480031999999994
 20
230.95877400000001
 30
0.0
 40
4.0910979999999997
 50
324.845147
 51
359.88168499999989
  0
LINE
  5
1D6
  8
0
 62
     7
 10
82.044300000000007
 20
226.97799999999989
 30
0.0
 11
82.571399999999997
 21
226.97799999999989
 31
0.0
  0
LINE
  5
1D7
  8
0
 62
     7
 10
77.571100000000001
 20
226.97799999999989
 30
0.0
 11
78.101299999999995
 21
226.97799999999989
 31
0.0
  0
LINE
  5
1D8
  8
0
 62
     7
 10
82.571399999999997
 20
227.35300000000001
 30
0.0
 11
82.571399999999997
 21
226.97799999999989
 31
0.0
  0
LINE
  5
1D9
  8
0
 62
     7
 10
77.571100000000001
 20
227.35300000000001
 30
0.0
 11
77.571100000000001
 21
226.97799999999989
 31
0.0
  0
LINE
  5
1DA
  8
0
 62
     7
 10
82.946200000000005
 20
227.85299999999989
 30
0.0
 11
82.946200000000005
 21
227.35300000000001
 31
0.0
  0
LINE
  5
1DB
  8
0
 62
     7
 10
77.196299999999994
 20
227.85299999999989
 30
0.0
 11
77.196299999999994
 21
227.35300000000001
 31
0.0
  0
LINE
  5
1DC
  8
0
 62
     7
 10
81.972899999999996
 20
227.35300000000001
 30
0.0
 11
82.946200000000005
 21
227.35300000000001
 31
0.0
  0
LINE
  5
1DD
  8
0
 62
     7
 10
77.196299999999994
 20
227.35300000000001
 30
0.0
 11
78.172600000000003
 21
227.35300000000001
 31
0.0
  0
LINE
  5
1DE
  8
0
 62
     7
 10
78.350800000000007
 20
228.602
 30
0.0
 11
76.824600000000004
 21
228.602
 31
0.0
  0
LINE
  5
1DF
  8
0
 62
     7
 10
83.321399999999997
 20
228.602
 30
0.0
 11
81.794799999999995
 21
228.602
 31
0.0
  0
LINE
  5
1E0
  8
0
 62
     7
 10
81.890600000000006
 20
227.85299999999989
 30
0.0
 11
83.321399999999997
 21
227.85299999999989
 31
0.0
  0
LINE
  5
1E1
  8
0
 62
     7
 10
83.321399999999997
 20
228.602
 30
0.0
 11
83.321399999999997
 21
227.85299999999989
 31
0.0
  0
LINE
  5
1E2
  8
0
 62
     7
 10
76.821100000000001
 20
228.602
 30
0.0
 11
76.821100000000001
 21
227.85299999999989
 31
0.0
  0
LINE
  5
1E3
  8
0
 62
     7
 10
78.254999999999995
 20
227.85299999999989
 30
0.0
 11
76.821100000000001
 21
227.85299999999989
 31
0.0
  0
ARC
  5
1E4
  8
0
 62
     7
 10
80.161404000000005
 20
220.49562999999989
 30
0.0
 40
14.542230999999999
 50
75.944731000000004
 51
80.913374999999988
  0
ARC
  5
1E5
  8
0
 62
     7
 10
80.025965999999997
 20
220.28326299999989
 30
0.0
 40
14.759895
 50
99.115727000000007
 51
104.035732
  0
ARC
  5
1E6
  8
0
 62
     7
 10
80.072418999999996
 20
240.5655899999999
 30
0.0
 40
7.5006509999999986
 50
298.08149500000002
 51
28.077261
  0
ARC
  5
1E7
  8
0
 62
     7
 10
80.002479000000008
 20
240.474322
 30
0.0
 40
7.6054659999999998
 50
28.435924
 51
75.92264200000001
  0
ARC
  5
1E8
  8
0
 62
     7
 10
80.072597999999985
 20
240.565527
 30
0.0
 40
7.499657
 50
103.72495600000001
 51
193.729635
  0
ARC
  5
1E9
  8
0
 62
     7
 10
80.161266999999995
 20
240.63381200000001
 30
0.0
 40
7.6021339999999986
 50
194.07096799999991
 51
241.54098099999999
  0
ARC
  5
1EA
  8
0
 62
     7
 10
80.072963999999985
 20
240.565304
 30
0.0
 40
6.9837619999999987
 50
301.37143199999991
 51
31.371403000000001
  0
ARC
  5
1EB
  8
0
 62
     7
 10
80.021151000000003
 20
240.49649500000001
 30
0.0
 40
7.0638929999999993
 50
31.629152000000001
 51
74.810259000000016
  0
ARC
  5
1EC
  8
0
 62
     7
 10
80.073505000000011
 20
240.56526299999999
 30
0.0
 40
6.9841629999999997
 50
104.9315919999999
 51
194.92669699999999
  0
ARC
  5
1ED
  8
0
 62
     7
 10
80.144033999999991
 20
240.61823999999999
 30
0.0
 40
7.0660339999999993
 50
195.19445999999999
 51
238.44531099999989
  0
ARC
  5
1EE
  8
0
 62
     7
 10
80.072342000000006
 20
240.56561300000001
 30
0.0
 40
6.1881349999999991
 50
288.66951999999998
 51
18.660394
  0
ARC
  5
1EF
  8
0
 62
     7
 10
79.95241
 20
240.39700999999999
 30
0.0
 40
6.3568670000000003
 50
19.754356999999999
 51
88.913326999999995
  0
ARC
  5
1F0
  8
0
 62
     7
 10
80.072967000000006
 20
240.56530299999989
 30
0.0
 40
6.1874320000000003
 50
90.0
 51
179.99996999999991
  0
ARC
  5
1F1
  8
0
 62
     7
 10
80.240273999999985
 20
240.6856029999999
 30
0.0
 40
6.3558769999999987
 50
181.08453899999989
 51
250.24528699999999
  0
ARC
  5
1F2
  8
0
 62
     7
 10
80.073087999999998
 20
240.56524200000001
 30
0.0
 40
5.999941999999999
 50
288.20724200000001
 51
18.20907399999999
  0
ARC
  5
1F3
  8
0
 62
     7
 10
79.954118999999992
 20
240.40106599999999
 30
0.0
 40
6.165398999999999
 50
19.312967
 51
88.895468999999991
  0
ARC
  5
1F4
  8
0
 62
     7
 10
80.072967000000006
 20
240.56530299999989
 30
0.0
 40
6.0000169999999988
 50
90.0
 51
179.99996999999991
  0
ARC
  5
1F5
  8
0
 62
     7
 10
80.237964000000005
 20
240.68469999999991
 30
0.0
 40
6.1661700000000002
 50
181.1095169999999
 51
250.6820669999999
  0
ARC
  5
1F6
  8
0
 62
     7
 10
80.072426000000007
 20
240.565697
 30
0.0
 40
4.3131079999999997
 50
284.008646
 51
14.000574999999991
  0
ARC
  5
1F7
  8
0
 62
     7
 10
79.971799000000004
 20
240.435689
 30
0.0
 40
4.443365
 50
15.313385999999991
 51
88.695362000000003
  0
ARC
  5
1F8
  8
0
 62
     7
 10
80.072967000000006
 20
240.56530299999989
 30
0.0
 40
4.3125989999999987
 50
90.0
 51
179.99996999999991
  0
ARC
  5
1F9
  8
0
 62
     7
 10
80.202667999999989
 20
240.666539
 30
0.0
 40
4.443454
 50
181.30550400000001
 51
254.685768
  0
ARC
  5
1FA
  8
0
 62
     7
 10
80.072688999999997
 20
240.5655349999999
 30
0.0
 40
3.7501509999999998
 50
285.71208399999989
 51
15.709474
  0
ARC
  5
1FB
  8
0
 62
     7
 10
79.990431000000001
 20
240.45692
 30
0.0
 40
3.8596219999999999
 50
16.931099
 51
88.774674000000005
  0
ARC
  5
1FC
  8
0
 62
     7
 10
80.073138999999983
 20
240.56547499999999
 30
0.0
 40
3.7501829999999998
 50
90.002631999999991
 51
180.0026419999999
  0
ARC
  5
1FD
  8
0
 62
     7
 10
80.181432999999998
 20
240.64764099999999
 30
0.0
 40
3.8593559999999991
 50
181.2224829999999
 51
253.07176399999989
  0
ARC
  5
1FE
  8
0
 62
     7
 10
80.072966000000008
 20
240.56530299999989
 30
0.0
 40
2.625179999999999
 50
90.0
 51
179.99996999999991
  0
ARC
  5
1FF
  8
0
 62
     7
 10
80.072964999999996
 20
240.56530299999989
 30
0.0
 40
2.6251790000000002
 50
179.99996999999991
 51
270.00002000000001
  0
ARC
  5
200
  8
0
 62
     7
 10
80.072964999999996
 20
240.565304
 30
0.0
 40
2.625179999999999
 50
270.00002000000001
 51
359.99998999999991
  0
ARC
  5
201
  8
0
 62
     7
 10
80.072964999999996
 20
240.56530299999989
 30
0.0
 40
2.625179999999999
 50
0.00001
 51
89.999980000000008
  0
ARC
  5
202
  8
0
 62
     7
 10
80.072966000000008
 20
240.56530299999989
 30
0.0
 40
3.125065999999999
 50
90.0
 51
179.99996999999991
  0
ARC
  5
203
  8
0
 62
     7
 10
80.072793000000004
 20
240.56547599999999
 30
0.0
 40
3.1248930000000001
 50
180.00316799999999
 51
270.00317799999988
  0
ARC
  5
204
  8
0
 62
     7
 10
80.073137000000003
 20
240.56547699999999
 30
0.0
 40
3.124893999999999
 50
269.99686099999991
 51
359.99683199999993
  0
ARC
  5
205
  8
0
 62
     7
 10
80.072964999999996
 20
240.56530299999989
 30
0.0
 40
3.125065999999999
 50
0.00001
 51
89.999980000000008
  0
ARC
  5
206
  8
0
 62
     7
 10
80.072966000000008
 20
240.56530299999989
 30
0.0
 40
3.6249530000000001
 50
90.0
 51
179.99996999999991
  0
ARC
  5
207
  8
0
 62
     7
 10
80.072964999999996
 20
240.56530299999989
 30
0.0
 40
3.6249519999999991
 50
179.99996999999991
 51
270.00002000000001
  0
ARC
  5
208
  8
0
 62
     7
 10
80.072964999999996
 20
240.565304
 30
0.0
 40
3.6249530000000001
 50
270.00002000000001
 51
359.99998999999991
  0
ARC
  5
209
  8
0
 62
     7
 10
80.072964999999996
 20
240.56530299999989
 30
0.0
 40
3.6249530000000001
 50
0.00001
 51
89.999980000000008
  0
ARC
  5
20A
  8
0
 62
     7
 10
82.624323999999987
 20
236.764499
 30
0.0
 40
1.544951
 50
167.71159800000001
 51
241.6755049999999
  0
ARC
  5
20B
  8
0
 62
     7
 10
77.521383999999983
 20
236.76459299999999
 30
0.0
 40
1.5448129999999991
 50
298.307681
 51
12.285921
  0
LINE
  5
20C
  8
0
 62
     7
 10
78.322800000000001
 20
235.40499999999989
 30
0.0
 11
78.197800000000001
 21
235.40499999999989
 31
0.0
  0
LINE
  5
20D
  8
0
 62
     7
 10
80.072999999999993
 20
235.40499999999989
 30
0.0
 11
78.322800000000001
 21
235.40499999999989
 31
0.0
  0
LINE
  5
20E
  8
0
 62
     7
 10
81.947799999999987
 20
235.40499999999989
 30
0.0
 11
80.072999999999993
 21
235.40499999999989
 31
0.0
  0
LINE
  5
20F
  8
0
 62
     7
 10
82.112499999999983
 20
226.65599999999989
 30
0.0
 11
82.808400000000006
 21
223.51599999999999
 31
0.0
  0
ARC
  5
210
  8
0
 62
     7
 10
79.569310999999999
 20
222.83206999999999
 30
0.0
 40
3.3106429999999998
 50
315.90844800000002
 51
11.905934
  0
ARC
  5
211
  8
0
 62
     7
 10
81.777507999999997
 20
234.43649300000001
 30
0.0
 40
0.382864
 50
0.4046300000000002
 51
63.533048000000001
  0
ARC
  5
212
  8
0
 62
     7
 10
99.274938000000006
 20
230.44283399999989
 30
0.0
 40
17.575127999999989
 50
166.8543699999999
 51
192.4405999999999
  0
LINE
  5
213
  8
0
 62
     7
 10
78.033100000000005
 20
226.65599999999989
 30
0.0
 11
77.337199999999996
 21
223.51599999999999
 31
0.0
  0
ARC
  5
214
  8
0
 62
     7
 10
80.576898
 20
222.83209500000001
 30
0.0
 40
3.3111220000000001
 50
168.07795200000001
 51
224.0675379999999
  0
ARC
  5
215
  8
0
 62
     7
 10
78.370153999999999
 20
234.435372
 30
0.0
 40
0.384948
 50
116.6001939999999
 51
179.4307179999999
  0
LINE
  5
216
  8
0
 62
     7
 10
81.947799999999987
 20
235.40499999999989
 30
0.0
 11
81.947799999999987
 21
234.77999999999989
 31
0.0
  0
LINE
  5
217
  8
0
 62
     7
 10
78.197800000000001
 20
235.40499999999989
 30
0.0
 11
78.197800000000001
 21
234.77999999999989
 31
0.0
  0
LINE
  5
218
  8
0
 62
     7
 10
81.947799999999987
 20
234.77999999999989
 30
0.0
 11
80.072999999999993
 21
234.77999999999989
 31
0.0
  0
LINE
  5
219
  8
0
 62
     7
 10
80.072999999999993
 20
234.77999999999989
 30
0.0
 11
78.197800000000001
 21
234.77999999999989
 31
0.0
  0
ARC
  5
21A
  8
0
 62
     7
 10
60.875019999999992
 20
230.44220200000001
 30
0.0
 40
17.570981
 50
347.54934300000002
 51
13.14050099999999
  0
LINE
  5
21B
  8
0
 62
     7
 10
81.330799999999996
 20
219.119
 30
0.0
 11
81.603300000000004
 21
218.62799999999999
 31
0.0
  0
ARC
  5
21C
  8
0
 62
     7
 10
81.844622999999984
 20
219.37008900000001
 30
0.0
 40
0.584522
 50
92.145409000000015
 51
177.88965899999991
  0
ARC
  5
21D
  8
0
 62
     7
 10
81.825406999999998
 20
219.3923319999999
 30
0.0
 40
0.5649100000000001
 50
180.07295199999999
 51
208.88521999999989
  0
LINE
  5
21E
  8
0
 62
     7
 10
78.814800000000005
 20
219.119
 30
0.0
 11
78.542599999999993
 21
218.62799999999999
 31
0.0
  0
ARC
  5
21F
  8
0
 62
     7
 10
78.293214000000006
 20
219.38312400000001
 30
0.0
 40
0.584765
 50
333.12241299999988
 51
58.850167999999996
  0
ARC
  5
220
  8
0
 62
     7
 10
78.320491000000004
 20
219.38550499999991
 30
0.0
 40
0.5690470000000002
 50
61.077229000000003
 51
89.728189999999984
  0
LINE
  5
221
  8
0
 62
     7
 10
81.947799999999987
 20
220.529
 30
0.0
 11
81.947799999999987
 21
219.95500000000001
 31
0.0
  0
LINE
  5
222
  8
0
 62
     7
 10
78.197800000000001
 20
220.529
 30
0.0
 11
78.197800000000001
 21
219.95500000000001
 31
0.0
  0
LINE
  5
223
  8
0
 62
     7
 10
80.072999999999993
 20
219.95500000000001
 30
0.0
 11
78.197800000000001
 21
219.95500000000001
 31
0.0
  0
LINE
  5
224
  8
0
 62
     7
 10
80.072999999999993
 20
220.529
 30
0.0
 11
78.197800000000001
 21
220.529
 31
0.0
  0
LINE
  5
225
  8
0
 62
     7
 10
81.947799999999987
 20
219.95500000000001
 30
0.0
 11
80.072999999999993
 21
219.95500000000001
 31
0.0
  0
LINE
  5
226
  8
0
 62
     7
 10
81.947799999999987
 20
220.529
 30
0.0
 11
80.072999999999993
 21
220.529
 31
0.0
  0
ARC
  5
227
  8
0
 62
     7
 10
80.073335999999998
 20
217.779404
 30
0.0
 40
1.7504319999999991
 50
150.981684
 51
240.96387699999991
  0
ARC
  5
228
  8
0
 62
     7
 10
80.072793000000004
 20
217.77912599999991
 30
0.0
 40
1.749925999999999
 50
240.97499999999991
 51
330.97497099999993
  0
ARC
  5
229
  8
0
 62
     7
 10
80.034734
 20
217.7794439999999
 30
0.0
 40
1.783452
 50
331.55929500000002
 51
28.417456000000001
  0
LINE
  5
22A
  8
0
  6
AIGENLINE001
 62
     7
 10
80.072999999999993
 20
251.0
 30
0.0
 11
80.072999999999993
 21
195.8709999999999
 31
0.0
  0
LINE
  5
22B
  8
0
 62
     7
 10
82.322999999999993
 20
225.70699999999999
 30
0.0
 11
82.322999999999993
 21
226.97799999999989
 31
0.0
  0
LINE
  5
22C
  8
0
 62
     7
 10
82.322999999999993
 20
200.565
 30
0.0
 11
82.322999999999993
 21
220.98500000000001
 31
0.0
  0
LINE
  5
22D
  8
0
 62
     7
 10
77.823000000000008
 20
225.70699999999999
 30
0.0
 11
77.823000000000008
 21
226.97799999999989
 31
0.0
  0
LINE
  5
22E
  8
0
 62
     7
 10
77.823000000000008
 20
200.565
 30
0.0
 11
77.823000000000008
 21
220.98500000000001
 31
0.0
  0
ARC
  5
22F
  8
0
 62
     7
 10
80.073138
 20
200.56525300000001
 30
0.0
 40
2.250178
 50
179.99558400000001
 51
269.99563399999988
  0
ARC
  5
230
  8
0
 62
     7
 10
80.072793000000004
 20
200.56525300000001
 30
0.0
 40
2.2501790000000002
 50
270.00440600000002
 51
0.004376
  0
ARC
  5
231
  8
0
 62
     7
 10
80.073587000000003
 20
200.565046
 30
0.0
 40
3.375737
 50
131.8134
 51
221.798497
  0
ARC
  5
232
  8
0
 62
     7
 10
80.072637999999998
 20
200.56537499999999
 30
0.0
 40
3.375248
 50
221.81340199999991
 51
311.80631199999988
  0
ARC
  5
233
  8
0
 62
     7
 10
80.072793000000004
 20
200.56525300000001
 30
0.0
 40
3.3750539999999991
 50
311.80573299999998
 51
41.805703000000001
  0
ARC
  5
234
  8
0
 62
     7
 10
80.093415000000007
 20
200.5858749999999
 30
0.0
 40
3.345936
 50
41.777885999999988
 51
48.222103999999987
  0
LINE
  5
235
  8
0
 62
     7
 10
167.7529999999999
 20
151.93100000000001
 30
0.0
 11
167.8709999999999
 21
151.86199999999999
 31
0.0
  0
LINE
  5
236
  8
0
 62
     7
 10
165.28399999999999
 20
153.35599999999999
 30
0.0
 11
167.7529999999999
 21
151.93100000000001
 31
0.0
  0
LINE
  5
237
  8
0
 62
     7
 10
166.06899999999999
 20
150.01599999999991
 30
0.0
 11
167.06899999999999
 21
151.74700000000001
 31
0.0
  0
ARC
  5
238
  8
0
 62
     7
 10
167.509714
 20
151.47090900000001
 30
0.0
 40
0.520076
 50
62.140234999999997
 51
147.88069299999989
  0
LINE
  5
239
  8
0
 62
     7
 10
165.16499999999999
 20
153.42400000000001
 30
0.0
 11
165.28399999999999
 21
153.35599999999999
 31
0.0
  0
LINE
  5
23A
  8
0
 62
     7
 10
164.46700000000001
 20
150.941
 30
0.0
 11
165.46700000000001
 21
152.672
 31
0.0
  0
ARC
  5
23B
  8
0
 62
     7
 10
165.034955
 20
152.92194599999999
 30
0.0
 40
0.49914
 50
330.00836800000002
 51
0.069865
  0
ARC
  5
23C
  8
0
 62
     7
 10
165.02396899999999
 20
152.91667799999991
 30
0.0
 40
0.5101600000000001
 50
0.659995
 51
59.358506000000013
  0
LINE
  5
23D
  8
0
 62
     7
 10
168.1209999999999
 20
152.2949999999999
 30
0.0
 11
165.41499999999999
 21
153.85699999999991
 31
0.0
  0
ARC
  5
23E
  8
0
 62
     7
 10
167.996263
 20
152.07871299999991
 30
0.0
 40
0.250351
 50
240.04613999999989
 51
329.974827
  0
ARC
  5
23F
  8
0
 62
     7
 10
167.99669299999991
 20
152.07893300000001
 30
0.0
 40
0.250089
 50
329.88208500000002
 51
359.82207099999999
  0
ARC
  5
240
  8
0
 62
     7
 10
167.992006
 20
152.07535300000001
 30
0.0
 40
0.25479
 50
0.630408
 51
59.485205000000001
  0
ARC
  5
241
  8
0
 62
     7
 10
165.2932679999999
 20
153.62885600000001
 30
0.0
 40
0.258728
 50
61.959789000000001
 51
148.01105999999999
  0
ARC
  5
242
  8
0
 62
     7
 10
165.3035919999999
 20
153.64436499999999
 30
0.0
 40
0.2599369999999999
 50
152.11958000000001
 51
237.90136799999999
  0
LINE
  5
243
  8
0
 62
     7
 10
166.06899999999999
 20
150.01599999999991
 30
0.0
 11
164.46700000000001
 21
150.941
 31
0.0
  0
LINE
  5
244
  8
0
 62
     7
 10
164.55999999999989
 20
148.001
 30
0.0
 11
165.81
 21
150.16499999999991
 31
0.0
  0
LINE
  5
245
  8
0
 62
     7
 10
164.3829999999999
 20
150.1929999999999
 30
0.0
 11
164.72699999999989
 21
150.78999999999999
 31
0.0
  0
ARC
  5
246
  8
0
 62
     7
 10
166.551289
 20
152.756146
 30
0.0
 40
1.6548459999999989
 50
343.49106599999988
 51
359.83333099999999
  0
ARC
  5
247
  8
0
 62
     7
 10
166.58089399999989
 20
152.751159
 30
0.0
 40
1.6252340000000001
 50
0.006083
 51
90.006053000000009
  0
ARC
  5
248
  8
0
 62
     7
 10
166.581153
 20
152.75030499999991
 30
0.0
 40
1.626088
 50
90.015190000000004
 51
136.6677699999999
  0
LINE
  5
249
  8
0
 62
     7
 10
156.0389999999999
 20
183.1109999999999
 30
0.0
 11
155.73099999999999
 21
183.1699999999999
 31
0.0
  0
ARC
  5
24A
  8
0
 62
     7
 10
154.954733
 20
181.82477099999991
 30
0.0
 40
1.5530120000000001
 50
59.994913000000011
 51
140.52681399999989
  0
ARC
  5
24B
  8
0
 62
     7
 10
155.9062459999999
 20
186.86083199999999
 30
0.0
 40
1.5502689999999999
 50
197.83535900000001
 51
274.46555899999993
  0
LINE
  5
24C
  8
0
 62
     7
 10
154.41800000000001
 20
186.3179999999999
 30
0.0
 11
154.441
 21
186.44099999999989
 31
0.0
  0
LINE
  5
24D
  8
0
 62
     7
 10
154.0929999999999
 20
184.59899999999999
 30
0.0
 11
154.41800000000001
 21
186.3179999999999
 31
0.0
  0
LINE
  5
24E
  8
0
 62
     7
 10
153.74499999999989
 20
182.75599999999989
 30
0.0
 11
154.0929999999999
 21
184.59899999999999
 31
0.0
  0
LINE
  5
24F
  8
0
 62
     7
 10
145.11799999999991
 20
184.21899999999999
 30
0.0
 11
141.90299999999999
 21
184.11799999999991
 31
0.0
  0
ARC
  5
250
  8
0
 62
     7
 10
141.83233100000001
 20
187.426829
 30
0.0
 40
3.3094709999999989
 50
215.19838100000001
 51
271.20570199999992
  0
ARC
  5
251
  8
0
 62
     7
 10
152.82536099999999
 20
183.1032889999999
 30
0.0
 40
0.382522
 50
259.68154500000003
 51
322.86028599999992
  0
ARC
  5
252
  8
0
 62
     7
 10
145.650915
 20
166.6476669999999
 30
0.0
 40
17.579393
 50
66.152873
 51
91.731594000000015
  0
LINE
  5
253
  8
0
 62
     7
 10
145.876
 20
188.227
 30
0.0
 11
142.9199999999999
 21
189.494
 31
0.0
  0
ARC
  5
254
  8
0
 62
     7
 10
141.64539899999991
 20
186.43942300000001
 30
0.0
 40
3.3095720000000002
 50
67.354906999999983
 51
123.378848
  0
ARC
  5
255
  8
0
 62
     7
 10
153.458573
 20
186.4535139999999
 30
0.0
 40
0.38265
 50
15.727193
 51
78.937473999999995
  0
LINE
  5
256
  8
0
 62
     7
 10
153.74499999999989
 20
182.75599999999989
 30
0.0
 11
153.13099999999989
 21
182.87200000000001
 31
0.0
  0
LINE
  5
257
  8
0
 62
     7
 10
154.441
 20
186.44099999999989
 30
0.0
 11
153.82699999999991
 21
186.55699999999999
 31
0.0
  0
LINE
  5
258
  8
0
 62
     7
 10
153.13099999999989
 20
182.87200000000001
 30
0.0
 11
153.4789999999999
 21
184.715
 31
0.0
  0
LINE
  5
259
  8
0
 62
     7
 10
153.4789999999999
 20
184.715
 30
0.0
 11
153.82699999999991
 21
186.55699999999999
 31
0.0
  0
ARC
  5
25A
  8
0
 62
     7
 10
152.783423
 20
204.39315999999999
 30
0.0
 40
17.579933999999991
 50
246.85269700000001
 51
272.43147399999998
  0
LINE
  5
25B
  8
0
 62
     7
 10
137.857
 20
186.386
 30
0.0
 11
137.3239999999999
 21
186.21000000000001
 31
0.0
  0
ARC
  5
25C
  8
0
 62
     7
 10
138.08739
 20
185.84638299999989
 30
0.0
 40
0.5086750000000001
 50
348.80585600000001
 51
0.6348150000000001
  0
ARC
  5
25D
  8
0
 62
     7
 10
138.01198299999999
 20
185.83056799999989
 30
0.0
 40
0.5844450000000001
 50
2.103359999999999
 51
87.861532999999994
  0
ARC
  5
25E
  8
0
 62
     7
 10
138.03425100000001
 20
185.84692899999999
 30
0.0
 40
0.567678
 50
90.046408
 51
108.15158099999999
  0
LINE
  5
25F
  8
0
 62
     7
 10
138.3249999999999
 20
188.85900000000001
 30
0.0
 11
137.89299999999989
 21
189.21700000000001
 31
0.0
  0
ARC
  5
260
  8
0
 62
     7
 10
138.6807409999999
 20
189.32198600000001
 30
0.0
 40
0.584629
 50
232.37982199999999
 51
318.15278799999987
  0
ARC
  5
261
  8
0
 62
     7
 10
138.68835000000001
 20
189.28897799999999
 30
0.0
 40
0.5572810000000001
 50
320.159334
 51
349.40855699999992
  0
LINE
  5
262
  8
0
 62
     7
 10
139.12899999999991
 20
185.518
 30
0.0
 11
138.56399999999991
 21
185.625
 31
0.0
  0
LINE
  5
263
  8
0
 62
     7
 10
139.8249999999999
 20
189.203
 30
0.0
 11
139.25999999999991
 21
189.31
 31
0.0
  0
LINE
  5
264
  8
0
 62
     7
 10
138.91200000000001
 20
187.46700000000001
 30
0.0
 11
139.25999999999991
 21
189.31
 31
0.0
  0
LINE
  5
265
  8
0
 62
     7
 10
139.477
 20
187.36099999999999
 30
0.0
 11
139.8249999999999
 21
189.203
 31
0.0
  0
LINE
  5
266
  8
0
 62
     7
 10
138.56399999999991
 20
185.625
 30
0.0
 11
138.91200000000001
 21
187.46700000000001
 31
0.0
  0
LINE
  5
267
  8
0
 62
     7
 10
139.12899999999991
 20
185.518
 30
0.0
 11
139.477
 21
187.36099999999999
 31
0.0
  0
ARC
  5
268
  8
0
 62
     7
 10
136.78309400000001
 20
187.77696
 30
0.0
 40
1.8181659999999991
 50
52.368516
 51
138.15750800000001
  0
ARC
  5
269
  8
0
 62
     7
 10
136.86851100000001
 20
187.87986599999991
 30
0.0
 40
1.8180719999999999
 50
142.37301699999989
 51
228.1689089999999
  0
ARC
  5
26A
  8
0
 62
     7
 10
136.781543
 20
187.908334
 30
0.0
 40
1.7832520000000001
 50
230.86198300000001
 51
287.71302799999989
  0
ARC
  5
26B
  8
0
 62
     7
 10
124.12316800000001
 20
161.66449099999991
 30
0.0
 40
2.4378570000000002
 50
137.92158299999991
 51
179.76404700000001
  0
ARC
  5
26C
  8
0
 62
     7
 10
114.997553
 20
161.66555399999999
 30
0.0
 40
2.4406599999999989
 50
0.243057
 51
42.028973000000001
  0
ARC
  5
26D
  8
0
 62
     7
 10
153.62397799999999
 20
169.06395000000001
 30
0.0
 40
2.5143740000000001
 50
238.02365399999991
 51
269.39556299999998
  0
ARC
  5
26E
  8
0
 62
     7
 10
153.62131199999999
 20
171.292586
 30
0.0
 40
2.5071469999999998
 50
90.545260999999982
 51
122.007648
  0
ARC
  5
26F
  8
0
 62
     7
 10
149.93596599999989
 20
163.5847709999999
 30
0.0
 40
4.0901279999999991
 50
54.832460000000012
 51
89.883936000000006
  0
ARC
  5
270
  8
0
 62
     7
 10
149.954475
 20
163.58300500000001
 30
0.0
 40
4.0918950000000001
 50
90.123860000000008
 51
125.1597049999999
  0
ARC
  5
271
  8
0
 62
     7
 10
149.93540999999999
 20
176.768202
 30
0.0
 40
4.0934220000000003
 50
270.12375400000002
 51
305.14457700000003
  0
LINE
  5
272
  8
0
 62
     7
 10
138.86799999999991
 20
174.3959999999999
 30
0.0
 11
137.578
 21
175.62200000000001
 31
0.0
  0
ARC
  5
273
  8
0
  6
AIGENLINE001
 62
     7
 10
144.7300139999999
 20
180.3241909999999
 30
0.0
 40
10.454553000000001
 50
226.52852799999999
 51
256.12550899999991
  0
ARC
  5
274
  8
0
 62
     7
 10
144.398754
 20
180.22728699999999
 30
0.0
 40
8.0368720000000007
 50
226.516345
 51
256.132383
  0
LINE
  5
275
  8
0
  6
AIGENLINE001
 62
     7
 10
150.97200000000001
 20
168.22499999999991
 30
0.0
 11
146.422
 21
168.22499999999991
 31
0.0
  0
ARC
  5
276
  8
0
  6
AIGENLINE001
 62
     7
 10
129.2719779999999
 20
166.82414700000001
 30
0.0
 40
9.8504970000000007
 50
48.252023999999999
 51
89.778454000000011
  0
LINE
  5
277
  8
0
  6
AIGENLINE001
 62
     7
 10
135.83099999999999
 20
174.173
 30
0.0
 11
137.53699999999989
 21
172.73699999999999
 31
0.0
  0
LINE
  5
278
  8
0
 62
     7
 10
134.32599999999991
 20
172.5
 30
0.0
 11
136.02000000000001
 21
170.97699999999989
 31
0.0
  0
ARC
  5
279
  8
0
 62
     7
 10
149.95282800000001
 20
176.76303799999991
 30
0.0
 40
4.0882550000000002
 50
234.832594
 51
269.89911499999988
  0
ARC
  5
27A
  8
0
 62
     7
 10
144.4172879999999
 20
180.35061099999999
 30
0.0
 40
12.58494299999999
 50
228.13934800000001
 51
261.11338399999988
  0
LINE
  5
27B
  8
0
  6
AIGENLINE001
 62
     7
 10
159.56
 20
170.17500000000001
 30
0.0
 11
142.2229999999999
 21
170.17500000000001
 31
0.0
  0
LINE
  5
27C
  8
0
 62
     7
 10
145.9729999999999
 20
167.92500000000001
 30
0.0
 11
142.4729999999999
 21
167.92500000000001
 31
0.0
  0
LINE
  5
27D
  8
0
 62
     7
 10
145.9729999999999
 20
172.42500000000001
 30
0.0
 11
142.4729999999999
 21
172.42500000000001
 31
0.0
  0
LINE
  5
27E
  8
0
 62
     7
 10
145.9729999999999
 20
172.67500000000001
 30
0.0
 11
145.9729999999999
 21
167.67500000000001
 31
0.0
  0
LINE
  5
27F
  8
0
 62
     7
 10
146.3479999999999
 20
167.67500000000001
 30
0.0
 11
145.9729999999999
 21
167.67500000000001
 31
0.0
  0
LINE
  5
280
  8
0
 62
     7
 10
146.3479999999999
 20
172.67500000000001
 30
0.0
 11
145.9729999999999
 21
172.67500000000001
 31
0.0
  0
LINE
  5
281
  8
0
 62
     7
 10
146.8479999999999
 20
167.30000000000001
 30
0.0
 11
146.3479999999999
 21
167.30000000000001
 31
0.0
  0
LINE
  5
282
  8
0
 62
     7
 10
146.8479999999999
 20
173.05000000000001
 30
0.0
 11
146.3479999999999
 21
173.05000000000001
 31
0.0
  0
LINE
  5
283
  8
0
 62
     7
 10
146.3479999999999
 20
173.05000000000001
 30
0.0
 11
146.3479999999999
 21
167.30000000000001
 31
0.0
  0
LINE
  5
284
  8
0
 62
     7
 10
147.5979999999999
 20
166.92500000000001
 30
0.0
 11
147.5979999999999
 21
173.42099999999999
 31
0.0
  0
LINE
  5
285
  8
0
 62
     7
 10
146.8479999999999
 20
170.1759999999999
 30
0.0
 11
146.8479999999999
 21
166.92500000000001
 31
0.0
  0
LINE
  5
286
  8
0
 62
     7
 10
147.5979999999999
 20
166.92500000000001
 30
0.0
 11
146.8479999999999
 21
166.92500000000001
 31
0.0
  0
LINE
  5
287
  8
0
 62
     7
 10
147.5979999999999
 20
173.42500000000001
 30
0.0
 11
146.8479999999999
 21
173.42500000000001
 31
0.0
  0
LINE
  5
288
  8
0
 62
     7
 10
146.8479999999999
 20
170.1759999999999
 30
0.0
 11
146.8479999999999
 21
173.42500000000001
 31
0.0
  0
ARC
  5
289
  8
0
 62
     7
 10
139.04513799999989
 20
170.17388600000001
 30
0.0
 40
14.996734999999999
 50
346.02744000000001
 51
0.00957
  0
ARC
  5
28A
  8
0
 62
     7
 10
138.98738599999999
 20
170.17147800000001
 30
0.0
 40
15.054487
 50
0.018695
 51
13.94560899999999
  0
ARC
  5
28B
  8
0
 62
     7
 10
129.25567000000001
 20
166.786699
 30
0.0
 40
12.137999999999989
 50
46.711579
 51
89.743223
  0
ARC
  5
28C
  8
0
 62
     7
 10
129.28171999999989
 20
166.85019
 30
0.0
 40
7.574427
 50
48.242258
 51
89.785580999999993
  0
ARC
  5
28D
  8
0
 62
     7
 10
129.310067
 20
166.924542
 30
0.0
 40
12.000035
 50
90.0
 51
179.99996999999991
  0
ARC
  5
28E
  8
0
  6
AIGENLINE001
 62
     7
 10
129.310239
 20
166.92471499999991
 30
0.0
 40
9.7498559999999994
 50
90.001011999999989
 51
180.00102200000001
  0
ARC
  5
28F
  8
0
 62
     7
 10
129.31006599999989
 20
166.924543
 30
0.0
 40
7.5000220000000004
 50
90.0
 51
179.99996999999991
  0
LINE
  5
290
  8
0
 62
     7
 10
117.31
 20
165.67500000000001
 30
0.0
 11
121.8099999999999
 21
165.67500000000001
 31
0.0
  0
LINE
  5
291
  8
0
 62
     7
 10
122.31
 20
164.92500000000001
 30
0.0
 11
122.31
 21
165.17500000000001
 31
0.0
  0
LINE
  5
292
  8
0
 62
     7
 10
122.31
 20
163.30000000000001
 30
0.0
 11
122.31
 21
163.67500000000001
 31
0.0
  0
ARC
  5
293
  8
0
 62
     7
 10
121.79134000000001
 20
165.15570700000001
 30
0.0
 40
0.519285
 50
2.1036730000000001
 51
87.935790999999995
  0
LINE
  5
294
  8
0
 62
     7
 10
116.81
 20
164.92500000000001
 30
0.0
 11
116.81
 21
165.17500000000001
 31
0.0
  0
LINE
  5
295
  8
0
 62
     7
 10
116.81
 20
163.30000000000001
 30
0.0
 11
116.81
 21
163.67500000000001
 31
0.0
  0
ARC
  5
296
  8
0
 62
     7
 10
117.3290669999999
 20
165.156092
 30
0.0
 40
0.5189120000000002
 50
92.102132999999995
 51
177.9373379999999
  0
LINE
  5
297
  8
0
 62
     7
 10
121.8099999999999
 20
165.67500000000001
 30
0.0
 11
121.8099999999999
 21
166.92500000000001
 31
0.0
  0
LINE
  5
298
  8
0
 62
     7
 10
117.31
 20
165.67500000000001
 30
0.0
 11
117.31
 21
166.92500000000001
 31
0.0
  0
LINE
  5
299
  8
0
 62
     7
 10
116.81
 20
164.92500000000001
 30
0.0
 11
122.31
 21
164.92500000000001
 31
0.0
  0
ARC
  5
29A
  8
0
 62
     7
 10
122.3102759999999
 20
164.29971
 30
0.0
 40
0.6249440000000001
 50
270.00002000000001
 51
359.99998999999991
  0
ARC
  5
29B
  8
0
 62
     7
 10
122.3102759999999
 20
164.29970900000001
 30
0.0
 40
0.6249440000000001
 50
0.00001
 51
89.999980000000008
  0
ARC
  5
29C
  8
0
 62
     7
 10
116.8104909999999
 20
164.29970900000001
 30
0.0
 40
0.6249440000000001
 50
90.0
 51
179.99996999999991
  0
ARC
  5
29D
  8
0
 62
     7
 10
116.8104899999999
 20
164.29970900000001
 30
0.0
 40
0.6249440000000001
 50
179.99996999999991
 51
270.00002000000001
  0
LINE
  5
29E
  8
0
 62
     7
 10
121.6849999999999
 20
160.17500000000001
 30
0.0
 11
121.6849999999999
 21
161.67500000000001
 31
0.0
  0
LINE
  5
29F
  8
0
 62
     7
 10
117.435
 20
160.17500000000001
 30
0.0
 11
117.435
 21
161.67500000000001
 31
0.0
  0
LINE
  5
2A0
  8
0
 62
     7
 10
122.31
 20
163.67500000000001
 30
0.0
 11
116.81
 21
163.67500000000001
 31
0.0
  0
LINE
  5
2A1
  8
0
 62
     7
 10
122.31
 20
163.30000000000001
 30
0.0
 11
116.81
 21
163.30000000000001
 31
0.0
  0
LINE
  5
2A2
  8
0
 62
     7
 10
121.6849999999999
 20
160.17500000000001
 30
0.0
 11
117.435
 21
160.17500000000001
 31
0.0
  0
ARC
  5
2A3
  8
0
 62
     7
 10
162.54304699999989
 20
187.26897799999989
 30
0.0
 40
0.257442
 50
14.337641
 51
88.620384999999999
  0
ARC
  5
2A4
  8
0
 62
     7
 10
159.756394
 20
186.62575199999989
 30
0.0
 40
3.1173820000000001
 50
0.000739
 51
13.114419
  0
LINE
  5
2A5
  8
0
 62
     7
 10
162.54900000000001
 20
187.5259999999999
 30
0.0
 11
156.57199999999989
 21
187.5259999999999
 31
0.0
  0
ARC
  5
2A6
  8
0
 62
     7
 10
156.57794599999991
 20
187.26925299999991
 30
0.0
 40
0.257162
 50
91.332342000000025
 51
165.7095929999999
  0
ARC
  5
2A7
  8
0
 62
     7
 10
159.40153599999999
 20
186.621531
 30
0.0
 40
3.1541019999999991
 50
166.9622249999999
 51
179.92257799999999
  0
ARC
  5
2A8
  8
0
 62
     7
 10
159.56060600000001
 20
180.41971699999991
 30
0.0
 40
7.5758779999999986
 50
69.728273000000002
 51
110.27170700000001
  0
LINE
  5
2A9
  8
0
 62
     7
 10
156.24700000000001
 20
186.62599999999989
 30
0.0
 11
156.24700000000001
 21
186.20099999999991
 31
0.0
  0
LINE
  5
2AA
  8
0
 62
     7
 10
162.874
 20
186.20099999999991
 30
0.0
 11
162.874
 21
186.62599999999989
 31
0.0
  0
LINE
  5
2AB
  8
0
 62
     7
 10
156.24700000000001
 20
186.62599999999989
 30
0.0
 11
162.874
 21
186.62599999999989
 31
0.0
  0
LINE
  5
2AC
  8
0
 62
     7
 10
156.24700000000001
 20
186.20099999999991
 30
0.0
 11
162.874
 21
186.20099999999991
 31
0.0
  0
ARC
  5
2AD
  8
0
 62
     7
 10
162.23801099999989
 20
184.25089999999989
 30
0.0
 40
6.3000989999999986
 50
161.96540699999991
 51
198.034593
  0
LINE
  5
2AE
  8
0
 62
     7
 10
157.81
 20
182.30000000000001
 30
0.0
 11
156.24700000000001
 21
182.30000000000001
 31
0.0
  0
LINE
  5
2AF
  8
0
 62
     7
 10
162.874
 20
182.30000000000001
 30
0.0
 11
161.31
 21
182.30000000000001
 31
0.0
  0
ARC
  5
2B0
  8
0
 62
     7
 10
156.93287599999991
 20
184.24915100000001
 30
0.0
 40
6.2523379999999991
 50
341.8397359999999
 51
0.014451
  0
ARC
  5
2B1
  8
0
 62
     7
 10
156.910751
 20
184.247737
 30
0.0
 40
6.274464
 50
0.027313
 51
18.127960999999988
  0
LINE
  5
2B2
  8
0
 62
     7
 10
161.31
 20
182.30000000000001
 30
0.0
 11
161.31
 21
181.0509999999999
 31
0.0
  0
LINE
  5
2B3
  8
0
 62
     7
 10
157.81
 20
182.30000000000001
 30
0.0
 11
157.81
 21
181.0509999999999
 31
0.0
  0
LINE
  5
2B4
  8
0
 62
     7
 10
165.39099999999991
 20
179.28700000000001
 30
0.0
 11
163.87299999999991
 21
179.8009999999999
 31
0.0
  0
ARC
  5
2B5
  8
0
 62
     7
 10
165.30365699999999
 20
179.04592099999991
 30
0.0
 40
0.256665
 50
1.059717
 51
70.157510000000002
  0
LINE
  5
2B6
  8
0
 62
     7
 10
153.7299999999999
 20
179.28700000000001
 30
0.0
 11
155.24799999999991
 21
179.8009999999999
 31
0.0
  0
LINE
  5
2B7
  8
0
 62
     7
 10
153.56
 20
178.71599999999989
 30
0.0
 11
153.56
 21
178.55000000000001
 31
0.0
  0
LINE
  5
2B8
  8
0
 62
     7
 10
153.56
 20
179.0509999999999
 30
0.0
 11
153.56
 21
178.71599999999989
 31
0.0
  0
ARC
  5
2B9
  8
0
 62
     7
 10
153.81623400000001
 20
179.04612299999999
 30
0.0
 40
0.256029
 50
109.5797289999999
 51
178.98280099999991
  0
LINE
  5
2BA
  8
0
 62
     7
 10
157.81
 20
182.30000000000001
 30
0.0
 11
161.31
 21
182.30000000000001
 31
0.0
  0
ARC
  5
2BB
  8
0
 62
     7
 10
159.54771099999999
 20
176.012472
 30
0.0
 40
5.3487010000000001
 50
45.092413000000001
 51
70.609856000000008
  0
ARC
  5
2BC
  8
0
 62
     7
 10
159.57255799999999
 20
176.0357699999999
 30
0.0
 40
5.3222959999999988
 50
109.33786499999989
 51
134.9776149999999
  0
LINE
  5
2BD
  8
0
 62
     7
 10
157.81
 20
181.0509999999999
 30
0.0
 11
161.31
 21
181.0509999999999
 31
0.0
  0
LINE
  5
2BE
  8
0
 62
     7
 10
165.38599999999991
 20
140.65700000000001
 30
0.0
 11
165.023
 21
142.25
 31
0.0
  0
ARC
  5
2BF
  8
0
 62
     7
 10
171.51400100000001
 20
142.06290199999989
 30
0.0
 40
6.2871940000000004
 50
192.9190669999999
 51
224.89680199999989
  0
LINE
  5
2C0
  8
0
 62
     7
 10
153.73500000000001
 20
140.65700000000001
 30
0.0
 11
154.0979999999999
 21
142.25
 31
0.0
  0
ARC
  5
2C1
  8
0
 62
     7
 10
147.60843199999999
 20
142.0632389999999
 30
0.0
 40
6.2860800000000001
 50
315.088751
 51
347.075467
  0
LINE
  5
2C2
  8
0
 62
     7
 10
165.55999999999989
 20
179.0509999999999
 30
0.0
 11
165.55999999999989
 21
178.55000000000001
 31
0.0
  0
LINE
  5
2C3
  8
0
 62
     7
 10
164.92199999999991
 20
177.0509999999999
 30
0.0
 11
165.55999999999989
 21
177.80000000000001
 31
0.0
  0
LINE
  5
2C4
  8
0
 62
     7
 10
154.19799999999989
 20
177.05000000000001
 30
0.0
 11
153.56
 21
177.80000000000001
 31
0.0
  0
LINE
  5
2C5
  8
0
 62
     7
 10
165.55999999999989
 20
177.80000000000001
 30
0.0
 11
153.56
 21
177.80000000000001
 31
0.0
  0
ARC
  5
2C6
  8
0
 62
     7
 10
165.5462389999999
 20
178.19000500000001
 30
0.0
 40
0.389822
 50
272.06386199999997
 51
357.88355899999999
  0
ARC
  5
2C7
  8
0
 62
     7
 10
165.54654099999991
 20
178.161157
 30
0.0
 40
0.389523
 50
2.1262089999999989
 51
87.979007999999979
  0
ARC
  5
2C8
  8
0
 62
     7
 10
153.574669
 20
178.16118499999999
 30
0.0
 40
0.389519
 50
92.122068999999982
 51
177.87790199999989
  0
ARC
  5
2C9
  8
0
 62
     7
 10
153.57500099999999
 20
178.19000600000001
 30
0.0
 40
0.389851
 50
182.11655699999989
 51
267.83083499999998
  0
LINE
  5
2CA
  8
0
 62
     7
 10
153.56
 20
178.55000000000001
 30
0.0
 11
165.55999999999989
 21
178.55000000000001
 31
0.0
  0
LINE
  5
2CB
  8
0
 62
     7
 10
153.56
 20
179.0509999999999
 30
0.0
 11
165.55999999999989
 21
179.0509999999999
 31
0.0
  0
LINE
  5
2CC
  8
0
 62
     7
 10
155.24799999999991
 20
179.8009999999999
 30
0.0
 11
163.87299999999991
 21
179.8009999999999
 31
0.0
  0
ARC
  5
2CD
  8
0
 62
     7
 10
168.111953
 20
170.15979899999991
 30
0.0
 40
14.956132999999999
 50
193.96926999999999
 51
201.51858200000001
  0
ARC
  5
2CE
  8
0
 62
     7
 10
168.1173499999999
 20
170.18781000000001
 30
0.0
 40
14.96178699999999
 50
158.48284699999991
 51
166.029301
  0
LINE
  5
2CF
  8
0
 62
     7
 10
154.19799999999989
 20
175.67500000000001
 30
0.0
 11
164.92199999999991
 21
175.67500000000001
 31
0.0
  0
LINE
  5
2D0
  8
0
 62
     7
 10
164.92199999999991
 20
177.0509999999999
 30
0.0
 11
164.92199999999991
 21
175.67500000000001
 31
0.0
  0
LINE
  5
2D1
  8
0
 62
     7
 10
154.19799999999989
 20
177.05000000000001
 30
0.0
 11
154.19799999999989
 21
175.67500000000001
 31
0.0
  0
LINE
  5
2D2
  8
0
 62
     7
 10
154.19799999999989
 20
177.05000000000001
 30
0.0
 11
164.92199999999991
 21
177.05000000000001
 31
0.0
  0
ARC
  5
2D3
  8
0
 62
     7
 10
150.9510129999999
 20
170.178336
 30
0.0
 40
15.01647799999999
 50
338.49619300000001
 51
359.98600499999992
  0
ARC
  5
2D4
  8
0
 62
     7
 10
150.9273949999999
 20
170.16651200000001
 30
0.0
 40
15.040098
 50
0.031069
 51
21.486733000000001
  0
LINE
  5
2D5
  8
0
 62
     7
 10
154.19799999999989
 20
164.67599999999999
 30
0.0
 11
164.92199999999991
 21
164.67599999999999
 31
0.0
  0
LINE
  5
2D6
  8
0
 62
     7
 10
154.19799999999989
 20
163.30099999999999
 30
0.0
 11
164.92199999999991
 21
163.30099999999999
 31
0.0
  0
LINE
  5
2D7
  8
0
 62
     7
 10
164.92199999999991
 20
164.67599999999999
 30
0.0
 11
164.92199999999991
 21
163.30099999999999
 31
0.0
  0
LINE
  5
2D8
  8
0
 62
     7
 10
154.19799999999989
 20
164.67599999999999
 30
0.0
 11
154.19799999999989
 21
163.30099999999999
 31
0.0
  0
LINE
  5
2D9
  8
0
 62
     7
 10
165.185
 20
162.37899999999991
 30
0.0
 11
165.185
 21
161.65000000000001
 31
0.0
  0
LINE
  5
2DA
  8
0
 62
     7
 10
153.93499999999989
 20
162.37899999999991
 30
0.0
 11
153.93499999999989
 21
161.65000000000001
 31
0.0
  0
LINE
  5
2DB
  8
0
 62
     7
 10
165.023
 20
163.30099999999999
 30
0.0
 11
154.0979999999999
 21
163.30099999999999
 31
0.0
  0
LINE
  5
2DC
  8
0
 62
     7
 10
154.0979999999999
 20
162.34999999999991
 30
0.0
 11
165.023
 21
162.34999999999991
 31
0.0
  0
ARC
  5
2DD
  8
0
 62
     7
 10
165.00511900000001
 20
162.84362200000001
 30
0.0
 40
0.493478
 50
272.05792500000001
 51
357.90055099999989
  0
ARC
  5
2DE
  8
0
 62
     7
 10
165.00517500000001
 20
162.80752200000001
 30
0.0
 40
0.49342
 50
2.0931410000000001
 51
87.948383000000007
  0
ARC
  5
2DF
  8
0
 62
     7
 10
154.11569800000001
 20
162.80788699999999
 30
0.0
 40
0.493068
 50
92.093759999999975
 51
177.94777500000001
  0
ARC
  5
2E0
  8
0
 62
     7
 10
154.115994
 20
162.8434969999999
 30
0.0
 40
0.4933740000000001
 50
182.0853589999999
 51
267.87310699999989
  0
LINE
  5
2E1
  8
0
 62
     7
 10
154.19799999999989
 20
160.27500000000001
 30
0.0
 11
164.92199999999991
 21
160.27500000000001
 31
0.0
  0
LINE
  5
2E2
  8
0
 62
     7
 10
154.19900000000001
 20
145.27499999999989
 30
0.0
 11
164.92399999999989
 21
145.27499999999989
 31
0.0
  0
ARC
  5
2E3
  8
0
 62
     7
 10
210.6447279999999
 20
152.7761689999999
 30
0.0
 40
46.333069000000002
 50
170.68273199999999
 51
189.322529
  0
ARC
  5
2E4
  8
0
 62
     7
 10
108.60258999999991
 20
152.76969600000001
 30
0.0
 40
46.207545000000003
 50
350.67089600000003
 51
0.007132
  0
ARC
  5
2E5
  8
0
 62
     7
 10
108.540475
 20
152.77745200000001
 30
0.0
 40
46.269658999999997
 50
359.99751800000001
 51
9.3280890000000003
  0
LINE
  5
2E6
  8
0
 62
     7
 10
164.92199999999991
 20
161.65000000000001
 30
0.0
 11
164.92199999999991
 21
160.27500000000001
 31
0.0
  0
LINE
  5
2E7
  8
0
 62
     7
 10
154.19799999999989
 20
161.65000000000001
 30
0.0
 11
154.19799999999989
 21
160.27500000000001
 31
0.0
  0
LINE
  5
2E8
  8
0
 62
     7
 10
153.93600000000001
 20
161.65000000000001
 30
0.0
 11
165.185
 21
161.65000000000001
 31
0.0
  0
LINE
  5
2E9
  8
0
 62
     7
 10
164.92399999999989
 20
145.27499999999989
 30
0.0
 11
164.92399999999989
 21
143.90000000000001
 31
0.0
  0
LINE
  5
2EA
  8
0
 62
     7
 10
154.19900000000001
 20
145.27499999999989
 30
0.0
 11
154.19900000000001
 21
143.90000000000001
 31
0.0
  0
LINE
  5
2EB
  8
0
 62
     7
 10
153.93600000000001
 20
143.90000000000001
 30
0.0
 11
165.185
 21
143.90000000000001
 31
0.0
  0
LINE
  5
2EC
  8
0
 62
     7
 10
165.185
 20
143.172
 30
0.0
 11
165.185
 21
143.90000000000001
 31
0.0
  0
LINE
  5
2ED
  8
0
 62
     7
 10
153.93499999999989
 20
143.172
 30
0.0
 11
153.93499999999989
 21
143.90000000000001
 31
0.0
  0
LINE
  5
2EE
  8
0
 62
     7
 10
165.023
 20
142.25
 30
0.0
 11
154.0979999999999
 21
142.25
 31
0.0
  0
LINE
  5
2EF
  8
0
 62
     7
 10
154.0979999999999
 20
143.1999999999999
 30
0.0
 11
165.023
 21
143.1999999999999
 31
0.0
  0
ARC
  5
2F0
  8
0
 62
     7
 10
165.005033
 20
142.74351499999989
 30
0.0
 40
0.493567
 50
272.06748599999992
 51
357.89098999999987
  0
ARC
  5
2F1
  8
0
 62
     7
 10
165.0051949999999
 20
142.70734999999991
 30
0.0
 40
0.493399
 50
2.0909159999999991
 51
87.950606999999977
  0
ARC
  5
2F2
  8
0
 62
     7
 10
154.11569800000001
 20
142.707695
 30
0.0
 40
0.493068
 50
92.093759999999975
 51
177.94777500000001
  0
ARC
  5
2F3
  8
0
 62
     7
 10
154.11601399999989
 20
142.743324
 30
0.0
 40
0.493395
 50
182.08758499999999
 51
267.870881
  0
LINE
  5
2F4
  8
0
 62
     7
 10
167.06
 20
137.25
 30
0.0
 11
167.06
 21
137.62499999999989
 31
0.0
  0
LINE
  5
2F5
  8
0
 62
     7
 10
152.05999999999989
 20
137.25
 30
0.0
 11
152.05999999999989
 21
137.62499999999989
 31
0.0
  0
LINE
  5
2F6
  8
0
 62
     7
 10
167.06
 20
137.62499999999989
 30
0.0
 11
152.05999999999989
 21
137.62499999999989
 31
0.0
  0
LINE
  5
2F7
  8
0
 62
     7
 10
167.06
 20
137.25
 30
0.0
 11
152.05999999999989
 21
137.25
 31
0.0
  0
LINE
  5
2F8
  8
0
  6
AIGENLINE002
 62
     7
 10
158.91599999999991
 20
183.917
 30
0.0
 11
158.65199999999999
 21
184.084
 31
0.0
  0
ARC
  5
2F9
  8
0
  6
AIGENLINE002
 62
     7
 10
157.431015
 20
183.12455899999989
 30
0.0
 40
1.5530539999999999
 50
38.120913999999992
 51
118.6808919999999
  0
ARC
  5
2FA
  8
0
  6
AIGENLINE002
 62
     7
 10
160.183471
 20
187.446099
 30
0.0
 40
1.5489520000000001
 50
175.970643
 51
252.6740649999999
  0
LINE
  5
2FB
  8
0
  6
AIGENLINE002
 62
     7
 10
158.60199999999989
 20
187.4959999999999
 30
0.0
 11
158.6689999999999
 21
187.60099999999991
 31
0.0
  0
LINE
  5
2FC
  8
0
  6
AIGENLINE002
 62
     7
 10
157.661
 20
186.02000000000001
 30
0.0
 11
158.60199999999989
 21
187.4959999999999
 31
0.0
  0
LINE
  5
2FD
  8
0
  6
AIGENLINE002
 62
     7
 10
156.65399999999991
 20
184.4379999999999
 30
0.0
 11
157.661
 21
186.02000000000001
 31
0.0
  0
LINE
  5
2FE
  8
0
  6
AIGENLINE002
 62
     7
 10
149.18700000000001
 20
189.0
 30
0.0
 11
146.16499999999991
 21
190.09999999999991
 31
0.0
  0
ARC
  5
2FF
  8
0
  6
AIGENLINE002
 62
     7
 10
147.32738299999991
 20
193.19865999999999
 30
0.0
 40
3.3092629999999992
 50
193.34914599999991
 51
249.37160999999989
  0
ARC
  5
300
  8
0
  6
AIGENLINE002
 62
     7
 10
155.929383
 20
185.10413999999989
 30
0.0
 40
0.384658
 50
237.93170399999991
 51
300.889027
  0
ARC
  5
301
  8
0
  6
AIGENLINE002
 62
     7
 10
143.16060699999991
 20
172.49373799999989
 30
0.0
 40
17.572222
 50
44.293788000000013
 51
69.883438999999996
  0
LINE
  5
302
  8
0
  6
AIGENLINE002
 62
     7
 10
151.37899999999999
 20
192.44
 30
0.0
 11
149.1049999999999
 21
194.715
 31
0.0
  0
ARC
  5
303
  8
0
  6
AIGENLINE002
 62
     7
 10
146.78672700000001
 20
192.349673
 30
0.0
 40
3.311167999999999
 50
45.511370999999997
 51
101.4916179999999
  0
ARC
  5
304
  8
0
  6
AIGENLINE002
 62
     7
 10
157.825253
 20
187.978602
 30
0.0
 40
0.319078
 50
352.446527
 51
0.510567
  0
ARC
  5
305
  8
0
  6
AIGENLINE002
 62
     7
 10
157.76208600000001
 20
187.97753
 30
0.0
 40
0.382252
 50
0.5869270000000001
 51
57.173072999999988
  0
LINE
  5
306
  8
0
  6
AIGENLINE002
 62
     7
 10
156.65399999999991
 20
184.4379999999999
 30
0.0
 11
156.12700000000001
 21
184.77399999999989
 31
0.0
  0
LINE
  5
307
  8
0
  6
AIGENLINE002
 62
     7
 10
158.6689999999999
 20
187.60099999999991
 30
0.0
 11
158.142
 21
187.93700000000001
 31
0.0
  0
LINE
  5
308
  8
0
  6
AIGENLINE002
 62
     7
 10
156.12700000000001
 20
184.77399999999989
 30
0.0
 11
157.13399999999999
 21
186.35599999999991
 31
0.0
  0
LINE
  5
309
  8
0
  6
AIGENLINE002
 62
     7
 10
157.13399999999999
 20
186.35599999999991
 30
0.0
 11
158.142
 21
187.93700000000001
 31
0.0
  0
ARC
  5
30A
  8
0
  6
AIGENLINE002
 62
     7
 10
163.7865139999999
 20
204.86884800000001
 30
0.0
 40
17.561291000000001
 50
224.99524500000001
 51
250.60043699999991
  0
LINE
  5
30B
  8
0
  6
AIGENLINE002
 62
     7
 10
143.25
 20
193.70899999999989
 30
0.0
 11
142.69
 21
193.74299999999991
 31
0.0
  0
ARC
  5
30C
  8
0
  6
AIGENLINE002
 62
     7
 10
143.213683
 20
193.14917800000001
 30
0.0
 40
0.5651880000000001
 50
327.42960299999987
 51
359.81958700000001
  0
ARC
  5
30D
  8
0
  6
AIGENLINE002
 62
     7
 10
143.195716
 20
193.1281139999999
 30
0.0
 40
0.583472
 50
1.8941079999999999
 51
84.555478000000008
  0
LINE
  5
30E
  8
0
  6
AIGENLINE002
 62
     7
 10
144.602
 20
195.8309999999999
 30
0.0
 11
144.33500000000001
 21
196.32400000000001
 31
0.0
  0
ARC
  5
30F
  8
0
  6
AIGENLINE002
 62
     7
 10
145.104974
 20
196.12723799999989
 30
0.0
 40
0.583264
 50
210.46805900000001
 51
296.39981299999988
  0
ARC
  5
310
  8
0
  6
AIGENLINE002
 62
     7
 10
145.09668199999999
 20
196.1009169999999
 30
0.0
 40
0.563699
 50
298.34464999999989
 51
327.29584899999998
  0
LINE
  5
311
  8
0
  6
AIGENLINE002
 62
     7
 10
144.108
 20
192.43100000000001
 30
0.0
 11
143.62299999999991
 21
192.74000000000001
 31
0.0
  0
LINE
  5
312
  8
0
  6
AIGENLINE002
 62
     7
 10
146.12399999999991
 20
195.59299999999999
 30
0.0
 11
145.63900000000001
 21
195.90199999999999
 31
0.0
  0
LINE
  5
313
  8
0
  6
AIGENLINE002
 62
     7
 10
144.63099999999989
 20
194.321
 30
0.0
 11
145.63900000000001
 21
195.90199999999999
 31
0.0
  0
LINE
  5
314
  8
0
  6
AIGENLINE002
 62
     7
 10
145.11600000000001
 20
194.012
 30
0.0
 11
146.12399999999991
 21
195.59299999999999
 31
0.0
  0
LINE
  5
315
  8
0
  6
AIGENLINE002
 62
     7
 10
143.62299999999991
 20
192.74000000000001
 30
0.0
 11
144.63099999999989
 21
194.321
 31
0.0
  0
LINE
  5
316
  8
0
  6
AIGENLINE002
 62
     7
 10
144.108
 20
192.43100000000001
 30
0.0
 11
145.11600000000001
 21
194.012
 31
0.0
  0
ARC
  5
317
  8
0
  6
AIGENLINE002
 62
     7
 10
142.76954900000001
 20
195.3994689999999
 30
0.0
 40
1.817788
 50
30.512917000000002
 51
116.30555799999991
  0
ARC
  5
318
  8
0
  6
AIGENLINE002
 62
     7
 10
142.88808299999991
 20
195.46226399999989
 30
0.0
 40
1.8189729999999991
 50
120.5330249999999
 51
206.27473800000001
  0
ARC
  5
319
  8
0
  6
AIGENLINE002
 62
     7
 10
142.81647899999999
 20
195.52138899999991
 30
0.0
 40
1.7829539999999999
 50
208.99804999999989
 51
265.872366
  0
ARC
  5
31A
  8
0
  6
AIGENLINE002
 62
     7
 10
166.52077199999991
 20
185.36338199999989
 30
0.0
 40
0.23635
 50
351.22541200000001
 51
0.5299930000000001
  0
ARC
  5
31B
  8
0
  6
AIGENLINE002
 62
     7
 10
166.50129399999989
 20
185.36138600000001
 30
0.0
 40
0.255851
 50
0.9366429999999999
 51
67.303589999999986
  0
ARC
  5
31C
  8
0
  6
AIGENLINE002
 62
     7
 10
163.669432
 20
185.8002139999999
 30
0.0
 40
3.1206429999999989
 50
338.13378
 51
351.23931399999998
  0
LINE
  5
31D
  8
0
  6
AIGENLINE002
 62
     7
 10
166.59999999999991
 20
185.5979999999999
 30
0.0
 11
161.05099999999999
 21
187.81700000000001
 31
0.0
  0
ARC
  5
31E
  8
0
  6
AIGENLINE002
 62
     7
 10
160.9604379999999
 20
187.57626999999991
 30
0.0
 40
0.257173
 50
69.472051000000008
 51
143.7803449999999
  0
ARC
  5
31F
  8
0
  6
AIGENLINE002
 62
     7
 10
163.372288
 20
185.9112979999999
 30
0.0
 40
3.1884199999999998
 50
145.2147689999999
 51
158.03344199999989
  0
ARC
  5
320
  8
0
  6
AIGENLINE002
 62
     7
 10
161.1851179999999
 20
180.10655399999999
 30
0.0
 40
7.5784029999999989
 50
47.886391000000003
 51
88.417215999999996
  0
LINE
  5
321
  8
0
  6
AIGENLINE002
 62
     7
 10
160.41499999999991
 20
187.102
 30
0.0
 11
160.25700000000001
 21
186.70699999999999
 31
0.0
  0
LINE
  5
322
  8
0
  6
AIGENLINE002
 62
     7
 10
166.40899999999999
 20
184.2459999999999
 30
0.0
 11
166.56700000000001
 21
184.64099999999991
 31
0.0
  0
LINE
  5
323
  8
0
  6
AIGENLINE002
 62
     7
 10
160.41499999999991
 20
187.102
 30
0.0
 11
166.56700000000001
 21
184.64099999999991
 31
0.0
  0
LINE
  5
324
  8
0
  6
AIGENLINE002
 62
     7
 10
160.25700000000001
 20
186.70699999999999
 30
0.0
 11
166.40899999999999
 21
184.2459999999999
 31
0.0
  0
ARC
  5
325
  8
0
  6
AIGENLINE002
 62
     7
 10
165.095361
 20
182.67052100000001
 30
0.0
 40
6.301196
 50
140.114081
 51
176.037845
  0
LINE
  5
326
  8
0
  6
AIGENLINE002
 62
     7
 10
160.25999999999991
 20
182.505
 30
0.0
 11
158.809
 21
183.0859999999999
 31
0.0
  0
LINE
  5
327
  8
0
  6
AIGENLINE002
 62
     7
 10
164.96000000000001
 20
180.625
 30
0.0
 11
163.5089999999999
 21
181.2059999999999
 31
0.0
  0
ARC
  5
328
  8
0
  6
AIGENLINE002
 62
     7
 10
160.12527
 20
184.660043
 30
0.0
 40
6.2972859999999988
 50
320.09540600000003
 51
356.16641800000002
  0
LINE
  5
329
  8
0
  6
AIGENLINE002
 62
     7
 10
163.5089999999999
 20
181.2059999999999
 30
0.0
 11
163.0449999999999
 21
180.0449999999999
 31
0.0
  0
LINE
  5
32A
  8
0
  6
AIGENLINE002
 62
     7
 10
160.25999999999991
 20
182.505
 30
0.0
 11
159.7949999999999
 21
181.34499999999991
 31
0.0
  0
LINE
  5
32B
  8
0
  6
AIGENLINE002
 62
     7
 10
160.25999999999991
 20
182.505
 30
0.0
 11
163.5089999999999
 21
181.2059999999999
 31
0.0
  0
LINE
  5
32C
  8
0
  6
AIGENLINE002
 62
     7
 10
159.7949999999999
 20
181.34499999999991
 30
0.0
 11
163.0449999999999
 21
180.0449999999999
 31
0.0
  0
LINE
  5
32D
  8
0
  6
AIGENLINE001
 62
     7
 10
77.823000000000008
 20
98.731499999999997
 30
0.0
 11
65.941100000000006
 21
115.999
 31
0.0
  0
LINE
  5
32E
  8
0
 62
     7
 10
64.628500000000003
 20
80.000799999999998
 30
0.0
 11
64.628500000000003
 21
107.98999999999999
 31
0.0
  0
LINE
  5
32F
  8
0
 62
     7
 10
67.253699999999995
 20
107.98999999999999
 30
0.0
 11
67.253699999999995
 21
80.000799999999998
 31
0.0
  0
LINE
  5
330
  8
0
  6
AIGENLINE001
 62
     7
 10
65.941100000000006
 20
115.999
 30
0.0
 11
65.941100000000006
 21
71.036900000000003
 31
0.0
  0
LINE
  5
331
  8
0
 62
     7
 10
76.5107
 20
106.30800000000001
 30
0.0
 11
76.5107
 21
129.125
 31
0.0
  0
LINE
  5
332
  8
0
 62
     7
 10
79.135499999999993
 20
106.30800000000001
 30
0.0
 11
79.135499999999993
 21
120.0
 31
0.0
  0
LINE
  5
333
  8
0
  6
AIGENLINE001
 62
     7
 10
77.823000000000008
 20
98.731499999999997
 30
0.0
 11
77.823000000000008
 21
139.78399999999991
 31
0.0
  0
LINE
  5
334
  8
0
 62
     7
 10
63.187800000000003
 20
75.124600000000001
 30
0.0
 11
63.187800000000003
 21
72.498699999999999
 31
0.0
  0
LINE
  5
335
  8
0
 62
     7
 10
64.563400000000001
 20
75.124600000000001
 30
0.0
 11
64.563400000000001
 21
72.498699999999999
 31
0.0
  0
ARC
  5
336
  8
0
 62
     7
 10
65.063579000000004
 20
76.819159999999997
 30
0.0
 40
4.710102
 50
246.530877
 51
251.70777599999991
  0
ARC
  5
337
  8
0
 62
     7
 10
63.910412000000001
 20
73.414857999999995
 30
0.0
 40
1.1162009999999991
 50
253.06342100000001
 51
268.83946899999989
  0
ARC
  5
338
  8
0
 62
     7
 10
63.866726999999997
 20
73.403497999999999
 30
0.0
 40
1.1048129999999989
 50
271.09317099999998
 51
286.84298999999987
  0
ARC
  5
339
  8
0
 62
     7
 10
63.531928000000001
 20
74.502668
 30
0.0
 40
2.2538399999999998
 50
286.89263199999988
 51
297.23542500000002
  0
ARC
  5
33A
  8
0
 62
     7
 10
63.822456000000003
 20
74.028414999999995
 30
0.0
 40
1.323083
 50
55.943649000000001
 51
87.168907999999988
  0
ARC
  5
33B
  8
0
 62
     7
 10
63.888803000000003
 20
74.431730000000002
 30
0.0
 40
0.918153
 50
90.062259999999995
 51
101.848529
  0
ARC
  5
33C
  8
0
 62
     7
 10
64.034370999999993
 20
73.756867
 30
0.0
 40
1.608530999999999
 50
101.987447
 51
121.757626
  0
LINE
  5
33D
  8
0
 62
     7
 10
68.688199999999995
 20
75.124600000000001
 30
0.0
 11
68.688199999999995
 21
72.498699999999999
 31
0.0
  0
LINE
  5
33E
  8
0
 62
     7
 10
67.313599999999994
 20
75.124600000000001
 30
0.0
 11
67.313599999999994
 21
72.498699999999999
 31
0.0
  0
ARC
  5
33F
  8
0
 62
     7
 10
69.221266
 20
76.888862000000003
 30
0.0
 40
4.7867079999999991
 50
246.51383300000001
 51
251.60570799999999
  0
ARC
  5
340
  8
0
 62
     7
 10
68.021076000000008
 20
73.318066999999999
 30
0.0
 40
1.0197000000000001
 50
252.284898
 51
268.17083799999989
  0
ARC
  5
341
  8
0
 62
     7
 10
67.965722999999997
 20
73.415800000000004
 30
0.0
 40
1.1171459999999991
 50
271.16969699999999
 51
286.64519999999987
  0
ARC
  5
342
  8
0
 62
     7
 10
67.338487000000001
 20
75.438811999999999
 30
0.0
 40
3.235126999999999
 50
287.02549599999998
 51
294.65889800000002
  0
ARC
  5
343
  8
0
 62
     7
 10
67.829156999999995
 20
73.65583199999999
 30
0.0
 40
1.7015299999999991
 50
59.676361999999997
 51
84.625585000000001
  0
ARC
  5
344
  8
0
 62
     7
 10
67.990131999999988
 20
74.581992
 30
0.0
 40
0.767892
 50
90.119710999999995
 51
103.071507
  0
ARC
  5
345
  8
0
 62
     7
 10
68.192633000000001
 20
73.691019999999995
 30
0.0
 40
1.681581999999999
 50
102.92653299999991
 51
121.51516099999991
  0
ARC
  5
346
  8
0
 62
     7
 10
68.019824999999997
 20
88.985972000000004
 30
0.0
 40
16.845680999999988
 50
258.15984900000001
 51
262.131733
  0
LINE
  5
347
  8
0
 62
     7
 10
65.713700000000003
 20
72.298900000000003
 30
0.0
 11
66.162999999999997
 21
72.298900000000003
 31
0.0
  0
ARC
  5
348
  8
0
 62
     7
 10
66.162697999999992
 20
74.239820999999992
 30
0.0
 40
1.940934999999999
 50
270.0077609999999
 51
278.005695
  0
ARC
  5
349
  8
0
 62
     7
 10
65.727778999999998
 20
77.279036000000005
 30
0.0
 40
5.0111069999999991
 50
278.09035299999988
 51
284.11073099999987
  0
ARC
  5
34A
  8
0
 62
     7
 10
31.613965
 20
235.00557099999989
 30
0.0
 40
166.381934
 50
282.26162799999992
 51
282.38999000000001
  0
ARC
  5
34B
  8
0
 62
     7
 10
65.94630699999999
 20
71.088493999999997
 30
0.0
 40
4.2613959999999986
 50
71.284891999999999
 51
90.107124999999982
  0
ARC
  5
34C
  8
0
 62
     7
 10
65.839691000000002
 20
73.625970999999993
 30
0.0
 40
1.726731
 50
86.724917000000005
 51
95.127988999999985
  0
ARC
  5
34D
  8
0
 62
     7
 10
66.073484999999991
 20
70.421561999999994
 30
0.0
 40
4.9395020000000001
 50
94.506760999999997
 51
107.8013279999999
  0
LINE
  5
34E
  8
0
 62
     7
 10
64.688100000000006
 20
75.525599999999983
 30
0.0
 11
65.938299999999998
 21
75.525599999999983
 31
0.0
  0
LINE
  5
34F
  8
0
 62
     7
 10
67.188199999999995
 20
75.525599999999983
 30
0.0
 11
65.938299999999998
 21
75.525599999999983
 31
0.0
  0
LINE
  5
350
  8
0
 62
     7
 10
68.23899999999999
 20
72.249300000000005
 30
0.0
 11
65.938299999999998
 21
72.249300000000005
 31
0.0
  0
LINE
  5
351
  8
0
 62
     7
 10
65.938299999999998
 20
72.249300000000005
 30
0.0
 11
63.637700000000002
 21
72.249300000000005
 31
0.0
  0
LINE
  5
352
  8
0
 62
     7
 10
63.337600000000002
 20
72.449100000000001
 30
0.0
 11
63.637700000000002
 21
72.274100000000004
 31
0.0
  0
LINE
  5
353
  8
0
 62
     7
 10
63.637700000000002
 20
72.274100000000004
 30
0.0
 11
63.637700000000002
 21
72.249300000000005
 31
0.0
  0
LINE
  5
354
  8
0
 62
     7
 10
63.187800000000003
 20
72.498699999999999
 30
0.0
 11
63.637700000000002
 21
72.274100000000004
 31
0.0
  0
LINE
  5
355
  8
0
 62
     7
 10
68.688199999999995
 20
72.498699999999999
 30
0.0
 11
68.23899999999999
 21
72.249300000000005
 31
0.0
  0
LINE
  5
356
  8
0
 62
     7
 10
68.23899999999999
 20
75.374700000000004
 30
0.0
 11
63.637700000000002
 21
75.374700000000004
 31
0.0
  0
LINE
  5
357
  8
0
 62
     7
 10
67.488600000000005
 20
75.499399999999994
 30
0.0
 11
64.388000000000005
 21
75.499399999999994
 31
0.0
  0
ARC
  5
358
  8
0
 62
     7
 10
64.932879
 20
76.173388000000003
 30
0.0
 40
0.6925060000000001
 50
203.2772369999999
 51
249.30092500000001
  0
LINE
  5
359
  8
0
 62
     7
 10
64.296700000000001
 20
75.899699999999996
 30
0.0
 11
64.263300000000001
 21
75.999600000000001
 31
0.0
  0
LINE
  5
35A
  8
0
 62
     7
 10
64.263300000000001
 20
75.999600000000001
 30
0.0
 11
64.263300000000001
 21
76.149799999999999
 31
0.0
  0
LINE
  5
35B
  8
0
 62
     7
 10
64.263300000000001
 20
76.149799999999999
 30
0.0
 11
64.312899999999999
 21
76.3249
 31
0.0
  0
LINE
  5
35C
  8
0
 62
     7
 10
67.588499999999996
 20
76.3249
 30
0.0
 11
67.563699999999997
 21
76.3249
 31
0.0
  0
ARC
  5
35D
  8
0
 62
     7
 10
60.776417000000002
 20
75.270088000000001
 30
0.0
 40
6.8933070000000001
 50
7.3323100000000014
 51
8.8015519999999992
  0
LINE
  5
35E
  8
0
 62
     7
 10
67.613399999999999
 20
76.149799999999999
 30
0.0
 11
67.613399999999999
 21
75.999600000000001
 31
0.0
  0
LINE
  5
35F
  8
0
 62
     7
 10
67.613399999999999
 20
75.999600000000001
 30
0.0
 11
67.581000000000003
 21
75.899699999999996
 31
0.0
  0
ARC
  5
360
  8
0
 62
     7
 10
66.76707900000001
 20
76.169139000000001
 30
0.0
 40
0.857324
 50
329.44562699999989
 51
341.68434400000001
  0
ARC
  5
361
  8
0
 62
     7
 10
67.188777999999999
 20
75.941550000000007
 30
0.0
 40
0.378929
 50
302.98491699999988
 51
326.66445599999997
  0
ARC
  5
362
  8
0
 62
     7
 10
66.473244999999991
 20
77.116105000000005
 30
0.0
 40
1.7541509999999989
 50
294.944187
 51
301.70279299999999
  0
LINE
  5
363
  8
0
 62
     7
 10
67.213000000000008
 20
75.525599999999983
 30
0.0
 11
67.188199999999995
 21
75.525599999999983
 31
0.0
  0
LINE
  5
364
  8
0
 62
     7
 10
67.388400000000004
 20
76.75
 30
0.0
 11
64.512699999999995
 21
76.75
 31
0.0
  0
LINE
  5
365
  8
0
 62
     7
 10
67.388400000000004
 20
78.750200000000007
 30
0.0
 11
65.938299999999998
 21
78.750200000000007
 31
0.0
  0
LINE
  5
366
  8
0
 62
     7
 10
65.938299999999998
 20
78.750200000000007
 30
0.0
 11
64.512699999999995
 21
78.750200000000007
 31
0.0
  0
LINE
  5
367
  8
0
 62
     7
 10
64.263300000000001
 20
79.3001
 30
0.0
 11
64.263300000000001
 21
79.175299999999993
 31
0.0
  0
LINE
  5
368
  8
0
 62
     7
 10
64.263300000000001
 20
79.175299999999993
 30
0.0
 11
64.338099999999997
 21
79.049899999999994
 31
0.0
  0
LINE
  5
369
  8
0
 62
     7
 10
67.638499999999993
 20
79.3001
 30
0.0
 11
67.613399999999999
 21
79.175299999999993
 31
0.0
  0
LINE
  5
36A
  8
0
 62
     7
 10
67.613399999999999
 20
79.175299999999993
 30
0.0
 11
67.563699999999997
 21
79.049899999999994
 31
0.0
  0
LINE
  5
36B
  8
0
 62
     7
 10
67.638499999999993
 20
80.000799999999998
 30
0.0
 11
64.263300000000001
 21
80.000799999999998
 31
0.0
  0
LINE
  5
36C
  8
0
 62
     7
 10
67.638499999999993
 20
80.000799999999998
 30
0.0
 11
67.638499999999993
 21
79.3001
 31
0.0
  0
LINE
  5
36D
  8
0
 62
     7
 10
64.263300000000001
 20
80.000799999999998
 30
0.0
 11
64.263300000000001
 21
79.3001
 31
0.0
  0
LINE
  5
36E
  8
0
 62
     7
 10
63.637700000000002
 20
75.374700000000004
 30
0.0
 11
63.187800000000003
 21
75.124600000000001
 31
0.0
  0
LINE
  5
36F
  8
0
 62
     7
 10
68.23899999999999
 20
75.374700000000004
 30
0.0
 11
68.688199999999995
 21
75.124600000000001
 31
0.0
  0
LINE
  5
370
  8
0
 62
     7
 10
67.563699999999997
 20
79.049899999999994
 30
0.0
 11
67.388400000000004
 21
78.750200000000007
 31
0.0
  0
LINE
  5
371
  8
0
 62
     7
 10
67.388400000000004
 20
76.75
 30
0.0
 11
67.563699999999997
 21
76.3249
 31
0.0
  0
LINE
  5
372
  8
0
 62
     7
 10
64.338099999999997
 20
79.049899999999994
 30
0.0
 11
64.512699999999995
 21
78.750200000000007
 31
0.0
  0
LINE
  5
373
  8
0
 62
     7
 10
64.512699999999995
 20
76.75
 30
0.0
 11
64.312899999999999
 21
76.3249
 31
0.0
  0
LINE
  5
374
  8
0
 62
     7
 10
67.388400000000004
 20
78.750200000000007
 30
0.0
 11
67.388400000000004
 21
76.75
 31
0.0
  0
LINE
  5
375
  8
0
 62
     7
 10
64.512699999999995
 20
78.750200000000007
 30
0.0
 11
64.512699999999995
 21
76.75
 31
0.0
  0
LINE
  5
376
  8
0
 62
     7
 10
67.488600000000005
 20
75.499399999999994
 30
0.0
 11
67.488600000000005
 21
75.374700000000004
 31
0.0
  0
LINE
  5
377
  8
0
 62
     7
 10
64.388000000000005
 20
75.499399999999994
 30
0.0
 11
64.388000000000005
 21
75.374700000000004
 31
0.0
  0
LINE
  5
378
  8
0
 62
     7
 10
68.688199999999995
 20
72.498699999999999
 30
0.0
 11
68.23899999999999
 21
72.249300000000005
 31
0.0
  0
LINE
  5
379
  8
0
 62
     7
 10
63.187800000000003
 20
72.498699999999999
 30
0.0
 11
63.637700000000002
 21
72.249300000000005
 31
0.0
  0
LINE
  5
37A
  8
0
  6
AIGENLINE001
 62
     7
 10
82.322999999999993
 20
98.731499999999997
 30
0.0
 11
94.204800000000006
 21
115.999
 31
0.0
  0
LINE
  5
37B
  8
0
 62
     7
 10
95.517399999999995
 20
80.000799999999998
 30
0.0
 11
95.517399999999995
 21
107.98999999999999
 31
0.0
  0
LINE
  5
37C
  8
0
 62
     7
 10
92.892200000000003
 20
107.98999999999999
 30
0.0
 11
92.892200000000003
 21
80.000799999999998
 31
0.0
  0
LINE
  5
37D
  8
0
  6
AIGENLINE001
 62
     7
 10
94.204800000000006
 20
115.999
 30
0.0
 11
94.204800000000006
 21
71.036900000000003
 31
0.0
  0
LINE
  5
37E
  8
0
 62
     7
 10
83.635199999999983
 20
106.30800000000001
 30
0.0
 11
83.635199999999983
 21
129.125
 31
0.0
  0
LINE
  5
37F
  8
0
 62
     7
 10
81.010400000000004
 20
106.30800000000001
 30
0.0
 11
81.010400000000004
 21
120.0
 31
0.0
  0
LINE
  5
380
  8
0
 62
     7
 10
83.635199999999983
 20
130.99899999999991
 30
0.0
 11
83.635199999999983
 21
137.25
 31
0.0
  0
LINE
  5
381
  8
0
 62
     7
 10
81.010400000000004
 20
130.99899999999991
 30
0.0
 11
81.010400000000004
 21
137.25
 31
0.0
  0
LINE
  5
382
  8
0
  6
AIGENLINE001
 62
     7
 10
82.322999999999993
 20
98.731499999999997
 30
0.0
 11
82.322999999999993
 21
139.78399999999991
 31
0.0
  0
LINE
  5
383
  8
0
 62
     7
 10
96.958200000000005
 20
75.124600000000001
 30
0.0
 11
96.958200000000005
 21
72.498699999999999
 31
0.0
  0
LINE
  5
384
  8
0
 62
     7
 10
95.582499999999996
 20
75.124600000000001
 30
0.0
 11
95.582499999999996
 21
72.498699999999999
 31
0.0
  0
ARC
  5
385
  8
0
 62
     7
 10
94.988831000000005
 20
77.064318
 30
0.0
 40
4.9722390000000001
 50
288.42879299999998
 51
293.33259399999997
  0
ARC
  5
386
  8
0
 62
     7
 10
96.234677000000005
 20
73.420144999999991
 30
0.0
 40
1.1215040000000001
 50
271.19808399999988
 51
286.899066
  0
ARC
  5
387
  8
0
 62
     7
 10
96.259259999999983
 20
73.207778000000005
 30
0.0
 40
0.9088919999999999
 50
258.21164199999993
 51
269.92854599999998
  0
ARC
  5
388
  8
0
 62
     7
 10
96.452819999999988
 20
74.106605999999985
 30
0.0
 40
1.8283160000000001
 50
241.575459
 51
258.02835499999992
  0
ARC
  5
389
  8
0
 62
     7
 10
96.323593000000002
 20
74.028062000000006
 30
0.0
 40
1.3234399999999991
 50
92.835400000000007
 51
124.052003
  0
ARC
  5
38A
  8
0
 62
     7
 10
96.240577999999999
 20
74.270387999999997
 30
0.0
 40
1.079637
 50
73.133595
 51
89.068670999999995
  0
ARC
  5
38B
  8
0
 62
     7
 10
96.024567000000005
 20
73.561924000000005
 30
0.0
 40
1.8202989999999999
 50
59.143670999999991
 51
73.096907999999999
  0
LINE
  5
38C
  8
0
 62
     7
 10
91.457700000000003
 20
75.124600000000001
 30
0.0
 11
91.457700000000003
 21
72.498699999999999
 31
0.0
  0
LINE
  5
38D
  8
0
 62
     7
 10
92.832300000000004
 20
75.124600000000001
 30
0.0
 11
92.832300000000004
 21
72.498699999999999
 31
0.0
  0
ARC
  5
38E
  8
0
 62
     7
 10
90.822015000000007
 20
77.157111999999998
 30
0.0
 40
5.0736600000000003
 50
288.53839099999988
 51
293.34210899999988
  0
ARC
  5
38F
  8
0
 62
     7
 10
92.124870999999999
 20
73.317973999999992
 30
0.0
 40
1.019606
 50
271.82844699999998
 51
287.71585599999997
  0
ARC
  5
390
  8
0
 62
     7
 10
92.158771999999985
 20
73.206531000000012
 30
0.0
 40
0.9076450000000002
 50
258.15365700000001
 51
269.91359799999992
  0
ARC
  5
391
  8
0
 62
     7
 10
92.445123999999993
 20
74.490553000000006
 30
0.0
 40
2.2231669999999988
 50
243.630923
 51
257.72432599999991
  0
ARC
  5
392
  8
0
 62
     7
 10
92.313943000000009
 20
73.664627999999993
 30
0.0
 40
1.692509
 50
95.30682800000001
 51
120.39118499999999
  0
ARC
  5
393
  8
0
 62
     7
 10
92.130486999999988
 20
74.358773999999997
 30
0.0
 40
0.9914729999999998
 50
72.102780999999993
 51
88.444325000000006
  0
ARC
  5
394
  8
0
 62
     7
 10
91.848872999999983
 20
73.459378000000001
 30
0.0
 40
1.9339090000000001
 50
59.434783000000003
 51
72.351877999999999
  0
ARC
  5
395
  8
0
 62
     7
 10
91.302527999999995
 20
93.727226999999999
 30
0.0
 40
21.655685999999989
 50
278.30951199999998
 51
281.39894500000003
  0
LINE
  5
396
  8
0
 62
     7
 10
94.432199999999995
 20
72.298900000000003
 30
0.0
 11
93.982999999999976
 21
72.298900000000003
 31
0.0
  0
ARC
  5
397
  8
0
 62
     7
 10
93.983233999999996
 20
74.239820999999992
 30
0.0
 40
1.940934999999999
 50
261.99432400000001
 51
269.99225899999988
  0
ARC
  5
398
  8
0
 62
     7
 10
94.418152000000006
 20
77.279036000000005
 30
0.0
 40
5.0111069999999991
 50
255.88928799999999
 51
261.90966700000001
  0
ARC
  5
399
  8
0
 62
     7
 10
128.5319669999999
 20
235.00557099999989
 30
0.0
 40
166.381934
 50
257.61002999999988
 51
257.73839199999992
  0
ARC
  5
39A
  8
0
 62
     7
 10
94.199624999999997
 20
71.088493999999997
 30
0.0
 40
4.2613959999999986
 50
89.892855000000012
 51
108.71508799999989
  0
ARC
  5
39B
  8
0
 62
     7
 10
94.258477999999997
 20
71.958239000000006
 30
0.0
 40
3.392024999999999
 50
80.693124999999995
 51
90.859538000000001
  0
ARC
  5
39C
  8
0
 62
     7
 10
94.087636000000003
 20
70.472546999999992
 30
0.0
 40
4.8863139999999987
 50
72.185456999999985
 51
81.533607999999987
  0
LINE
  5
39D
  8
0
 62
     7
 10
95.457800000000006
 20
75.525599999999983
 30
0.0
 11
94.207599999999985
 21
75.525599999999983
 31
0.0
  0
LINE
  5
39E
  8
0
 62
     7
 10
92.957700000000003
 20
75.525599999999983
 30
0.0
 11
94.207599999999985
 21
75.525599999999983
 31
0.0
  0
LINE
  5
39F
  8
0
 62
     7
 10
91.906899999999993
 20
72.249300000000005
 30
0.0
 11
94.207599999999985
 21
72.249300000000005
 31
0.0
  0
LINE
  5
3A0
  8
0
 62
     7
 10
94.207599999999985
 20
72.249300000000005
 30
0.0
 11
96.508200000000016
 21
72.249300000000005
 31
0.0
  0
LINE
  5
3A1
  8
0
 62
     7
 10
96.808300000000003
 20
72.449100000000001
 30
0.0
 11
96.508200000000016
 21
72.274100000000004
 31
0.0
  0
LINE
  5
3A2
  8
0
 62
     7
 10
96.508200000000016
 20
72.274100000000004
 30
0.0
 11
96.508200000000016
 21
72.249300000000005
 31
0.0
  0
LINE
  5
3A3
  8
0
 62
     7
 10
96.958200000000005
 20
72.498699999999999
 30
0.0
 11
96.508200000000016
 21
72.274100000000004
 31
0.0
  0
LINE
  5
3A4
  8
0
 62
     7
 10
91.457700000000003
 20
72.498699999999999
 30
0.0
 11
91.906899999999993
 21
72.249300000000005
 31
0.0
  0
LINE
  5
3A5
  8
0
 62
     7
 10
91.906899999999993
 20
75.374700000000004
 30
0.0
 11
96.508200000000016
 21
75.374700000000004
 31
0.0
  0
LINE
  5
3A6
  8
0
 62
     7
 10
92.657300000000006
 20
75.499399999999994
 30
0.0
 11
95.757900000000006
 21
75.499399999999994
 31
0.0
  0
ARC
  5
3A7
  8
0
 62
     7
 10
95.214912999999996
 20
76.171441000000002
 30
0.0
 40
0.690029
 50
290.61169799999988
 51
336.81017900000001
  0
LINE
  5
3A8
  8
0
 62
     7
 10
95.849199999999996
 20
75.899699999999996
 30
0.0
 11
95.882599999999996
 21
75.999600000000001
 31
0.0
  0
LINE
  5
3A9
  8
0
 62
     7
 10
95.882599999999996
 20
75.999600000000001
 30
0.0
 11
95.882599999999996
 21
76.149799999999999
 31
0.0
  0
LINE
  5
3AA
  8
0
 62
     7
 10
95.882599999999996
 20
76.149799999999999
 30
0.0
 11
95.832999999999984
 21
76.3249
 31
0.0
  0
LINE
  5
3AB
  8
0
 62
     7
 10
92.557400000000015
 20
76.3249
 30
0.0
 11
92.582199999999986
 21
76.3249
 31
0.0
  0
ARC
  5
3AC
  8
0
 62
     7
 10
99.189885000000004
 20
75.295546999999999
 30
0.0
 40
6.7118969999999996
 50
171.17857199999989
 51
172.6875269999999
  0
LINE
  5
3AD
  8
0
 62
     7
 10
92.532600000000002
 20
76.149799999999999
 30
0.0
 11
92.532600000000002
 21
75.999600000000001
 31
0.0
  0
LINE
  5
3AE
  8
0
 62
     7
 10
92.532600000000002
 20
75.999600000000001
 30
0.0
 11
92.564999999999998
 21
75.899699999999996
 31
0.0
  0
ARC
  5
3AF
  8
0
 62
     7
 10
93.378851999999995
 20
76.169139000000001
 30
0.0
 40
0.857324
 50
198.31567599999991
 51
210.554393
  0
ARC
  5
3B0
  8
0
 62
     7
 10
92.957026999999997
 20
75.941423
 30
0.0
 40
0.378754
 50
213.33000000000001
 51
237.020667
  0
ARC
  5
3B1
  8
0
 62
     7
 10
93.672685999999999
 20
77.116105000000005
 30
0.0
 40
1.7541509999999989
 50
238.29722699999991
 51
245.05583300000001
  0
LINE
  5
3B2
  8
0
 62
     7
 10
92.932900000000004
 20
75.525599999999983
 30
0.0
 11
92.957700000000003
 21
75.525599999999983
 31
0.0
  0
LINE
  5
3B3
  8
0
 62
     7
 10
92.757499999999993
 20
76.75
 30
0.0
 11
95.633200000000002
 21
76.75
 31
0.0
  0
LINE
  5
3B4
  8
0
 62
     7
 10
92.757499999999993
 20
78.750200000000007
 30
0.0
 11
94.207599999999985
 21
78.750200000000007
 31
0.0
  0
LINE
  5
3B5
  8
0
 62
     7
 10
94.207599999999985
 20
78.750200000000007
 30
0.0
 11
95.633200000000002
 21
78.750200000000007
 31
0.0
  0
LINE
  5
3B6
  8
0
 62
     7
 10
95.882599999999996
 20
79.3001
 30
0.0
 11
95.882599999999996
 21
79.175299999999993
 31
0.0
  0
LINE
  5
3B7
  8
0
 62
     7
 10
95.882599999999996
 20
79.175299999999993
 30
0.0
 11
95.8078
 21
79.049899999999994
 31
0.0
  0
LINE
  5
3B8
  8
0
 62
     7
 10
92.507400000000004
 20
79.3001
 30
0.0
 11
92.532600000000002
 21
79.175299999999993
 31
0.0
  0
LINE
  5
3B9
  8
0
 62
     7
 10
92.532600000000002
 20
79.175299999999993
 30
0.0
 11
92.582199999999986
 21
79.049899999999994
 31
0.0
  0
LINE
  5
3BA
  8
0
 62
     7
 10
92.507400000000004
 20
80.000799999999998
 30
0.0
 11
95.882599999999996
 21
80.000799999999998
 31
0.0
  0
LINE
  5
3BB
  8
0
 62
     7
 10
92.507400000000004
 20
80.000799999999998
 30
0.0
 11
92.507400000000004
 21
79.3001
 31
0.0
  0
LINE
  5
3BC
  8
0
 62
     7
 10
95.882599999999996
 20
80.000799999999998
 30
0.0
 11
95.882599999999996
 21
79.3001
 31
0.0
  0
LINE
  5
3BD
  8
0
 62
     7
 10
96.508200000000016
 20
75.374700000000004
 30
0.0
 11
96.958200000000005
 21
75.124600000000001
 31
0.0
  0
LINE
  5
3BE
  8
0
 62
     7
 10
91.906899999999993
 20
75.374700000000004
 30
0.0
 11
91.457700000000003
 21
75.124600000000001
 31
0.0
  0
LINE
  5
3BF
  8
0
 62
     7
 10
92.582199999999986
 20
79.049899999999994
 30
0.0
 11
92.757499999999993
 21
78.750200000000007
 31
0.0
  0
LINE
  5
3C0
  8
0
 62
     7
 10
92.757499999999993
 20
76.75
 30
0.0
 11
92.582199999999986
 21
76.3249
 31
0.0
  0
LINE
  5
3C1
  8
0
 62
     7
 10
95.8078
 20
79.049899999999994
 30
0.0
 11
95.633200000000002
 21
78.750200000000007
 31
0.0
  0
LINE
  5
3C2
  8
0
 62
     7
 10
95.633200000000002
 20
76.75
 30
0.0
 11
95.832999999999984
 21
76.3249
 31
0.0
  0
LINE
  5
3C3
  8
0
 62
     7
 10
92.757499999999993
 20
78.750200000000007
 30
0.0
 11
92.757499999999993
 21
76.75
 31
0.0
  0
LINE
  5
3C4
  8
0
 62
     7
 10
95.633200000000002
 20
78.750200000000007
 30
0.0
 11
95.633200000000002
 21
76.75
 31
0.0
  0
LINE
  5
3C5
  8
0
 62
     7
 10
92.657300000000006
 20
75.499399999999994
 30
0.0
 11
92.657300000000006
 21
75.374700000000004
 31
0.0
  0
LINE
  5
3C6
  8
0
 62
     7
 10
95.757900000000006
 20
75.499399999999994
 30
0.0
 11
95.757900000000006
 21
75.374700000000004
 31
0.0
  0
LINE
  5
3C7
  8
0
 62
     7
 10
91.457700000000003
 20
72.498699999999999
 30
0.0
 11
91.906899999999993
 21
72.249300000000005
 31
0.0
  0
LINE
  5
3C8
  8
0
 62
     7
 10
96.958200000000005
 20
72.498699999999999
 30
0.0
 11
96.508200000000016
 21
72.249300000000005
 31
0.0
  0
LINE
  5
3C9
  8
0
 62
     7
 10
79.135199999999998
 20
130.99899999999991
 30
0.0
 11
79.135199999999998
 21
137.25
 31
0.0
  0
LINE
  5
3CA
  8
0
 62
     7
 10
76.510400000000004
 20
130.99899999999991
 30
0.0
 11
76.510400000000004
 21
137.25
 31
0.0
  0
LINE
  5
3CB
  8
0
 62
     7
 10
80.072999999999993
 20
125.2499999999999
 30
0.0
 11
80.072999999999993
 21
122.5
 31
0.0
  0
LINE
  5
3CC
  8
0
 62
     7
 10
80.697900000000004
 20
122.5
 30
0.0
 11
80.697900000000004
 21
115.7489999999999
 31
0.0
  0
LINE
  5
3CD
  8
0
 62
     7
 10
79.323000000000008
 20
115.7489999999999
 30
0.0
 11
79.323000000000008
 21
112.251
 31
0.0
  0
LINE
  5
3CE
  8
0
 62
     7
 10
80.823000000000008
 20
115.7489999999999
 30
0.0
 11
80.823000000000008
 21
112.251
 31
0.0
  0
LINE
  5
3CF
  8
0
 62
     7
 10
80.823000000000008
 20
115.7489999999999
 30
0.0
 11
79.323000000000008
 21
115.7489999999999
 31
0.0
  0
LINE
  5
3D0
  8
0
 62
     7
 10
80.823000000000008
 20
112.251
 30
0.0
 11
79.323000000000008
 21
112.251
 31
0.0
  0
LINE
  5
3D1
  8
0
 62
     7
 10
80.697900000000004
 20
112.251
 30
0.0
 11
80.697900000000004
 21
54.749099999999999
 31
0.0
  0
LINE
  5
3D2
  8
0
 62
     7
 10
80.697900000000004
 20
54.749099999999999
 30
0.0
 11
79.447999999999993
 21
54.749099999999999
 31
0.0
  0
LINE
  5
3D3
  8
0
 62
     7
 10
79.447999999999993
 20
112.251
 30
0.0
 11
79.447999999999993
 21
54.749099999999999
 31
0.0
  0
LINE
  5
3D4
  8
0
 62
     7
 10
79.447999999999993
 20
122.5
 30
0.0
 11
79.447999999999993
 21
115.7499999999999
 31
0.0
  0
LINE
  5
3D5
  8
0
 62
     7
 10
78.573000000000008
 20
128.75
 30
0.0
 11
78.573000000000008
 21
122.5
 31
0.0
  0
LINE
  5
3D6
  8
0
 62
     7
 10
81.573000000000008
 20
128.75
 30
0.0
 11
81.573000000000008
 21
122.5
 31
0.0
  0
LINE
  5
3D7
  8
0
 62
     7
 10
78.573000000000008
 20
122.5
 30
0.0
 11
81.573000000000008
 21
122.5
 31
0.0
  0
LINE
  5
3D8
  8
0
 62
     7
 10
78.573000000000008
 20
125.2499999999999
 30
0.0
 11
81.573000000000008
 21
125.2499999999999
 31
0.0
  0
LINE
  5
3D9
  8
0
 62
     7
 10
81.573000000000008
 20
128.75
 30
0.0
 11
82.572699999999998
 21
129.125
 31
0.0
  0
LINE
  5
3DA
  8
0
 62
     7
 10
77.572800000000001
 20
129.125
 30
0.0
 11
78.573000000000008
 21
128.75
 31
0.0
  0
LINE
  5
3DB
  8
0
 62
     7
 10
78.573000000000008
 20
128.75
 30
0.0
 11
81.573000000000008
 21
128.75
 31
0.0
  0
LINE
  5
3DC
  8
0
 62
     7
 10
73.572699999999983
 20
131.0
 30
0.0
 11
73.572699999999983
 21
129.125
 31
0.0
  0
LINE
  5
3DD
  8
0
 62
     7
 10
86.572900000000004
 20
131.0
 30
0.0
 11
86.572900000000004
 21
129.125
 31
0.0
  0
LINE
  5
3DE
  8
0
 62
     7
 10
73.572699999999983
 20
129.125
 30
0.0
 11
86.572900000000004
 21
129.125
 31
0.0
  0
LINE
  5
3DF
  8
0
 62
     7
 10
73.572699999999983
 20
130.49999999999989
 30
0.0
 11
86.572900000000004
 21
130.49999999999989
 31
0.0
  0
LINE
  5
3E0
  8
0
 62
     7
 10
73.572699999999983
 20
131.0
 30
0.0
 11
86.572900000000004
 21
131.0
 31
0.0
  0
LINE
  5
3E1
  8
0
 62
     7
 10
98.444900000000004
 20
139.46199999999999
 30
0.0
 11
99.037499999999994
 21
137.25
 31
0.0
  0
LINE
  5
3E2
  8
0
 62
     7
 10
99.037499999999994
 20
137.25
 30
0.0
 11
99.629999999999995
 21
139.46199999999999
 31
0.0
  0
LINE
  5
3E3
  8
0
 62
     7
 10
99.629999999999995
 20
139.46199999999999
 30
0.0
 11
98.444900000000004
 21
139.46199999999999
 31
0.0
  0
LINE
  5
3E4
  8
0
 62
     7
 10
99.615600000000001
 20
195.03899999999999
 30
0.0
 11
99.022999999999996
 21
197.25099999999989
 31
0.0
  0
LINE
  5
3E5
  8
0
 62
     7
 10
99.022999999999996
 20
197.25099999999989
 30
0.0
 11
98.43040000000002
 21
195.03899999999999
 31
0.0
  0
LINE
  5
3E6
  8
0
 62
     7
 10
98.43040000000002
 20
195.03899999999999
 30
0.0
 11
99.615600000000001
 21
195.03899999999999
 31
0.0
  0
LINE
  5
3E7
  8
0
 62
     7
 10
99.022999999999996
 20
137.25
 30
0.0
 11
99.022999999999996
 21
197.25099999999989
 31
0.0
  0
LINE
  5
3E8
  8
0
 62
     7
 10
112.4349999999999
 20
139.46199999999999
 30
0.0
 11
113.02799999999991
 21
137.25
 31
0.0
  0
LINE
  5
3E9
  8
0
 62
     7
 10
113.02799999999991
 20
137.25
 30
0.0
 11
113.62
 21
139.46199999999999
 31
0.0
  0
LINE
  5
3EA
  8
0
 62
     7
 10
113.62
 20
139.46199999999999
 30
0.0
 11
112.4349999999999
 21
139.46199999999999
 31
0.0
  0
LINE
  5
3EB
  8
0
 62
     7
 10
113.60599999999999
 20
157.96299999999991
 30
0.0
 11
113.01299999999991
 21
160.17500000000001
 31
0.0
  0
LINE
  5
3EC
  8
0
 62
     7
 10
113.01299999999991
 20
160.17500000000001
 30
0.0
 11
112.42100000000001
 21
157.96299999999991
 31
0.0
  0
LINE
  5
3ED
  8
0
 62
     7
 10
112.42100000000001
 20
157.96299999999991
 30
0.0
 11
113.60599999999999
 21
157.96299999999991
 31
0.0
  0
LINE
  5
3EE
  8
0
 62
     7
 10
113.01299999999991
 20
137.25
 30
0.0
 11
113.01299999999991
 21
160.17500000000001
 31
0.0
  0
LINE
  5
3EF
  8
0
 62
     7
 10
116.566
 20
160.17500000000001
 30
0.0
 11
112.3129999999999
 21
160.17500000000001
 31
0.0
  0
LINE
  5
3F0
  8
0
 62
     7
 10
140.18100000000001
 20
197.25099999999989
 30
0.0
 11
98.337400000000002
 21
197.25099999999989
 31
0.0
  0
LINE
  5
3F1
  8
0
 62
     7
 10
151.15299999999999
 20
137.25
 30
0.0
 11
98.337400000000002
 21
137.25
 31
0.0
  0
LINE
  5
3F2
  8
0
 62
     7
 10
134.64599999999999
 20
189.75099999999989
 30
0.0
 11
105.447
 21
189.75099999999989
 31
0.0
  0
LINE
  5
3F3
  8
0
 62
     7
 10
106.7399999999999
 20
187.53899999999999
 30
0.0
 11
106.14700000000001
 21
189.75099999999989
 31
0.0
  0
LINE
  5
3F4
  8
0
 62
     7
 10
106.14700000000001
 20
189.75099999999989
 30
0.0
 11
105.55499999999989
 21
187.53899999999999
 31
0.0
  0
LINE
  5
3F5
  8
0
 62
     7
 10
105.55499999999989
 20
187.53899999999999
 30
0.0
 11
106.7399999999999
 21
187.53899999999999
 31
0.0
  0
LINE
  5
3F6
  8
0
 62
     7
 10
105.569
 20
139.46199999999999
 30
0.0
 11
106.16200000000001
 21
137.25
 31
0.0
  0
LINE
  5
3F7
  8
0
 62
     7
 10
106.16200000000001
 20
137.25
 30
0.0
 11
106.75399999999991
 21
139.46199999999999
 31
0.0
  0
LINE
  5
3F8
  8
0
 62
     7
 10
106.75399999999991
 20
139.46199999999999
 30
0.0
 11
105.569
 21
139.46199999999999
 31
0.0
  0
LINE
  5
3F9
  8
0
 62
     7
 10
106.14700000000001
 20
189.75099999999989
 30
0.0
 11
106.14700000000001
 21
137.25
 31
0.0
  0
LINE
  5
3FA
  8
0
 62
     7
 10
167.06
 20
147.60699999999991
 30
0.0
 11
167.06
 21
138.40999999999991
 31
0.0
  0
LINE
  5
3FB
  8
0
 62
     7
 10
152.05999999999989
 20
147.60699999999991
 30
0.0
 11
152.05999999999989
 21
138.40999999999991
 31
0.0
  0
LINE
  5
3FC
  8
0
 62
     7
 10
154.27199999999999
 20
147.499
 30
0.0
 11
152.05999999999989
 21
146.90700000000001
 31
0.0
  0
LINE
  5
3FD
  8
0
 62
     7
 10
152.05999999999989
 20
146.90700000000001
 30
0.0
 11
154.27199999999999
 21
146.31399999999991
 31
0.0
  0
LINE
  5
3FE
  8
0
 62
     7
 10
154.27199999999999
 20
146.31399999999991
 30
0.0
 11
154.27199999999999
 21
147.499
 31
0.0
  0
LINE
  5
3FF
  8
0
 62
     7
 10
164.84899999999999
 20
146.32900000000001
 30
0.0
 11
167.06
 21
146.92099999999991
 31
0.0
  0
LINE
  5
400
  8
0
 62
     7
 10
167.06
 20
146.92099999999991
 30
0.0
 11
164.84899999999999
 21
147.51400000000001
 31
0.0
  0
LINE
  5
401
  8
0
 62
     7
 10
164.84899999999999
 20
147.51400000000001
 30
0.0
 11
164.84899999999999
 21
146.32900000000001
 31
0.0
  0
LINE
  5
402
  8
0
 62
     7
 10
152.05999999999989
 20
146.90700000000001
 30
0.0
 11
167.06
 21
146.90700000000001
 31
0.0
  0
LINE
  5
403
  8
0
  6
AIGENLINE001
 62
     7
 10
159.56
 20
98.343300000000013
 30
0.0
 11
159.56
 21
145.92599999999999
 31
0.0
  0
LINE
  5
404
  8
0
 62
     7
 10
167.9559999999999
 20
76.477099999999993
 30
0.0
 11
155.08699999999999
 21
76.477099999999993
 31
0.0
  0
LINE
  5
405
  8
0
 62
     7
 10
157.3489999999999
 20
153.89400000000001
 30
0.0
 11
159.56
 21
154.4859999999999
 31
0.0
  0
LINE
  5
406
  8
0
 62
     7
 10
159.56
 20
154.4859999999999
 30
0.0
 11
157.3489999999999
 21
155.07900000000001
 31
0.0
  0
LINE
  5
407
  8
0
 62
     7
 10
157.3489999999999
 20
155.07900000000001
 30
0.0
 11
157.3489999999999
 21
153.89400000000001
 31
0.0
  0
LINE
  5
408
  8
0
 62
     7
 10
121.771
 20
155.06399999999999
 30
0.0
 11
119.5599999999999
 21
154.471
 31
0.0
  0
LINE
  5
409
  8
0
 62
     7
 10
119.5599999999999
 20
154.471
 30
0.0
 11
121.771
 21
153.87899999999991
 31
0.0
  0
LINE
  5
40A
  8
0
 62
     7
 10
121.771
 20
153.87899999999991
 30
0.0
 11
121.771
 21
155.06399999999999
 31
0.0
  0
LINE
  5
40B
  8
0
 62
     7
 10
159.56
 20
154.471
 30
0.0
 11
119.5599999999999
 21
154.471
 31
0.0
  0
LINE
  5
40C
  8
0
 62
     7
 10
146.6999999999999
 20
213.58600000000001
 30
0.0
 11
152.48699999999991
 21
213.58600000000001
 31
0.0
  0
LINE
  5
40D
  8
0
 62
     7
 10
155.322
 20
215.58299999999991
 30
0.0
 11
156.46700000000001
 21
217.565
 31
0.0
  0
LINE
  5
40E
  8
0
 62
     7
 10
156.46700000000001
 20
217.565
 30
0.0
 11
154.48400000000001
 21
216.41999999999999
 31
0.0
  0
LINE
  5
40F
  8
0
 62
     7
 10
154.48400000000001
 20
216.41999999999999
 30
0.0
 11
155.322
 21
215.58299999999991
 31
0.0
  0
LINE
  5
410
  8
0
 62
     7
 10
163.79900000000001
 20
225.73500000000001
 30
0.0
 11
162.654
 21
223.75299999999999
 31
0.0
  0
LINE
  5
411
  8
0
 62
     7
 10
162.654
 20
223.75299999999999
 30
0.0
 11
164.637
 21
224.89699999999999
 31
0.0
  0
LINE
  5
412
  8
0
 62
     7
 10
164.637
 20
224.89699999999999
 30
0.0
 11
163.79900000000001
 21
225.73500000000001
 31
0.0
  0
LINE
  5
413
  8
0
 62
     7
 10
165.1629999999999
 20
226.262
 30
0.0
 11
152.48699999999991
 21
213.58600000000001
 31
0.0
  0
LINE
  5
414
  8
0
  6
AIGENLINE001
 62
     7
 10
159.56
 20
226.97999999999999
 30
0.0
 11
159.56
 21
213.82799999999989
 31
0.0
  0
ARC
  5
415
  8
0
 62
     7
 10
159.56043299999999
 20
220.65872599999989
 30
0.0
 40
4.3751269999999991
 50
0.002266
 51
90.002235999999996
  0
ARC
  5
416
  8
0
 62
     7
 10
159.56043500000001
 20
220.6590709999999
 30
0.0
 40
4.374782999999999
 50
90.002256000000017
 51
180.00226599999991
  0
ARC
  5
417
  8
0
 62
     7
 10
159.56043299999999
 20
220.65872599999989
 30
0.0
 40
4.3747809999999987
 50
179.997714
 51
269.99776400000002
  0
ARC
  5
418
  8
0
 62
     7
 10
159.56043299999999
 20
220.65907300000001
 30
0.0
 40
4.3751269999999991
 50
269.99776400000002
 51
359.99773399999992
  0
LINE
  5
419
  8
0
  6
AIGENLINE001
 62
     7
 10
152.62200000000001
 20
220.65899999999999
 30
0.0
 11
166.33699999999999
 21
220.65899999999999
 31
0.0
  0
ARC
  5
41A
  8
0
 62
     7
 10
38.220056999999997
 20
72.526337999999996
 30
0.0
 40
0.519257
 50
272.09944300000001
 51
357.90056699999991
  0
ARC
  5
41B
  8
0
 62
     7
 10
36.258203999999999
 20
72.526689000000005
 30
0.0
 40
0.519608
 50
182.13673499999999
 51
267.90276799999998
  0
ARC
  5
41C
  8
0
 62
     7
 10
38.220382999999991
 20
73.888716000000002
 30
0.0
 40
0.5189189999999999
 50
2.0647340000000001
 51
87.935255999999995
  0
ARC
  5
41D
  8
0
 62
     7
 10
36.258074999999998
 20
73.888167999999993
 30
0.0
 40
0.519474
 50
92.083542000000023
 51
177.87695500000001
  0
LINE
  5
41E
  8
0
 62
     7
 10
39.007699999999993
 20
47.796500000000002
 30
0.0
 11
37.238999999999997
 21
47.322800000000001
 31
0.0
  0
LINE
  5
41F
  8
0
 62
     7
 10
37.238999999999997
 20
47.322800000000001
 30
0.0
 11
39.007699999999993
 21
46.8491
 31
0.0
  0
LINE
  5
420
  8
0
 62
     7
 10
39.007699999999993
 20
46.8491
 30
0.0
 11
39.007699999999993
 21
47.796500000000002
 31
0.0
  0
LINE
  5
421
  8
0
 62
     7
 10
71.471000000000004
 20
46.86079999999999
 30
0.0
 11
73.239400000000003
 21
47.334200000000003
 31
0.0
  0
LINE
  5
422
  8
0
 62
     7
 10
73.239400000000003
 20
47.334200000000003
 30
0.0
 11
71.471000000000004
 21
47.808199999999999
 31
0.0
  0
LINE
  5
423
  8
0
 62
     7
 10
71.471000000000004
 20
47.808199999999999
 30
0.0
 11
71.471000000000004
 21
46.86079999999999
 31
0.0
  0
LINE
  5
424
  8
0
 62
     7
 10
37.260300000000001
 20
47.328699999999998
 30
0.0
 11
73.218000000000004
 21
47.328699999999998
 31
0.0
  0
LINE
  5
425
  8
0
 62
     7
 10
73.239400000000003
 20
63.370899999999992
 30
0.0
 11
73.239400000000003
 21
46.633800000000001
 31
0.0
  0
LINE
  5
426
  8
0
 62
     7
 10
41.000300000000003
 20
54.534100000000002
 30
0.0
 11
50.049599999999998
 21
54.534100000000002
 31
0.0
  0
LINE
  5
427
  8
0
 62
     7
 10
35.247
 20
55.001999999999988
 30
0.0
 11
33.478999999999999
 21
54.528599999999997
 31
0.0
  0
LINE
  5
428
  8
0
 62
     7
 10
33.478999999999999
 20
54.528599999999997
 30
0.0
 11
35.247
 21
54.054600000000001
 31
0.0
  0
LINE
  5
429
  8
0
 62
     7
 10
35.247
 20
54.054600000000001
 30
0.0
 11
35.247
 21
55.001999999999988
 31
0.0
  0
LINE
  5
42A
  8
0
 62
     7
 10
39.2316
 20
54.066299999999991
 30
0.0
 11
41.000300000000003
 21
54.539999999999999
 31
0.0
  0
LINE
  5
42B
  8
0
 62
     7
 10
41.000300000000003
 20
54.539999999999999
 30
0.0
 11
39.2316
 21
55.014000000000003
 31
0.0
  0
LINE
  5
42C
  8
0
 62
     7
 10
39.2316
 20
55.014000000000003
 30
0.0
 11
39.2316
 21
54.066299999999991
 31
0.0
  0
LINE
  5
42D
  8
0
 62
     7
 10
33.500300000000003
 20
54.534100000000002
 30
0.0
 11
40.978299999999997
 21
54.534100000000002
 31
0.0
  0
LINE
  5
42E
  8
0
 62
     7
 10
33.478999999999999
 20
60.29679999999999
 30
0.0
 11
33.478999999999999
 21
54.013199999999998
 31
0.0
  0
LINE
  5
42F
  8
0
 62
     7
 10
41.000300000000003
 20
60.29679999999999
 30
0.0
 11
41.000300000000003
 21
54.070099999999989
 31
0.0
  0
LINE
  5
430
  8
0
 62
     7
 10
27.651199999999999
 20
76.920199999999994
 30
0.0
 11
27.177199999999988
 21
78.688500000000005
 31
0.0
  0
LINE
  5
431
  8
0
 62
     7
 10
27.177199999999988
 20
78.688500000000005
 30
0.0
 11
26.703099999999999
 21
76.920199999999994
 31
0.0
  0
LINE
  5
432
  8
0
 62
     7
 10
26.703099999999999
 20
76.920199999999994
 30
0.0
 11
27.651199999999999
 21
76.920199999999994
 31
0.0
  0
LINE
  5
433
  8
0
 62
     7
 10
26.7148
 20
72.447000000000003
 30
0.0
 11
27.1889
 21
70.678600000000003
 31
0.0
  0
LINE
  5
434
  8
0
 62
     7
 10
27.1889
 20
70.678600000000003
 30
0.0
 11
27.6629
 21
72.447000000000003
 31
0.0
  0
LINE
  5
435
  8
0
 62
     7
 10
27.6629
 20
72.447000000000003
 30
0.0
 11
26.7148
 21
72.447000000000003
 31
0.0
  0
LINE
  5
436
  8
0
 62
     7
 10
27.182700000000001
 20
78.688500000000005
 30
0.0
 11
27.182700000000001
 21
70.678600000000003
 31
0.0
  0
LINE
  5
437
  8
0
 62
     7
 10
27.651199999999999
 20
68.909899999999993
 30
0.0
 11
27.177199999999988
 21
70.678600000000003
 31
0.0
  0
LINE
  5
438
  8
0
 62
     7
 10
27.177199999999988
 20
70.678600000000003
 30
0.0
 11
26.703099999999999
 21
68.909899999999993
 31
0.0
  0
LINE
  5
439
  8
0
 62
     7
 10
26.703099999999999
 20
68.909899999999993
 30
0.0
 11
27.651199999999999
 21
68.909899999999993
 31
0.0
  0
LINE
  5
43A
  8
0
 62
     7
 10
26.7148
 20
62.380000000000003
 30
0.0
 11
27.1889
 21
60.611999999999988
 31
0.0
  0
LINE
  5
43B
  8
0
 62
     7
 10
27.1889
 20
60.611999999999988
 30
0.0
 11
27.6629
 21
62.380000000000003
 31
0.0
  0
LINE
  5
43C
  8
0
 62
     7
 10
27.6629
 20
62.380000000000003
 30
0.0
 11
26.7148
 21
62.380000000000003
 31
0.0
  0
LINE
  5
43D
  8
0
 62
     7
 10
27.182700000000001
 20
70.700000000000003
 30
0.0
 11
27.182700000000001
 21
60.611999999999988
 31
0.0
  0
LINE
  5
43E
  8
0
 62
     7
 10
32.875399999999992
 20
60.611999999999988
 30
0.0
 11
26.840199999999999
 21
60.611999999999988
 31
0.0
  0
LINE
  5
43F
  8
0
 62
     7
 10
30.728400000000001
 20
70.678600000000003
 30
0.0
 11
26.840199999999999
 21
70.678600000000003
 31
0.0
  0
LINE
  5
440
  8
0
 62
     7
 10
30.651199999999999
 20
78.688500000000005
 30
0.0
 11
26.837499999999991
 21
78.688500000000005
 31
0.0
  0
LINE
  5
441
  8
0
 62
     7
 10
43.5291
 20
78.441900000000004
 30
0.0
 11
43.5291
 21
78.341300000000004
 31
0.0
  0
ARC
  5
442
  8
0
 62
     7
 10
45.347012999999997
 20
65.298524
 30
0.0
 40
4.5759460000000001
 50
197.79533000000001
 51
208.88982200000001
  0
ARC
  5
443
  8
0
 62
     7
 10
41.750153999999988
 20
63.325873000000001
 30
0.0
 40
0.4737930000000001
 50
210.16971599999999
 51
228.211367
  0
ARC
  5
444
  8
0
 62
     7
 10
43.328471
 20
64.535366999999994
 30
0.0
 40
2.2977460000000001
 50
149.55197499999991
 51
156.77878699999999
  0
ARC
  5
445
  8
0
 62
     7
 10
45.022221000000002
 20
63.794086
 30
0.0
 40
4.1465800000000002
 50
156.593434
 51
168.78198699999999
  0
LINE
  5
446
  8
0
 62
     7
 10
46.936300000000003
 20
66.249600000000001
 30
0.0
 11
46.471899999999998
 21
66.249600000000001
 31
0.0
  0
LINE
  5
447
  8
0
 62
     7
 10
45.38669999999999
 20
62.28670000000001
 30
0.0
 11
44.6783
 21
62.28670000000001
 31
0.0
  0
LINE
  5
448
  8
0
 62
     7
 10
46.943899999999999
 20
62.28670000000001
 30
0.0
 11
46.524900000000002
 21
62.28670000000001
 31
0.0
  0
ARC
  5
449
  8
0
 62
     7
 10
45.956645000000002
 20
62.378841999999999
 30
0.0
 40
0.6960340000000002
 50
52.488180999999997
 51
91.658146000000002
  0
ARC
  5
44A
  8
0
 62
     7
 10
46.002842999999999
 20
62.506562000000002
 30
0.0
 40
0.5680830000000001
 50
8.0018159999999998
 51
48.336568999999997
  0
ARC
  5
44B
  8
0
 62
     7
 10
45.523094
 20
62.398123999999989
 30
0.0
 40
1.0590349999999991
 50
359.76767899999987
 51
10.198861000000001
  0
ARC
  5
44C
  8
0
 62
     7
 10
46.463301000000001
 20
62.400112
 30
0.0
 40
0.118984
 50
321.09098699999998
 51
356.97355499999992
  0
ARC
  5
44D
  8
0
 62
     7
 10
46.126525999999991
 20
62.631719999999987
 30
0.0
 40
0.527443
 50
305.26441399999987
 51
324.492975
  0
ARC
  5
44E
  8
0
 62
     7
 10
45.893342999999987
 20
62.929892000000002
 30
0.0
 40
0.9057109999999999
 50
271.55376100000001
 51
306.41861299999988
  0
ARC
  5
44F
  8
0
 62
     7
 10
45.929584999999989
 20
62.701225000000001
 30
0.0
 40
0.6768130000000001
 50
203.62404799999999
 51
269.01081899999991
  0
ARC
  5
450
  8
0
 62
     7
 10
46.237728999999987
 20
62.431151
 30
0.0
 40
0.928237
 50
155.20362600000001
 51
180.07085499999991
  0
ARC
  5
451
  8
0
 62
     7
 10
45.803283
 20
62.586897999999991
 30
0.0
 40
0.4703000000000001
 50
105.7059159999999
 51
150.22471399999989
  0
ARC
  5
452
  8
0
 62
     7
 10
45.920559999999988
 20
62.204824000000002
 30
0.0
 40
0.8699069999999998
 50
88.949779000000007
 51
106.32973699999999
  0
ARC
  5
453
  8
0
 62
     7
 10
45.898055999999997
 20
64.739621
 30
0.0
 40
1.6347819999999991
 50
76.814149
 51
90.584351999999996
  0
ARC
  5
454
  8
0
 62
     7
 10
46.151054000000002
 20
65.742859999999993
 30
0.0
 40
0.600537
 50
56.647652999999998
 51
78.482027000000002
  0
ARC
  5
455
  8
0
 62
     7
 10
46.415326
 20
66.136069999999989
 30
0.0
 40
0.126875
 50
6.1656389999999979
 51
58.710188000000002
  0
ARC
  5
456
  8
0
 62
     7
 10
45.391357999999997
 20
66.149405999999999
 30
0.0
 40
1.1501099999999991
 50
337.096701
 51
0.014472
  0
ARC
  5
457
  8
0
 62
     7
 10
45.933332
 20
65.954565000000002
 30
0.0
 40
0.5758939999999999
 50
270.31563999999992
 51
333.96685300000001
  0
ARC
  5
458
  8
0
 62
     7
 10
45.949037999999987
 20
66.015408999999991
 30
0.0
 40
0.636853
 50
198.6812129999999
 51
268.87236300000001
  0
ARC
  5
459
  8
0
 62
     7
 10
46.270996999999987
 20
66.157324000000003
 30
0.0
 40
0.987803
 50
179.12350900000001
 51
200.49782999999991
  0
ARC
  5
45A
  8
0
 62
     7
 10
45.359765000000003
 20
66.169257999999999
 30
0.0
 40
0.076521
 50
132.2944399999999
 51
177.621184
  0
ARC
  5
45B
  8
0
 62
     7
 10
45.532392999999999
 20
65.996041000000005
 30
0.0
 40
0.32101
 50
110.193484
 51
134.2809389999999
  0
ARC
  5
45C
  8
0
 62
     7
 10
45.836969000000003
 20
65.228179999999995
 30
0.0
 40
1.1469979999999991
 50
87.780852999999993
 51
111.2323
  0
ARC
  5
45D
  8
0
 62
     7
 10
45.927725000000002
 20
64.645564000000007
 30
0.0
 40
0.51167
 50
43.357921999999988
 51
89.016797999999994
  0
ARC
  5
45E
  8
0
 62
     7
 10
45.664946999999991
 20
64.369415000000004
 30
0.0
 40
0.892553
 50
12.63997899999999
 51
44.665711000000002
  0
ARC
  5
45F
  8
0
 62
     7
 10
45.331592999999998
 20
64.257080999999999
 30
0.0
 40
1.242950999999999
 50
359.86685699999998
 51
14.330363999999999
  0
ARC
  5
460
  8
0
 62
     7
 10
45.401878000000004
 20
64.256788999999998
 30
0.0
 40
1.1726659999999991
 50
323.81890899999991
 51
359.87316800000002
  0
ARC
  5
461
  8
0
 62
     7
 10
45.899304999999998
 20
63.928359999999991
 30
0.0
 40
0.5779860000000001
 50
273.6901739999999
 51
320.98681499999992
  0
ARC
  5
462
  8
0
 62
     7
 10
45.938386000000001
 20
63.835045999999998
 30
0.0
 40
0.4834770000000001
 50
231.76364000000001
 51
269.777017
  0
ARC
  5
463
  8
0
 62
     7
 10
46.124572000000001
 20
64.082977999999983
 30
0.0
 40
0.7934830000000001
 50
198.33115499999991
 51
232.28383500000001
  0
ARC
  5
464
  8
0
 62
     7
 10
46.493274999999997
 20
64.246414000000001
 30
0.0
 40
1.1955209999999989
 50
179.62717499999999
 51
200.20934700000001
  0
ARC
  5
465
  8
0
 62
     7
 10
46.468220000000002
 20
64.251589999999993
 30
0.0
 40
1.1704429999999999
 50
143.726754
 51
179.87257
  0
ARC
  5
466
  8
0
 62
     7
 10
45.974404999999997
 20
64.579251999999997
 30
0.0
 40
0.579148
 50
93.752252999999982
 51
140.95598699999999
  0
LINE
  5
467
  8
0
 62
     7
 10
54.075200000000002
 20
61.962800000000001
 30
0.0
 11
53.601900000000001
 21
63.731200000000001
 31
0.0
  0
LINE
  5
468
  8
0
 62
     7
 10
53.601900000000001
 20
63.731200000000001
 30
0.0
 11
53.127800000000001
 21
61.962800000000001
 31
0.0
  0
LINE
  5
469
  8
0
 62
     7
 10
53.127800000000001
 20
61.962800000000001
 30
0.0
 11
54.075200000000002
 21
61.962800000000001
 31
0.0
  0
LINE
  5
46A
  8
0
 62
     7
 10
53.139600000000002
 20
66.4983
 30
0.0
 11
53.613599999999998
 21
64.7303
 31
0.0
  0
LINE
  5
46B
  8
0
 62
     7
 10
53.613599999999998
 20
64.7303
 30
0.0
 11
54.086999999999989
 21
66.4983
 31
0.0
  0
LINE
  5
46C
  8
0
 62
     7
 10
54.086999999999989
 20
66.4983
 30
0.0
 11
53.139600000000002
 21
66.4983
 31
0.0
  0
LINE
  5
46D
  8
0
 62
     7
 10
53.607399999999991
 20
70.653199999999984
 30
0.0
 11
53.607399999999991
 21
60.696800000000003
 31
0.0
  0
LINE
  5
46E
  8
0
 62
     7
 10
71.312200000000004
 20
63.8718
 30
0.0
 11
70.779200000000003
 21
63.8718
 31
0.0
  0
LINE
  5
46F
  8
0
 62
     7
 10
71.312200000000004
 20
64.577299999999994
 30
0.0
 11
70.779200000000003
 21
64.577299999999994
 31
0.0
  0
LINE
  5
470
  8
0
 62
     7
 10
71.400700000000001
 20
63.760899999999999
 30
0.0
 11
71.405199999999994
 21
63.760899999999999
 31
0.0
  0
LINE
  5
471
  8
0
 62
     7
 10
70.779200000000003
 20
63.75119999999999
 30
0.0
 11
71.312200000000004
 21
63.75119999999999
 31
0.0
  0
LINE
  5
472
  8
0
 62
     7
 10
70.779200000000003
 20
64.6965
 30
0.0
 11
71.312200000000004
 21
64.6965
 31
0.0
  0
ARC
  5
473
  8
0
 62
     7
 10
71.547693999999993
 20
63.576382000000002
 30
0.0
 40
0.23443
 50
78.775599999999983
 51
177.01340899999991
  0
ARC
  5
474
  8
0
 62
     7
 10
71.615818000000004
 20
63.53618199999999
 30
0.0
 40
0.271081
 50
29.222272
 51
94.759360999999984
  0
ARC
  5
475
  8
0
 62
     7
 10
71.542599999999993
 20
64.855956000000006
 30
0.0
 40
0.230853
 50
185.71360699999991
 51
282.69339500000001
  0
ARC
  5
476
  8
0
 62
     7
 10
71.614198000000002
 20
64.905472000000003
 30
0.0
 40
0.275519
 50
265.655441
 51
330.11816499999992
  0
ARC
  5
477
  8
0
 62
     7
 10
71.610258999999999
 20
64.334342000000007
 30
0.0
 40
0.296886
 50
93.269615000000016
 51
177.84828599999989
  0
ARC
  5
478
  8
0
 62
     7
 10
71.583503000000007
 20
64.34664699999999
 30
0.0
 40
0.284267
 50
4.5625220000000004
 51
88.019583999999995
  0
ARC
  5
479
  8
0
 62
     7
 10
71.608457999999999
 20
64.102538999999993
 30
0.0
 40
0.296598
 50
184.78402500000001
 51
267.07562899999999
  0
ARC
  5
47A
  8
0
 62
     7
 10
71.612483999999995
 20
64.072282000000001
 30
0.0
 40
0.266643
 50
265.88001700000001
 51
342.55929400000002
  0
LINE
  5
47B
  8
0
 62
     7
 10
71.669499999999985
 20
63.547299999999993
 30
0.0
 11
71.312200000000004
 21
63.547299999999993
 31
0.0
  0
LINE
  5
47C
  8
0
 62
     7
 10
71.866900000000001
 20
64.6965
 30
0.0
 11
71.866900000000001
 21
63.744999999999997
 31
0.0
  0
ARC
  5
47D
  8
0
 62
     7
 10
71.661699999999996
 20
63.75240999999999
 30
0.0
 40
0.205302
 50
272.16707000000002
 51
357.93284499999999
  0
LINE
  5
47E
  8
0
 62
     7
 10
71.669499999999985
 20
64.893600000000006
 30
0.0
 11
71.312200000000004
 21
64.893600000000006
 31
0.0
  0
ARC
  5
47F
  8
0
 62
     7
 10
71.662227999999985
 20
64.688952999999984
 30
0.0
 40
0.204782
 50
2.1249530000000001
 51
87.975116999999983
  0
LINE
  5
480
  8
0
 62
     7
 10
71.312200000000004
 20
64.893600000000006
 30
0.0
 11
71.312200000000004
 21
63.547299999999993
 31
0.0
  0
LINE
  5
481
  8
0
 62
     7
 10
70.692099999999996
 20
63.778799999999997
 30
0.0
 11
70.692800000000005
 21
63.778799999999997
 31
0.0
  0
LINE
  5
482
  8
0
 62
     7
 10
70.779200000000003
 20
64.909099999999995
 30
0.0
 11
70.577699999999993
 21
65.082400000000007
 31
0.0
  0
LINE
  5
483
  8
0
 62
     7
 10
70.779200000000003
 20
63.56239999999999
 30
0.0
 11
70.577699999999993
 21
63.390799999999999
 31
0.0
  0
LINE
  5
484
  8
0
 62
     7
 10
68.043800000000005
 20
63.390799999999999
 30
0.0
 11
67.842299999999994
 21
63.56239999999999
 31
0.0
  0
LINE
  5
485
  8
0
 62
     7
 10
68.043800000000005
 20
65.081000000000003
 30
0.0
 11
67.842299999999994
 21
64.908799999999999
 31
0.0
  0
LINE
  5
486
  8
0
 62
     7
 10
67.842299999999994
 20
64.908799999999999
 30
0.0
 11
67.842299999999994
 21
63.56239999999999
 31
0.0
  0
ARC
  5
487
  8
0
 62
     7
 10
68.449123999999998
 20
63.766534
 30
0.0
 40
0.375696
 50
226.090531
 51
269.60840000000002
  0
ARC
  5
488
  8
0
 62
     7
 10
68.736553000000001
 20
64.102921999999992
 30
0.0
 40
0.8177999999999999
 50
194.52564899999999
 51
227.92765
  0
ARC
  5
489
  8
0
 62
     7
 10
69.069180000000003
 20
64.242402999999996
 30
0.0
 40
1.1759109999999999
 50
180.097003
 51
197.04044999999999
  0
ARC
  5
48A
  8
0
 62
     7
 10
69.049324999999996
 20
64.237069999999989
 30
0.0
 40
1.1560589999999991
 50
143.637925
 51
179.83433400000001
  0
ARC
  5
48B
  8
0
 62
     7
 10
68.494143000000008
 20
64.622166000000007
 30
0.0
 40
0.4810380000000001
 50
107.46798799999991
 51
141.3687139999999
  0
ARC
  5
48C
  8
0
 62
     7
 10
70.195139999999995
 20
64.657535999999993
 30
0.0
 40
0.430365
 50
34.020857999999997
 51
79.742001999999999
  0
ARC
  5
48D
  8
0
 62
     7
 10
69.713667999999998
 20
64.262839999999997
 30
0.0
 40
1.0518419999999991
 50
358.44037500000002
 51
37.168532999999996
  0
ARC
  5
48E
  8
0
 62
     7
 10
69.621883999999994
 20
64.237430000000003
 30
0.0
 40
1.14324
 50
322.92652299999992
 51
359.83870499999989
  0
ARC
  5
48F
  8
0
 62
     7
 10
70.166910999999999
 20
63.850614999999998
 30
0.0
 40
0.475615
 50
284.83190500000001
 51
320.52400799999992
  0
LINE
  5
490
  8
0
 62
     7
 10
68.032799999999995
 20
64.321700000000007
 30
0.0
 11
69.229299999999995
 21
64.321700000000007
 31
0.0
  0
LINE
  5
491
  8
0
 62
     7
 10
68.032799999999995
 20
64.149500000000003
 30
0.0
 11
69.229299999999995
 21
64.149500000000003
 31
0.0
  0
ARC
  5
492
  8
0
 62
     7
 10
68.730039000000005
 20
64.212353000000007
 30
0.0
 40
0.7034380000000001
 50
98.104442000000006
 51
178.21927299999999
  0
ARC
  5
493
  8
0
 62
     7
 10
68.621894999999995
 20
64.360462999999996
 30
0.0
 40
0.5483760000000001
 50
44.958604000000001
 51
89.062191999999996
  0
ARC
  5
494
  8
0
 62
     7
 10
68.499459999999999
 20
64.216945999999993
 30
0.0
 40
0.7365750000000001
 50
1.343137
 51
46.128844000000001
  0
ARC
  5
495
  8
0
 62
     7
 10
68.535852000000006
 20
64.256265999999997
 30
0.0
 40
0.700328
 50
277.79776299999992
 51
358.19536199999999
  0
ARC
  5
496
  8
0
 62
     7
 10
68.637214
 20
64.118871999999996
 30
0.0
 40
0.5564939999999999
 50
213.69901300000001
 51
269.34685599999989
  0
ARC
  5
497
  8
0
 62
     7
 10
68.756782999999999
 20
64.250058999999993
 30
0.0
 40
0.7300140000000001
 50
181.24391600000001
 51
217.06030799999999
  0
LINE
  5
498
  8
0
 62
     7
 10
68.040000000000006
 20
63.390799999999999
 30
0.0
 11
70.581199999999995
 21
63.390799999999999
 31
0.0
  0
LINE
  5
499
  8
0
 62
     7
 10
68.043800000000005
 20
65.081000000000003
 30
0.0
 11
70.579400000000007
 21
65.081000000000003
 31
0.0
  0
LINE
  5
49A
  8
0
 62
     7
 10
70.779200000000003
 20
64.909099999999995
 30
0.0
 11
70.779200000000003
 21
63.56239999999999
 31
0.0
  0
LINE
  5
49B
  8
0
 62
     7
 10
30.950199999999992
 20
79.067499999999995
 30
0.0
 11
30.950199999999992
 21
83.179599999999994
 31
0.0
  0
LINE
  5
49C
  8
0
 62
     7
 10
31.196899999999999
 20
78.688500000000005
 30
0.0
 11
43.281700000000001
 21
78.688500000000005
 31
0.0
  0
ARC
  5
49D
  8
0
 62
     7
 10
43.273142999999997
 20
78.43260699999999
 30
0.0
 40
0.256081
 50
2.0740579999999991
 51
88.085753000000011
  0
ARC
  5
49E
  8
0
 62
     7
 10
31.205469000000001
 20
78.43260699999999
 30
0.0
 40
0.255392
 50
91.91934599999999
 51
177.920356
  0
LINE
  5
49F
  8
0
 62
     7
 10
30.950199999999992
 20
78.341300000000004
 30
0.0
 11
30.950199999999992
 21
78.441900000000004
 31
0.0
  0
LINE
  5
4A0
  8
0
 62
     7
 10
41.160899999999991
 20
72.007400000000004
 30
0.0
 11
41.233899999999991
 21
72.007400000000004
 31
0.0
  0
LINE
  5
4A1
  8
0
 62
     7
 10
40.83979999999999
 20
72.329899999999995
 30
0.0
 11
40.83979999999999
 21
74.086200000000005
 31
0.0
  0
ARC
  5
4A2
  8
0
 62
     7
 10
41.173188000000003
 20
72.340769999999992
 30
0.0
 40
0.333567
 50
181.8687149999999
 51
267.88593700000001
  0
LINE
  5
4A3
  8
0
 62
     7
 10
33.648499999999999
 20
72.329899999999995
 30
0.0
 11
33.648499999999999
 21
74.086200000000005
 31
0.0
  0
LINE
  5
4A4
  8
0
 62
     7
 10
33.244700000000002
 20
72.007400000000004
 30
0.0
 11
33.32739999999999
 21
72.007400000000004
 31
0.0
  0
ARC
  5
4A5
  8
0
 62
     7
 10
33.313825999999992
 20
72.34200899999999
 30
0.0
 40
0.334854
 50
272.31909000000002
 51
357.92629799999992
  0
LINE
  5
4A6
  8
0
 62
     7
 10
41.160899999999991
 20
74.407300000000006
 30
0.0
 11
41.233899999999991
 21
74.407300000000006
 31
0.0
  0
ARC
  5
4A7
  8
0
 62
     7
 10
41.173085
 20
74.074010999999999
 30
0.0
 40
0.33351
 50
92.096754000000004
 51
177.9032159999999
  0
LINE
  5
4A8
  8
0
 62
     7
 10
33.244700000000002
 20
74.407300000000006
 30
0.0
 11
33.32739999999999
 21
74.407300000000006
 31
0.0
  0
ARC
  5
4A9
  8
0
 62
     7
 10
33.315671000000002
 20
74.074507999999994
 30
0.0
 40
0.332995
 50
2.0143559999999998
 51
87.98563399999999
  0
LINE
  5
4AA
  8
0
 62
     7
 10
33.244700000000002
 20
74.407300000000006
 30
0.0
 11
33.244700000000002
 21
76.477500000000006
 31
0.0
  0
LINE
  5
4AB
  8
0
 62
     7
 10
33.244700000000002
 20
71.607500000000002
 30
0.0
 11
33.244700000000002
 21
72.007400000000004
 31
0.0
  0
LINE
  5
4AC
  8
0
 62
     7
 10
33.244700000000002
 20
76.477500000000006
 30
0.0
 11
33.0959
 21
76.633200000000002
 31
0.0
  0
LINE
  5
4AD
  8
0
 62
     7
 10
41.346200000000003
 20
76.633200000000002
 30
0.0
 11
41.233899999999991
 21
76.477500000000006
 31
0.0
  0
LINE
  5
4AE
  8
0
 62
     7
 10
41.233899999999991
 20
72.007400000000004
 30
0.0
 11
41.233899999999991
 21
71.607500000000002
 31
0.0
  0
LINE
  5
4AF
  8
0
 62
     7
 10
41.233899999999991
 20
76.477500000000006
 30
0.0
 11
41.233899999999991
 21
74.407300000000006
 31
0.0
  0
LINE
  5
4B0
  8
0
 62
     7
 10
30.950199999999992
 20
78.341300000000004
 30
0.0
 11
43.549700000000001
 21
78.341300000000004
 31
0.0
  0
LINE
  5
4B1
  8
0
 62
     7
 10
47.182899999999989
 20
62.533700000000003
 30
0.0
 11
47.182899999999989
 21
66.0047
 31
0.0
  0
ARC
  5
4B2
  8
0
 62
     7
 10
46.934166999999988
 20
62.543033999999999
 30
0.0
 40
0.256531
 50
272.16484600000001
 51
357.91512999999998
  0
ARC
  5
4B3
  8
0
 62
     7
 10
46.927989999999987
 20
65.994582999999992
 30
0.0
 40
0.255157
 50
2.262839
 51
88.138661999999997
  0
LINE
  5
4B4
  8
0
 62
     7
 10
41.4069
 20
62.417299999999997
 30
0.0
 11
33.0717
 21
62.417299999999997
 31
0.0
  0
LINE
  5
4B5
  8
0
 62
     7
 10
43.263800000000003
 20
70.688599999999994
 30
0.0
 11
31.2148
 21
70.688599999999994
 31
0.0
  0
LINE
  5
4B6
  8
0
 62
     7
 10
43.823300000000003
 20
65.872
 30
0.0
 11
43.823300000000003
 21
62.589500000000001
 31
0.0
  0
LINE
  5
4B7
  8
0
 62
     7
 10
43.5291
 20
78.871499999999997
 30
0.0
 11
43.5291
 21
83.179599999999994
 31
0.0
  0
LINE
  5
4B8
  8
0
 62
     7
 10
41.761000000000003
 20
82.366600000000005
 30
0.0
 11
43.5291
 21
82.840299999999985
 31
0.0
  0
LINE
  5
4B9
  8
0
 62
     7
 10
43.5291
 20
82.840299999999985
 30
0.0
 11
41.761000000000003
 21
83.314300000000003
 31
0.0
  0
LINE
  5
4BA
  8
0
 62
     7
 10
41.761000000000003
 20
83.314300000000003
 30
0.0
 11
41.761000000000003
 21
82.366600000000005
 31
0.0
  0
LINE
  5
4BB
  8
0
 62
     7
 10
32.718299999999999
 20
83.302899999999994
 30
0.0
 11
30.950199999999992
 21
82.828900000000004
 31
0.0
  0
LINE
  5
4BC
  8
0
 62
     7
 10
30.950199999999992
 20
82.828900000000004
 30
0.0
 11
32.718299999999999
 21
82.354799999999997
 31
0.0
  0
LINE
  5
4BD
  8
0
 62
     7
 10
32.718299999999999
 20
82.354799999999997
 30
0.0
 11
32.718299999999999
 21
83.302899999999994
 31
0.0
  0
LINE
  5
4BE
  8
0
 62
     7
 10
43.507699999999993
 20
82.834699999999984
 30
0.0
 11
31.030200000000001
 21
82.834699999999984
 31
0.0
  0
LINE
  5
4BF
  8
0
 62
     7
 10
37.238999999999997
 20
58.169400000000003
 30
0.0
 11
37.238999999999997
 21
46.515599999999992
 31
0.0
  0
LINE
  5
4C0
  8
0
 62
     7
 10
71.868899999999996
 20
63.716799999999999
 30
0.0
 11
73.026499999999984
 21
63.716799999999999
 31
0.0
  0
LINE
  5
4C1
  8
0
 62
     7
 10
47.183599999999991
 20
63.731200000000001
 30
0.0
 11
68.993600000000001
 21
63.731200000000001
 31
0.0
  0
LINE
  5
4C2
  8
0
  6
AIGENLINE001
 62
     7
 10
39.736699999999999
 20
64.230800000000002
 30
0.0
 11
74.928200000000004
 21
64.230800000000002
 31
0.0
  0
LINE
  5
4C3
  8
0
 62
     7
 10
71.868899999999996
 20
64.716200000000001
 30
0.0
 11
73.026499999999984
 21
64.716200000000001
 31
0.0
  0
LINE
  5
4C4
  8
0
 62
     7
 10
47.183599999999991
 20
64.7303
 30
0.0
 11
68.993600000000001
 21
64.7303
 31
0.0
  0
ARC
  5
4C5
  8
0
 62
     7
 10
41.710440999999989
 20
62.23593799999999
 30
0.0
 40
0.353603
 50
90.735779000000008
 51
149.151252
  0
LINE
  5
4C6
  8
0
 62
     7
 10
44.592199999999998
 20
62.3735
 30
0.0
 11
44.592199999999998
 21
66.087699999999984
 31
0.0
  0
ARC
  5
4C7
  8
0
 62
     7
 10
41.765153999999988
 20
66.230335999999994
 30
0.0
 40
0.358555
 50
182.20647500000001
 51
267.90803199999999
  0
LINE
  5
4C8
  8
0
 62
     7
 10
44.592199999999998
 20
62.3735
 30
0.0
 11
44.6783
 21
62.28670000000001
 31
0.0
  0
LINE
  5
4C9
  8
0
 62
     7
 10
44.6783
 20
66.172399999999996
 30
0.0
 11
44.592199999999998
 21
66.087699999999984
 31
0.0
  0
LINE
  5
4CA
  8
0
 62
     7
 10
41.752099999999992
 20
65.872
 30
0.0
 11
44.592199999999998
 21
65.872
 31
0.0
  0
LINE
  5
4CB
  8
0
 62
     7
 10
44.592199999999998
 20
62.589500000000001
 30
0.0
 11
41.705899999999993
 21
62.589500000000001
 31
0.0
  0
LINE
  5
4CC
  8
0
 62
     7
 10
44.171199999999992
 20
65.669799999999995
 30
0.0
 11
44.592199999999998
 21
65.669799999999995
 31
0.0
  0
LINE
  5
4CD
  8
0
 62
     7
 10
44.592199999999998
 20
62.78929999999999
 30
0.0
 11
44.171199999999992
 21
62.78929999999999
 31
0.0
  0
LINE
  5
4CE
  8
0
 62
     7
 10
73.026499999999984
 20
64.716200000000001
 30
0.0
 11
73.026499999999984
 21
63.716799999999999
 31
0.0
  0
ARC
  5
4CF
  8
0
 62
     7
 10
42.655892999999999
 20
76.628581000000011
 30
0.0
 40
1.3096709999999989
 50
143.257069
 51
179.79840999999999
  0
ARC
  5
4D0
  8
0
 62
     7
 10
43.457903999999999
 20
76.090631000000002
 30
0.0
 40
2.274681999999999
 50
97.584481999999994
 51
144.4840639999999
  0
ARC
  5
4D1
  8
0
 62
     7
 10
30.967449999999999
 20
76.095636999999996
 30
0.0
 40
2.2718979999999989
 50
27.310928000000001
 51
81.997584000000003
  0
ARC
  5
4D2
  8
0
 62
     7
 10
31.795483000000001
 20
76.614805000000004
 30
0.0
 40
1.3005100000000001
 50
0.8099199999999999
 51
23.723327999999999
  0
LINE
  5
4D3
  8
0
 62
     7
 10
38.738999999999997
 20
72.507300000000001
 30
0.0
 11
38.738999999999997
 21
73.907399999999996
 31
0.0
  0
LINE
  5
4D4
  8
0
 62
     7
 10
35.738999999999997
 20
72.507300000000001
 30
0.0
 11
35.738999999999997
 21
73.907399999999996
 31
0.0
  0
LINE
  5
4D5
  8
0
  6
AIGENLINE001
 62
     7
 10
37.238999999999997
 20
58.991799999999998
 30
0.0
 11
37.238999999999997
 21
79.814099999999996
 31
0.0
  0
ARC
  5
4D6
  8
0
 62
     7
 10
32.042396999999987
 20
71.093405000000004
 30
0.0
 40
0.5258010000000001
 50
180.55929599999999
 51
230.33674799999989
  0
ARC
  5
4D7
  8
0
 62
     7
 10
32.055714999999999
 20
71.068370999999985
 30
0.0
 40
0.5394610000000001
 50
92.152194999999992
 51
177.885808
  0
ARC
  5
4D8
  8
0
 62
     7
 10
42.424719000000003
 20
71.070954999999984
 30
0.0
 40
0.536862
 50
1.8484670000000001
 51
87.884764999999987
  0
ARC
  5
4D9
  8
0
 62
     7
 10
42.437893000000003
 20
71.09170300000001
 30
0.0
 40
0.52342
 50
309.64076199999988
 51
359.62443500000001
  0
LINE
  5
4DA
  8
0
 62
     7
 10
41.4069
 20
68.944000000000003
 30
0.0
 11
41.4069
 21
66.216499999999996
 31
0.0
  0
ARC
  5
4DB
  8
0
 62
     7
 10
32.190342999999999
 20
68.934355000000011
 30
0.0
 40
0.8814579999999999
 50
0.6289690000000001
 51
59.347997999999997
  0
ARC
  5
4DC
  8
0
 62
     7
 10
42.289066999999989
 20
68.933893999999995
 30
0.0
 40
0.882261
 50
120.681333
 51
179.34166099999999
  0
LINE
  5
4DD
  8
0
 62
     7
 10
33.0717
 20
62.417299999999997
 30
0.0
 11
33.0717
 21
68.944000000000003
 31
0.0
  0
LINE
  5
4DE
  8
0
 62
     7
 10
44.171199999999992
 20
62.78929999999999
 30
0.0
 11
43.823300000000003
 21
62.589500000000001
 31
0.0
  0
LINE
  5
4DF
  8
0
 62
     7
 10
41.000300000000003
 20
60.688499999999998
 30
0.0
 11
41.000300000000003
 21
61.898400000000002
 31
0.0
  0
LINE
  5
4E0
  8
0
 62
     7
 10
33.244700000000002
 20
60.922800000000002
 30
0.0
 11
41.233899999999991
 21
60.922800000000002
 31
0.0
  0
LINE
  5
4E1
  8
0
 62
     7
 10
43.263800000000003
 20
70.515000000000001
 30
0.0
 11
41.838900000000002
 21
69.692700000000002
 31
0.0
  0
LINE
  5
4E2
  8
0
 62
     7
 10
43.263800000000003
 20
70.515000000000001
 30
0.0
 11
43.263800000000003
 21
70.688599999999994
 31
0.0
  0
LINE
  5
4E3
  8
0
 62
     7
 10
41.233899999999991
 20
61.898400000000002
 30
0.0
 11
33.287399999999991
 21
61.898400000000002
 31
0.0
  0
LINE
  5
4E4
  8
0
 62
     7
 10
41.1905
 20
61.898400000000002
 30
0.0
 11
41.1905
 21
62.417299999999997
 31
0.0
  0
LINE
  5
4E5
  8
0
 62
     7
 10
33.287399999999991
 20
61.898400000000002
 30
0.0
 11
33.287399999999991
 21
62.417299999999997
 31
0.0
  0
LINE
  5
4E6
  8
0
 62
     7
 10
33.244700000000002
 20
60.922800000000002
 30
0.0
 11
33.478999999999999
 21
60.688499999999998
 31
0.0
  0
LINE
  5
4E7
  8
0
 62
     7
 10
41.233899999999991
 20
60.922800000000002
 30
0.0
 11
41.000300000000003
 21
60.688499999999998
 31
0.0
  0
LINE
  5
4E8
  8
0
 62
     7
 10
41.233899999999991
 20
61.898400000000002
 30
0.0
 11
41.233899999999991
 21
60.922800000000002
 31
0.0
  0
LINE
  5
4E9
  8
0
 62
     7
 10
33.244700000000002
 20
60.922800000000002
 30
0.0
 11
33.244700000000002
 21
61.898400000000002
 31
0.0
  0
LINE
  5
4EA
  8
0
 62
     7
 10
41.000300000000003
 20
60.688499999999998
 30
0.0
 11
33.478999999999999
 21
60.688499999999998
 31
0.0
  0
LINE
  5
4EB
  8
0
 62
     7
 10
31.2148
 20
70.515000000000001
 30
0.0
 11
32.639699999999998
 21
69.692700000000002
 31
0.0
  0
LINE
  5
4EC
  8
0
 62
     7
 10
31.2148
 20
70.515000000000001
 30
0.0
 11
31.2148
 21
70.688599999999994
 31
0.0
  0
LINE
  5
4ED
  8
0
 62
     7
 10
73.198099999999997
 20
63.888300000000001
 30
0.0
 11
73.026499999999984
 21
63.716799999999999
 31
0.0
  0
LINE
  5
4EE
  8
0
 62
     7
 10
73.026499999999984
 20
64.716200000000001
 30
0.0
 11
73.198099999999997
 21
64.542199999999994
 31
0.0
  0
LINE
  5
4EF
  8
0
 62
     7
 10
73.198099999999997
 20
63.888300000000001
 30
0.0
 11
73.198099999999997
 21
64.542199999999994
 31
0.0
  0
LINE
  5
4F0
  8
0
 62
     7
 10
33.478999999999999
 20
60.688499999999998
 30
0.0
 11
33.478999999999999
 21
61.898400000000002
 31
0.0
  0
LINE
  5
4F1
  8
0
 62
     7
 10
36.239199999999997
 20
74.407300000000006
 30
0.0
 11
38.239100000000001
 21
74.407300000000006
 31
0.0
  0
LINE
  5
4F2
  8
0
 62
     7
 10
36.239199999999997
 20
72.007400000000004
 30
0.0
 11
38.239100000000001
 21
72.007400000000004
 31
0.0
  0
LINE
  5
4F3
  8
0
 62
     7
 10
32.035499999999992
 20
71.607500000000002
 30
0.0
 11
42.444499999999991
 21
71.607500000000002
 31
0.0
  0
LINE
  5
4F4
  8
0
 62
     7
 10
44.171199999999992
 20
62.589500000000001
 30
0.0
 11
44.171199999999992
 21
65.872
 31
0.0
  0
LINE
  5
4F5
  8
0
 62
     7
 10
43.823300000000003
 20
65.872
 30
0.0
 11
44.171199999999992
 21
65.669799999999995
 31
0.0
  0
LINE
  5
4F6
  8
0
 62
     7
 10
45.28329999999999
 20
66.172399999999996
 30
0.0
 11
44.6783
 21
66.172399999999996
 31
0.0
  0
LINE
  5
4F7
  8
_________2
 62
     7
 10
138.69799999999989
 20
258.911
 30
0.0
 11
138.69799999999989
 21
230.91099999999989
 31
0.0
  0
LINE
  5
4F8
  8
_________2
 62
     7
 10
159.59999999999999
 20
258.911
 30
0.0
 11
159.59999999999999
 21
230.91099999999989
 31
0.0
  0
TEXT
  5
4F9
  8
_________2
 62
     7
 10
168.59033466666659
 20
233.06200000000001
 30
0.0
 40
3.3734599999999988
  1
クロム
 41
0.5
 72
     1
 11
171.51400000000001
 21
233.06200000000001
 31
0.0
  0
TEXT
  5
4FA
  8
_________2
 62
     7
 10
142.29551916666659
 20
233.06200000000001
 30
0.0
 40
3.3734599999999988
  1
HR1708-CH
 41
0.5
 72
     1
 11
149.18299999999999
 21
233.06200000000001
 31
0.0
  0
LINE
  5
4FB
  8
_________2
 62
     7
 10
138.69799999999989
 20
230.91099999999989
 30
0.0
 11
183.55099999999999
 21
230.91099999999989
 31
0.0
  0
TEXT
  5
4FC
  8
_________2
 62
     7
 10
168.70278333333329
 20
240.0619999999999
 30
0.0
 40
3.3734599999999988
  1
ブラス
 41
0.5
 72
     1
 11
171.51400000000001
 21
240.0619999999999
 31
0.0
  0
TEXT
  5
4FD
  8
_________2
 62
     7
 10
162.63055533333329
 20
247.06200000000001
 30
0.0
 40
3.3734599999999988
  1
アンティークブラス
 41
0.5
 72
     1
 11
171.51400000000001
 21
247.06200000000001
 31
0.0
  0
TEXT
  5
4FE
  8
_________2
 62
     7
 10
169.7148213333333
 20
254.06200000000001
 30
0.0
 40
3.3734599999999988
  1
仕上
 41
0.5
 72
     1
 11
171.51400000000001
 21
254.06200000000001
 31
0.0
  0
TEXT
  5
4FF
  8
_________2
 62
     7
 10
142.29551916666659
 20
240.0619999999999
 30
0.0
 40
3.3734599999999988
  1
HR1708-PB
 41
0.5
 72
     1
 11
149.18299999999999
 21
240.0619999999999
 31
0.0
  0
TEXT
  5
500
  8
_________2
 62
     7
 10
142.29551916666659
 20
247.06200000000001
 30
0.0
 40
3.3734599999999988
  1
HR1708-AB
 41
0.5
 72
     1
 11
149.18299999999999
 21
247.06200000000001
 31
0.0
  0
TEXT
  5
501
  8
_________2
 62
     7
 10
147.38382133333329
 20
254.06200000000001
 30
0.0
 40
3.3734599999999988
  1
品番
 41
0.5
 72
     1
 11
149.18299999999999
 21
254.06200000000001
 31
0.0
  0
LINE
  5
502
  8
_________2
 62
     7
 10
138.69799999999989
 20
237.91099999999989
 30
0.0
 11
183.55099999999999
 21
237.91099999999989
 31
0.0
  0
LINE
  5
503
  8
_________2
 62
     7
 10
138.69799999999989
 20
244.91099999999989
 30
0.0
 11
183.55099999999999
 21
244.91099999999989
 31
0.0
  0
LINE
  5
504
  8
_________2
 62
     7
 10
138.69799999999989
 20
251.91099999999989
 30
0.0
 11
183.55099999999999
 21
251.91099999999989
 31
0.0
  0
TEXT
  5
505
  8
_________2
 62
     7
 10
136.66252499999999
 20
9.1082000000000001
 30
0.0
 40
3.9357000000000002
  1
図中の表参照
 41
0.5
 72
     1
 11
143.55000000000001
 21
9.1082000000000001
 31
0.0
  0
TEXT
  5
506
  8
_________2
 62
     7
 10
24.586400000000001
 20
0.707627
 30
0.0
 40
3.9357000000000002
  1
（社）日本水道協会認証品
 41
0.5
  0
TEXT
  5
507
  8
_________2
 62
     7
 10
109.179
 20
24.226099999999999
 30
0.0
 40
3.9357000000000002
  1
ジュリア 湯水混合栓
 41
0.5
  0
LINE
  5
508
  8
_________2
 62
     7
 10
205.30099999999999
 20
127.411
 30
0.0
 11
183.55099999999999
 21
127.411
 31
0.0
  0
LINE
  5
509
  8
_________2
 62
     7
 10
100.2999999999999
 20
-4.0910799999999998
 30
0.0
 11
100.2999999999999
 21
-21.070999999999991
 31
0.0
  0
LINE
  5
50A
  8
_________2
 62
     7
 10
100.2999999999999
 20
275.93099999999993
 30
0.0
 11
100.2999999999999
 21
258.911
 31
0.0
  0
LINE
  5
50B
  8
_________2
 62
     7
 10
17.049199999999988
 20
127.411
 30
0.0
 11
-4.7012099999999988
 21
127.411
 31
0.0
  0
LINE
  5
50C
  8
_________2
 62
     7
 10
76.740700000000004
 20
29.8047
 30
0.0
 11
74.554400000000001
 21
29.8047
 31
0.0
  0
LINE
  5
50D
  8
_________2
 62
     7
 10
77.2333
 20
29.8047
 30
0.0
 11
76.981099999999984
 21
29.8047
 31
0.0
  0
LINE
  5
50E
  8
_________2
 62
     7
 10
77.725999999999999
 20
29.8047
 30
0.0
 11
80.650899999999993
 21
29.8047
 31
0.0
  0
LINE
  5
50F
  8
_________2
 62
     7
 10
77.2333
 20
29.8047
 30
0.0
 11
77.485500000000002
 21
29.8047
 31
0.0
  0
LINE
  5
510
  8
_________2
 62
     7
 10
70.837100000000007
 20
29.8047
 30
0.0
 11
68.650199999999998
 21
29.8047
 31
0.0
  0
LINE
  5
511
  8
_________2
 62
     7
 10
71.329099999999997
 20
29.8047
 30
0.0
 11
71.077600000000004
 21
29.8047
 31
0.0
  0
LINE
  5
512
  8
_________2
 62
     7
 10
71.329099999999997
 20
30.2974
 30
0.0
 11
71.329099999999997
 21
32.484400000000001
 31
0.0
  0
LINE
  5
513
  8
_________2
 62
     7
 10
71.329099999999997
 20
29.8047
 30
0.0
 11
71.329099999999997
 21
30.057300000000001
 31
0.0
  0
LINE
  5
514
  8
_________2
 62
     7
 10
71.821700000000007
 20
29.8047
 30
0.0
 11
74.008700000000005
 21
29.8047
 31
0.0
  0
LINE
  5
515
  8
_________2
 62
     7
 10
71.329099999999997
 20
29.8047
 30
0.0
 11
71.581299999999985
 21
29.8047
 31
0.0
  0
LINE
  5
516
  8
_________2
 62
     7
 10
71.329099999999997
 20
29.312799999999999
 30
0.0
 11
71.329099999999997
 21
27.126200000000001
 31
0.0
  0
LINE
  5
517
  8
_________2
 62
     7
 10
71.329099999999997
 20
29.8047
 30
0.0
 11
71.329099999999997
 21
29.5532
 31
0.0
  0
LINE
  5
518
  8
_________2
 62
     7
 10
75.040199999999999
 20
28.5852
 30
0.0
 11
80.218199999999996
 21
27.720400000000001
 31
0.0
  0
LINE
  5
519
  8
_________2
 62
     7
 10
75.040199999999999
 20
31.024699999999999
 30
0.0
 11
80.218199999999996
 21
31.8901
 31
0.0
  0
LINE
  5
51A
  8
_________2
 62
     7
 10
80.218199999999996
 20
27.720400000000001
 30
0.0
 11
80.218199999999996
 21
31.8901
 31
0.0
  0
LINE
  5
51B
  8
_________2
 62
     7
 10
75.040199999999999
 20
28.5852
 30
0.0
 11
75.040199999999999
 21
31.024699999999999
 31
0.0
  0
ARC
  5
51C
  8
_________2
 62
     7
 10
71.282501999999994
 20
29.757801000000001
 30
0.0
 40
1.267714
 50
2.1220840000000001
 51
87.894083999999992
  0
ARC
  5
51D
  8
_________2
 62
     7
 10
71.375640000000004
 20
29.758545999999999
 30
0.0
 40
1.2669680000000001
 50
92.105782999999988
 51
177.91037
  0
ARC
  5
51E
  8
_________2
 62
     7
 10
71.376013999999998
 20
29.851671
 30
0.0
 40
1.2673680000000001
 50
182.12203600000001
 51
267.877993
  0
ARC
  5
51F
  8
_________2
 62
     7
 10
71.282195999999999
 20
29.852347999999999
 30
0.0
 40
1.2680439999999991
 50
272.11916400000001
 51
357.84848499999993
  0
ARC
  5
520
  8
_________2
 62
     7
 10
71.248716999999985
 20
29.724731999999989
 30
0.0
 40
2.1668310000000002
 50
2.1161439999999989
 51
87.874379000000005
  0
ARC
  5
521
  8
_________2
 62
     7
 10
71.408756000000011
 20
29.726146
 30
0.0
 40
2.165392999999999
 50
92.108508999999998
 51
177.91986499999999
  0
ARC
  5
522
  8
_________2
 62
     7
 10
71.409094999999994
 20
29.884751999999999
 30
0.0
 40
2.1657829999999998
 50
182.117133
 51
267.88289700000001
  0
ARC
  5
523
  8
_________2
 62
     7
 10
71.249115000000003
 20
29.885429999999989
 30
0.0
 40
2.1664590000000001
 50
272.11546800000002
 51
357.86560400000002
  0
TEXT
  5
524
  8
_________2
 62
     7
 10
104.605
 20
1.6794899999999999
 30
0.0
 40
3.0923400000000001
  1
図番
 41
0.5
  0
LINE
  5
525
  8
_________2
 62
     7
 10
103.55
 20
5.9087199999999989
 30
0.0
 11
183.55099999999999
 21
5.9087199999999989
 31
0.0
  0
TEXT
  5
526
  8
_________2
 62
     7
 10
104.605
 20
11.679299999999991
 30
0.0
 40
3.0923400000000001
  1
品番
 41
0.5
  0
TEXT
  5
527
  8
_________2
 62
     7
 10
104.605
 20
31.8184
 30
0.0
 40
3.0923400000000001
  1
名称
 41
0.5
  0
TEXT
  5
528
  8
_________2
 62
     7
 10
91.844758333333345
 20
26.822299999999998
 30
0.0
 40
3.6545800000000002
  1
mm
 41
0.5
 72
     1
 11
93.367500000000007
 21
26.822299999999998
 31
0.0
  0
TEXT
  5
529
  8
_________2
 62
     7
 10
85.642899999999983
 20
31.8184
 30
0.0
 40
3.0923400000000001
  1
単位
 41
0.5
  0
TEXT
  5
52A
  8
_________2
 62
     7
 10
85.642899999999983
 20
19.410799999999991
 30
0.0
 40
3.0923400000000001
  1
尺度
 41
0.5
  0
TEXT
  5
52B
  8
_________2
 62
     7
 10
90.548458666666676
 20
13.218199999999991
 30
0.0
 40
3.6545800000000002
  1
1 ： 4
 41
0.5
 72
     1
 11
93.959400000000016
 21
13.218199999999991
 31
0.0
  0
TEXT
  5
52C
  8
_________2
 62
     7
 10
138.4663875
 20
-0.8926299999999999
 30
0.0
 40
3.9357000000000002
  1
HR1708
 41
0.5
 72
     1
 11
143.55000000000001
 21
-0.8926299999999999
 31
0.0
  0
TEXT
  5
52D
  8
_________2
 62
     7
 10
39.364090666666669
 20
13.603400000000001
 30
0.0
 40
3.6545800000000002
  1
石原
 41
0.5
 72
     1
 11
41.313200000000002
 21
13.603400000000001
 31
0.0
  0
TEXT
  5
52E
  8
_________2
 62
     7
 10
20.790090666666661
 20
13.603400000000001
 30
0.0
 40
3.6545800000000002
  1
大石
 41
0.5
 72
     1
 11
22.73919999999999
 21
13.603400000000001
 31
0.0
  0
TEXT
  5
52F
  8
_________2
 62
     7
 10
67.785399999999996
 20
13.218199999999991
 30
0.0
 40
3.6545800000000002
  1
10.12.22
 41
0.5
  0
TEXT
  5
530
  8
_________2
 62
     7
 10
66.592699999999994
 20
19.410799999999991
 30
0.0
 40
3.0923400000000001
  1
日付
 41
0.5
  0
TEXT
  5
531
  8
_________2
 62
     7
 10
29.638999999999999
 20
19.410799999999991
 30
0.0
 40
3.0923400000000001
  1
検図
 41
0.5
  0
TEXT
  5
532
  8
_________2
 62
     7
 10
18.020700000000001
 20
5.21143
 30
0.0
 40
3.0923400000000001
  1
備考
 41
0.5
  0
TEXT
  5
533
  8
_________2
 62
     7
 10
18.020700000000001
 20
19.410799999999991
 30
0.0
 40
3.0923400000000001
  1
製図
 41
0.5
  0
TEXT
  5
534
  8
_________2
 62
     7
 10
23.788165333333328
 20
27.936800000000002
 30
0.0
 40
4.4979399999999989
  1
セラトレーディング株式会社
 41
0.5
 72
     1
 11
41.180199999999999
 21
27.936800000000002
 31
0.0
  0
LINE
  5
535
  8
_________2
 62
     7
 10
183.55099999999999
 20
-4.0910799999999998
 30
0.0
 11
17.049199999999988
 21
-4.0910799999999998
 31
0.0
  0
LINE
  5
536
  8
_________2
 62
     7
 10
17.049199999999988
 20
-4.0910799999999998
 30
0.0
 11
17.049199999999988
 21
258.911
 31
0.0
  0
LINE
  5
537
  8
_________2
 62
     7
 10
17.049199999999988
 20
258.911
 30
0.0
 11
183.55099999999999
 21
258.911
 31
0.0
  0
LINE
  5
538
  8
_________2
 62
     7
 10
183.55099999999999
 20
258.911
 30
0.0
 11
183.55099999999999
 21
-4.0910799999999998
 31
0.0
  0
LINE
  5
539
  8
_________2
 62
     7
 10
65.549599999999998
 20
9.4092999999999982
 30
0.0
 11
65.549599999999998
 21
35.909100000000002
 31
0.0
  0
LINE
  5
53A
  8
_________2
 62
     7
 10
84.549400000000006
 20
9.4092999999999982
 30
0.0
 11
84.549400000000006
 21
35.909100000000002
 31
0.0
  0
LINE
  5
53B
  8
_________2
 62
     7
 10
103.55
 20
-4.0910799999999998
 30
0.0
 11
103.55
 21
35.909100000000002
 31
0.0
  0
LINE
  5
53C
  8
_________2
 62
     7
 10
28.548999999999999
 20
9.4092999999999982
 30
0.0
 11
28.548999999999999
 21
23.409199999999998
 31
0.0
  0
LINE
  5
53D
  8
_________2
 62
     7
 10
17.049199999999988
 20
9.4092999999999982
 30
0.0
 11
103.55
 21
9.4092999999999982
 31
0.0
  0
LINE
  5
53E
  8
_________2
 62
     7
 10
17.049199999999988
 20
23.409199999999998
 30
0.0
 11
103.55
 21
23.409199999999998
 31
0.0
  0
LINE
  5
53F
  8
_________2
 62
     7
 10
103.55
 20
15.9085
 30
0.0
 11
183.55099999999999
 21
15.9085
 31
0.0
  0
LINE
  5
540
  8
_________2
 62
     7
 10
17.049199999999988
 20
35.909100000000002
 30
0.0
 11
183.55099999999999
 21
35.909100000000002
 31
0.0
  0
ENDSEC
  0
EOF
